  0
SECTION
  2
HEADER
  9
$ACADVER
  1
AC1009
  9
$DWGCODEPAGE
  3
ansi_1256
  9
$INSBASE
 10
0.0
 20
0.0
 30
0.0
  9
$EXTMIN
 10
-577.5
 20
-422.5
 30
0.0
  9
$EXTMAX
 10
577.5
 20
422.5
 30
0.0
  9
$LIMMIN
 10
0.0
 20
0.0
  9
$LIMMAX
 10
12.0
 20
9.0
  9
$ORTHOMODE
 70
     0
  9
$REGENMODE
 70
     1
  9
$FILLMODE
 70
     1
  9
$QTEXTMODE
 70
     0
  9
$MIRRTEXT
 70
     1
  9
$DRAGMODE
 70
     2
  9
$LTSCALE
 40
1.0
  9
$OSMODE
 70
    37
  9
$ATTMODE
 70
     1
  9
$TEXTSIZE
 40
0.2
  9
$TRACEWID
 40
0.05
  9
$TEXTSTYLE
  7
STANDARD
  9
$CLAYER
  8
0
  9
$CELTYPE
  6
BYLAYER
  9
$CECOLOR
 62
   256
  9
$DIMSCALE
 40
1.0
  9
$DIMASZ
 40
0.18
  9
$DIMEXO
 40
0.0625
  9
$DIMDLI
 40
0.38
  9
$DIMRND
 40
0.0
  9
$DIMDLE
 40
0.0
  9
$DIMEXE
 40
0.18
  9
$DIMTP
 40
0.0
  9
$DIMTM
 40
0.0
  9
$DIMTXT
 40
0.18
  9
$DIMCEN
 40
0.09
  9
$DIMTSZ
 40
0.0
  9
$DIMTOL
 70
     0
  9
$DIMLIM
 70
     0
  9
$DIMTIH
 70
     1
  9
$DIMTOH
 70
     1
  9
$DIMSE1
 70
     0
  9
$DIMSE2
 70
     0
  9
$DIMTAD
 70
     0
  9
$DIMZIN
 70
     0
  9
$DIMBLK
  1

  9
$DIMASO
 70
     1
  9
$DIMSHO
 70
     1
  9
$DIMPOST
  1

  9
$DIMAPOST
  1

  9
$DIMALT
 70
     0
  9
$DIMALTD
 70
     2
  9
$DIMALTF
 40
25.4
  9
$DIMLFAC
 40
1.0
  9
$DIMTOFL
 70
     0
  9
$DIMTVP
 40
0.0
  9
$DIMTIX
 70
     0
  9
$DIMSOXD
 70
     0
  9
$DIMSAH
 70
     0
  9
$DIMBLK1
  1

  9
$DIMBLK2
  1

  9
$DIMSTYLE
  2
STANDARD
  9
$DIMCLRD
 70
     0
  9
$DIMCLRE
 70
     0
  9
$DIMCLRT
 70
     0
  9
$DIMTFAC
 40
1.0
  9
$DIMGAP
 40
0.09
  9
$LUNITS
 70
     2
  9
$LUPREC
 70
     4
  9
$SKETCHINC
 40
0.1
  9
$FILLETRAD
 40
0.5
  9
$AUNITS
 70
     0
  9
$AUPREC
 70
     0
  9
$MENU
  1
.
  9
$ELEVATION
 40
0.0
  9
$PELEVATION
 40
0.0
  9
$THICKNESS
 40
0.0
  9
$LIMCHECK
 70
     0
  9
$CHAMFERA
 40
0.5
  9
$CHAMFERB
 40
0.5
  9
$SKPOLY
 70
     0
  9
$TDCREATE
 40
2454910.5
  9
$TDUPDATE
 40
2458661.480991354
  9
$TDINDWG
 40
0.0000000116
  9
$TDUSRTIMER
 40
0.0000000116
  9
$USRTIMER
 70
     1
  9
$ANGBASE
 50
0.0
  9
$ANGDIR
 70
     0
  9
$PDMODE
 70
     0
  9
$PDSIZE
 40
0.0
  9
$PLINEWID
 40
0.0
  9
$COORDS
 70
     1
  9
$SPLFRAME
 70
     0
  9
$SPLINETYPE
 70
     6
  9
$SPLINESEGS
 70
     8
  9
$ATTDIA
 70
     0
  9
$ATTREQ
 70
     1
  9
$HANDLING
 70
     1
  9
$HANDSEED
  5
BA6
  9
$SURFTAB1
 70
     6
  9
$SURFTAB2
 70
     6
  9
$SURFTYPE
 70
     6
  9
$SURFU
 70
     6
  9
$SURFV
 70
     6
  9
$UCSNAME
  2

  9
$UCSORG
 10
0.0
 20
0.0
 30
0.0
  9
$UCSXDIR
 10
1.0
 20
0.0
 30
0.0
  9
$UCSYDIR
 10
0.0
 20
1.0
 30
0.0
  9
$PUCSNAME
  2

  9
$PUCSORG
 10
0.0
 20
0.0
 30
0.0
  9
$PUCSXDIR
 10
1.0
 20
0.0
 30
0.0
  9
$PUCSYDIR
 10
0.0
 20
1.0
 30
0.0
  9
$USERI1
 70
     0
  9
$USERI2
 70
     0
  9
$USERI3
 70
     0
  9
$USERI4
 70
     0
  9
$USERI5
 70
     0
  9
$USERR1
 40
0.0
  9
$USERR2
 40
0.0
  9
$USERR3
 40
0.0
  9
$USERR4
 40
0.0
  9
$USERR5
 40
0.0
  9
$WORLDVIEW
 70
     1
  9
$SHADEDGE
 70
     3
  9
$SHADEDIF
 70
    70
  9
$TILEMODE
 70
     1
  9
$MAXACTVP
 70
    64
  9
$PLIMCHECK
 70
     0
  9
$PEXTMIN
 10
1.000000000000000E+20
 20
1.000000000000000E+20
 30
1.000000000000000E+20
  9
$PEXTMAX
 10
-1.000000000000000E+20
 20
-1.000000000000000E+20
 30
-1.000000000000000E+20
  9
$PLIMMIN
 10
0.0
 20
0.0
  9
$PLIMMAX
 10
12.0
 20
9.0
  9
$UNITMODE
 70
     0
  9
$VISRETAIN
 70
     1
  9
$PLINEGEN
 70
     0
  9
$PSLTSCALE
 70
     1
  0
ENDSEC
  0
SECTION
  2
TABLES
  0
TABLE
  2
VPORT
 70
     1
  0
VPORT
  2
*ACTIVE
 70
     0
 10
0.0
 20
0.0
 11
1.0
 21
1.0
 12
10.42990654205607
 22
4.5
 13
0.0
 23
0.0
 14
0.5
 24
0.5
 15
0.5
 25
0.5
 16
0.0
 26
0.0
 36
1.0
 17
0.0
 27
0.0
 37
0.0
 40
9.0
 41
1.972972972850329
 42
50.0
 43
0.0
 44
0.0
 50
0.0
 51
0.0
 71
     0
 72
   100
 73
     1
 74
     3
 75
     0
 76
     0
 77
     0
 78
     0
  0
ENDTAB
  0
TABLE
  2
LTYPE
 70
     2
  0
LTYPE
  2
CONTINUOUS
 70
     0
  3
Solid line
 72
    65
 73
     0
 40
0.0
  0
LTYPE
  2
CONTINUOUS2
 70
     0
  3
Solid Line
 72
    65
 73
     0
 40
0.0
  0
ENDTAB
  0
TABLE
  2
LAYER
 70
     2
  0
LAYER
  2
0
 70
     0
 62
     7
  6
CONTINUOUS
  0
LAYER
  2
LAYER_1
 70
     0
 62
    18
  6
CONTINUOUS
  0
ENDTAB
  0
TABLE
  2
STYLE
 70
     1
  0
STYLE
  2
STANDARD
 70
     0
 40
0.0
 41
1.0
 50
0.0
 71
     0
 42
0.2
  3
txt
  4

  0
ENDTAB
  0
TABLE
  2
VIEW
 70
     0
  0
ENDTAB
  0
TABLE
  2
UCS
 70
     0
  0
ENDTAB
  0
TABLE
  2
APPID
 70
     1
  0
APPID
  2
ACAD
 70
     0
  0
ENDTAB
  0
TABLE
  2
DIMSTYLE
 70
     1
  0
DIMSTYLE
  2
STANDARD
 70
     0
  3

  4

  5

  6

  7

 40
1.0
 41
0.18
 42
0.0625
 43
0.38
 44
0.18
 45
0.0
 46
0.0
 47
0.0
 48
0.0
140
0.18
141
0.09
142
0.0
143
25.4
144
1.0
145
0.0
146
1.0
147
0.09
 71
     0
 72
     0
 73
     1
 74
     1
 75
     0
 76
     0
 77
     0
 78
     0
170
     0
171
     2
172
     0
173
     0
174
     0
175
     0
176
     0
177
     0
178
     0
  0
ENDTAB
  0
ENDSEC
  0
SECTION
  2
BLOCKS
  0
BLOCK
  8
0
  2
$MODEL_SPACE
 70
     0
 10
0.0
 20
0.0
 30
0.0
  3
$MODEL_SPACE
  1

  0
ENDBLK
  5
21
  8
0
  0
BLOCK
 67
     1
  8
0
  2
$PAPER_SPACE
 70
     0
 10
0.0
 20
0.0
 30
0.0
  3
$PAPER_SPACE
  1

  0
ENDBLK
  5
1D
 67
     1
  8
0
  0
ENDSEC
  0
SECTION
  2
ENTITIES
  0
POLYLINE
  5
41
  8
LAYER_1
 66
     1
 10
0.0
 20
0.0
 30
0.0
 70
     1
  0
VERTEX
  5
E0
  8
LAYER_1
 10
-577.5
 20
-422.5
 30
0.0
  0
VERTEX
  5
E1
  8
LAYER_1
 10
577.5
 20
-422.5
 30
0.0
  0
VERTEX
  5
E2
  8
LAYER_1
 10
577.5
 20
422.5
 30
0.0
  0
VERTEX
  5
E3
  8
LAYER_1
 10
-577.5
 20
422.5
 30
0.0
  0
SEQEND
  5
E4
  8
LAYER_1
  0
POLYLINE
  5
42
  8
LAYER_1
 66
     1
 10
0.0
 20
0.0
 30
0.0
 70
     1
  0
VERTEX
  5
E5
  8
LAYER_1
 10
-500.7194908975978
 20
362.4674150049916
 30
0.0
  0
VERTEX
  5
E6
  8
LAYER_1
 10
-498.6529068396334
 20
362.4660992623901
 30
0.0
  0
VERTEX
  5
E7
  8
LAYER_1
 10
-497.4404375905266
 20
360.1893930668273
 30
0.0
  0
VERTEX
  5
E8
  8
LAYER_1
 10
-500.8602629398364
 20
358.8954206979981
 30
0.0
  0
SEQEND
  5
E9
  8
LAYER_1
  0
POLYLINE
  5
43
  8
LAYER_1
 66
     1
 10
0.0
 20
0.0
 30
0.0
 70
     1
  0
VERTEX
  5
EA
  8
LAYER_1
 10
-396.1474041910282
 20
362.4660992623901
 30
0.0
  0
VERTEX
  5
EB
  8
LAYER_1
 10
-394.0808201330636
 20
362.4674150049916
 30
0.0
  0
VERTEX
  5
EC
  8
LAYER_1
 10
-393.9400480908251
 20
358.8954206979981
 30
0.0
  0
VERTEX
  5
ED
  8
LAYER_1
 10
-397.3598734401351
 20
360.1893930668273
 30
0.0
  0
SEQEND
  5
EE
  8
LAYER_1
  0
POLYLINE
  5
44
  8
LAYER_1
 66
     1
 10
0.0
 20
0.0
 30
0.0
 70
     1
  0
VERTEX
  5
EF
  8
LAYER_1
 10
-405.3386623622692
 20
292.5
 30
0.0
  0
VERTEX
  5
F0
  8
LAYER_1
 10
-400.5647247255557
 20
297.0372967773341
 30
0.0
  0
VERTEX
  5
F1
  8
LAYER_1
 10
-395.7848433052708
 20
301.5511941830464
 30
0.0
  0
VERTEX
  5
F2
  8
LAYER_1
 10
-390.9989798071323
 20
306.0477613306409
 30
0.0
  0
VERTEX
  5
F3
  8
LAYER_1
 10
-386.2070959368579
 20
310.5330673336214
 30
0.0
  0
VERTEX
  5
F4
  8
LAYER_1
 10
-374.0522782453177
 20
310.7577606226866
 30
0.0
  0
VERTEX
  5
F5
  8
LAYER_1
 10
-371.4108083587614
 20
306.1893151255813
 30
0.0
  0
VERTEX
  5
F6
  8
LAYER_1
 10
-368.7607523031378
 20
301.624043799429
 30
0.0
  0
VERTEX
  5
F7
  8
LAYER_1
 10
-366.1020827981887
 20
297.0611907292339
 30
0.0
  0
VERTEX
  5
F8
  8
LAYER_1
 10
-363.4347725636559
 20
292.5
 30
0.0
  0
VERTEX
  5
F9
  8
LAYER_1
 10
-366.1020827981887
 20
287.9388092707662
 30
0.0
  0
VERTEX
  5
FA
  8
LAYER_1
 10
-368.7607523031378
 20
283.3759562005711
 30
0.0
  0
VERTEX
  5
FB
  8
LAYER_1
 10
-371.4108083587614
 20
278.8106848744188
 30
0.0
  0
VERTEX
  5
FC
  8
LAYER_1
 10
-374.0522782453176
 20
274.2422393773134
 30
0.0
  0
VERTEX
  5
FD
  8
LAYER_1
 10
-386.2070959368579
 20
274.4669326663789
 30
0.0
  0
VERTEX
  5
FE
  8
LAYER_1
 10
-390.9989798071323
 20
278.9522386693593
 30
0.0
  0
VERTEX
  5
FF
  8
LAYER_1
 10
-395.7848433052708
 20
283.4488058169537
 30
0.0
  0
VERTEX
  5
100
  8
LAYER_1
 10
-400.5647247255557
 20
287.9627032226659
 30
0.0
  0
SEQEND
  5
101
  8
LAYER_1
  0
POLYLINE
  5
45
  8
LAYER_1
 66
     1
 10
0.0
 20
0.0
 30
0.0
 70
     1
  0
VERTEX
  5
102
  8
LAYER_1
 10
-363.1887746003309
 20
336.9235461743492
 30
0.0
  0
VERTEX
  5
103
  8
LAYER_1
 10
-357.9247405184773
 20
340.6483468948947
 30
0.0
  0
VERTEX
  5
104
  8
LAYER_1
 10
-352.6541870866961
 20
344.3657726579918
 30
0.0
  0
VERTEX
  5
105
  8
LAYER_1
 10
-356.8355159667078
 20
330.8825655042303
 30
0.0
  0
VERTEX
  5
106
  8
LAYER_1
 10
-351.8457843623617
 20
326.9297993491301
 30
0.0
  0
VERTEX
  5
107
  8
LAYER_1
 10
-346.8427578455965
 20
322.9904861931441
 30
0.0
  0
VERTEX
  5
108
  8
LAYER_1
 10
-368.0710010833085
 20
321.8524780766547
 30
0.0
  0
VERTEX
  5
109
  8
LAYER_1
 10
-372.5276411542542
 20
329.9134194844358
 30
0.0
  0
VERTEX
  5
10A
  8
LAYER_1
 10
-376.9592365193035
 20
337.9853880992866
 30
0.0
  0
SEQEND
  5
10B
  8
LAYER_1
  0
POLYLINE
  5
46
  8
LAYER_1
 66
     1
 10
0.0
 20
0.0
 30
0.0
 70
     1
  0
VERTEX
  5
10C
  8
LAYER_1
 10
-383.1241235956999
 20
229.8001793567275
 30
0.0
  0
VERTEX
  5
10D
  8
LAYER_1
 10
-373.5876791777278
 20
232.8521219100082
 30
0.0
  0
VERTEX
  5
10E
  8
LAYER_1
 10
-364.0405729622803
 20
235.8773080799738
 30
0.0
  0
VERTEX
  5
10F
  8
LAYER_1
 10
-356.5707365172737
 20
229.1869652584721
 30
0.0
  0
VERTEX
  5
110
  8
LAYER_1
 10
-349.0855023235101
 20
222.5103901699993
 30
0.0
  0
VERTEX
  5
111
  8
LAYER_1
 10
-383.8988309773297
 20
222.526482714125
 30
0.0
  0
SEQEND
  5
112
  8
LAYER_1
  0
POLYLINE
  5
47
  8
LAYER_1
 66
     1
 10
0.0
 20
0.0
 30
0.0
 70
     1
  0
VERTEX
  5
113
  8
LAYER_1
 10
-376.9592365193037
 20
247.0146119007138
 30
0.0
  0
VERTEX
  5
114
  8
LAYER_1
 10
-372.5276411542542
 20
255.0865805155644
 30
0.0
  0
VERTEX
  5
115
  8
LAYER_1
 10
-368.0710010833086
 20
263.1475219233457
 30
0.0
  0
VERTEX
  5
116
  8
LAYER_1
 10
-346.8427578455965
 20
262.0095138068559
 30
0.0
  0
VERTEX
  5
117
  8
LAYER_1
 10
-351.8457843623618
 20
258.07020065087
 30
0.0
  0
VERTEX
  5
118
  8
LAYER_1
 10
-356.8355159667077
 20
254.1174344957699
 30
0.0
  0
VERTEX
  5
119
  8
LAYER_1
 10
-352.6541870866963
 20
240.6342273420084
 30
0.0
  0
VERTEX
  5
11A
  8
LAYER_1
 10
-357.9247405184773
 20
244.3516531051057
 30
0.0
  0
VERTEX
  5
11B
  8
LAYER_1
 10
-363.1887746003309
 20
248.0764538256512
 30
0.0
  0
SEQEND
  5
11C
  8
LAYER_1
  0
POLYLINE
  5
48
  8
LAYER_1
 66
     1
 10
0.0
 20
0.0
 30
0.0
 70
     1
  0
VERTEX
  5
11D
  8
LAYER_1
 10
-377.5325849950083
 20
345.8333061651025
 30
0.0
  0
VERTEX
  5
11E
  8
LAYER_1
 10
-377.53390073761
 20
343.766722107138
 30
0.0
  0
VERTEX
  5
11F
  8
LAYER_1
 10
-379.8106069331728
 20
342.5542528580312
 30
0.0
  0
VERTEX
  5
120
  8
LAYER_1
 10
-381.1045793020019
 20
345.974078207341
 30
0.0
  0
SEQEND
  5
121
  8
LAYER_1
  0
POLYLINE
  5
49
  8
LAYER_1
 66
     1
 10
0.0
 20
0.0
 30
0.0
 70
     1
  0
VERTEX
  5
122
  8
LAYER_1
 10
-515.1893930668273
 20
342.5542528580312
 30
0.0
  0
VERTEX
  5
123
  8
LAYER_1
 10
-517.4660992623897
 20
343.766722107138
 30
0.0
  0
VERTEX
  5
124
  8
LAYER_1
 10
-517.4674150049914
 20
345.8333061651025
 30
0.0
  0
VERTEX
  5
125
  8
LAYER_1
 10
-513.8954206979981
 20
345.974078207341
 30
0.0
  0
SEQEND
  5
126
  8
LAYER_1
  0
POLYLINE
  5
4A
  8
LAYER_1
 66
     1
 10
0.0
 20
0.0
 30
0.0
 70
     1
  0
VERTEX
  5
127
  8
LAYER_1
 10
-418.4139721429461
 20
360.8682664358879
 30
0.0
  0
VERTEX
  5
128
  8
LAYER_1
 10
-413.455061075611
 20
358.3243833312663
 30
0.0
  0
VERTEX
  5
129
  8
LAYER_1
 10
-408.4926075186736
 20
355.7891406901109
 30
0.0
  0
VERTEX
  5
12A
  8
LAYER_1
 10
-403.5265624269584
 20
353.2627145431508
 30
0.0
  0
VERTEX
  5
12B
  8
LAYER_1
 10
-398.5568767552896
 20
350.7452809211148
 30
0.0
  0
VERTEX
  5
12C
  8
LAYER_1
 10
-396.2718557031836
 20
349.6025151903134
 30
0.0
  0
VERTEX
  5
12D
  8
LAYER_1
 10
-394.5954073621141
 20
348.7760283306314
 30
0.0
  0
VERTEX
  5
12E
  8
LAYER_1
 10
-393.5382426378329
 20
348.2476179129843
 30
0.0
  0
VERTEX
  5
12F
  8
LAYER_1
 10
-393.2452387900353
 20
348.0895031108348
 30
0.0
  0
VERTEX
  5
130
  8
LAYER_1
 10
-393.1582172473806
 20
348.035972866088
 30
0.0
  0
VERTEX
  5
131
  8
LAYER_1
 10
-393.1110724360917
 20
347.9990815082873
 30
0.0
  0
VERTEX
  5
132
  8
LAYER_1
 10
-393.0581143367983
 20
347.933759426727
 30
0.0
  0
VERTEX
  5
133
  8
LAYER_1
 10
-393.0137307518285
 20
347.8611859863561
 30
0.0
  0
VERTEX
  5
134
  8
LAYER_1
 10
-392.9427697618411
 20
347.7009800062793
 30
0.0
  0
VERTEX
  5
135
  8
LAYER_1
 10
-392.8823547400932
 20
347.5318535222513
 30
0.0
  0
VERTEX
  5
136
  8
LAYER_1
 10
-392.8166509605484
 20
347.367196488466
 30
0.0
  0
VERTEX
  5
137
  8
LAYER_1
 10
-389.7876812153237
 20
340.8930391095303
 30
0.0
  0
VERTEX
  5
138
  8
LAYER_1
 10
-386.7411879333362
 20
334.4291414590037
 30
0.0
  0
VERTEX
  5
139
  8
LAYER_1
 10
-383.6775446202251
 20
327.9753918921372
 30
0.0
  0
VERTEX
  5
13A
  8
LAYER_1
 10
-380.59712478163
 20
321.5316787641813
 30
0.0
  0
VERTEX
  5
13B
  8
LAYER_1
 10
-391.5053098019557
 20
321.8967102047276
 30
0.0
  0
VERTEX
  5
13C
  8
LAYER_1
 10
-397.2054321490959
 20
316.0069065306196
 30
0.0
  0
VERTEX
  5
13D
  8
LAYER_1
 10
-402.9131985167859
 20
310.1263600204336
 30
0.0
  0
VERTEX
  5
13E
  8
LAYER_1
 10
-408.62849939795
 20
304.2549770562111
 30
0.0
  0
VERTEX
  5
13F
  8
LAYER_1
 10
-414.3512252855127
 20
298.3926640199935
 30
0.0
  0
VERTEX
  5
140
  8
LAYER_1
 10
-418.0928871312412
 20
302.3460391295833
 30
0.0
  0
VERTEX
  5
141
  8
LAYER_1
 10
-418.296520515862
 20
321.2928420769709
 30
0.0
  0
VERTEX
  5
142
  8
LAYER_1
 10
-436.7168299198238
 20
321.902663725257
 30
0.0
  0
VERTEX
  5
143
  8
LAYER_1
 10
-440.0635014548937
 20
326.3097048310291
 30
0.0
  0
VERTEX
  5
144
  8
LAYER_1
 10
-434.6780433972747
 20
332.0832940550337
 30
0.0
  0
VERTEX
  5
145
  8
LAYER_1
 10
-429.300064835888
 20
337.8656134061243
 30
0.0
  0
VERTEX
  5
146
  8
LAYER_1
 10
-423.9296597910927
 20
343.6567334609108
 30
0.0
  0
VERTEX
  5
147
  8
LAYER_1
 10
-418.5669222832475
 20
349.4567247960032
 30
0.0
  0
SEQEND
  5
148
  8
LAYER_1
  0
POLYLINE
  5
4B
  8
LAYER_1
 66
     1
 10
0.0
 20
0.0
 30
0.0
 70
     1
  0
VERTEX
  5
149
  8
LAYER_1
 10
-476.4330777167524
 20
349.4567247960032
 30
0.0
  0
VERTEX
  5
14A
  8
LAYER_1
 10
-471.0703402089073
 20
343.6567334609108
 30
0.0
  0
VERTEX
  5
14B
  8
LAYER_1
 10
-465.6999351641119
 20
337.8656134061241
 30
0.0
  0
VERTEX
  5
14C
  8
LAYER_1
 10
-460.3219566027252
 20
332.0832940550335
 30
0.0
  0
VERTEX
  5
14D
  8
LAYER_1
 10
-454.936498545106
 20
326.3097048310291
 30
0.0
  0
VERTEX
  5
14E
  8
LAYER_1
 10
-458.2831700801761
 20
321.902663725257
 30
0.0
  0
VERTEX
  5
14F
  8
LAYER_1
 10
-476.7034794841377
 20
321.2928420769709
 30
0.0
  0
VERTEX
  5
150
  8
LAYER_1
 10
-476.9071128687587
 20
302.3460391295833
 30
0.0
  0
VERTEX
  5
151
  8
LAYER_1
 10
-480.6487747144872
 20
298.3926640199935
 30
0.0
  0
VERTEX
  5
152
  8
LAYER_1
 10
-486.3715006020499
 20
304.254977056211
 30
0.0
  0
VERTEX
  5
153
  8
LAYER_1
 10
-492.0868014832139
 20
310.1263600204335
 30
0.0
  0
VERTEX
  5
154
  8
LAYER_1
 10
-497.7945678509039
 20
316.0069065306195
 30
0.0
  0
VERTEX
  5
155
  8
LAYER_1
 10
-503.4946901980442
 20
321.8967102047276
 30
0.0
  0
VERTEX
  5
156
  8
LAYER_1
 10
-514.40287521837
 20
321.531678764181
 30
0.0
  0
VERTEX
  5
157
  8
LAYER_1
 10
-511.3224553797749
 20
327.9753918921371
 30
0.0
  0
VERTEX
  5
158
  8
LAYER_1
 10
-508.2588120666637
 20
334.4291414590037
 30
0.0
  0
VERTEX
  5
159
  8
LAYER_1
 10
-505.2123187846761
 20
340.8930391095303
 30
0.0
  0
VERTEX
  5
15A
  8
LAYER_1
 10
-502.1833490394513
 20
347.367196488466
 30
0.0
  0
VERTEX
  5
15B
  8
LAYER_1
 10
-502.1176452599065
 20
347.5318535222513
 30
0.0
  0
VERTEX
  5
15C
  8
LAYER_1
 10
-502.0572302381587
 20
347.7009800062793
 30
0.0
  0
VERTEX
  5
15D
  8
LAYER_1
 10
-501.9862692481714
 20
347.861185986356
 30
0.0
  0
VERTEX
  5
15E
  8
LAYER_1
 10
-501.9418856632016
 20
347.9337594267269
 30
0.0
  0
VERTEX
  5
15F
  8
LAYER_1
 10
-501.8889275639082
 20
347.9990815082871
 30
0.0
  0
VERTEX
  5
160
  8
LAYER_1
 10
-501.8417827526193
 20
348.0359728660879
 30
0.0
  0
VERTEX
  5
161
  8
LAYER_1
 10
-501.7547612099646
 20
348.0895031108347
 30
0.0
  0
VERTEX
  5
162
  8
LAYER_1
 10
-501.461757362167
 20
348.2476179129842
 30
0.0
  0
VERTEX
  5
163
  8
LAYER_1
 10
-500.4045926378857
 20
348.7760283306313
 30
0.0
  0
VERTEX
  5
164
  8
LAYER_1
 10
-498.7281442968163
 20
349.6025151903132
 30
0.0
  0
VERTEX
  5
165
  8
LAYER_1
 10
-496.4431232447106
 20
350.7452809211146
 30
0.0
  0
VERTEX
  5
166
  8
LAYER_1
 10
-491.4734375730416
 20
353.2627145431505
 30
0.0
  0
VERTEX
  5
167
  8
LAYER_1
 10
-486.5073924813264
 20
355.7891406901107
 30
0.0
  0
VERTEX
  5
168
  8
LAYER_1
 10
-481.5449389243889
 20
358.3243833312662
 30
0.0
  0
VERTEX
  5
169
  8
LAYER_1
 10
-476.5860278570536
 20
360.8682664358879
 30
0.0
  0
SEQEND
  5
16A
  8
LAYER_1
  0
POLYLINE
  5
4C
  8
LAYER_1
 66
     1
 10
0.0
 20
0.0
 30
0.0
 70
     1
  0
VERTEX
  5
16B
  8
LAYER_1
 10
-491.693364658757
 20
292.5139707828354
 30
0.0
  0
VERTEX
  5
16C
  8
LAYER_1
 10
-499.6721750340461
 20
283.852576599147
 30
0.0
  0
VERTEX
  5
16D
  8
LAYER_1
 10
-507.6340164222981
 20
275.1915286299601
 30
0.0
  0
VERTEX
  5
16E
  8
LAYER_1
 10
-517.4405249784286
 20
275.4917561652268
 30
0.0
  0
VERTEX
  5
16F
  8
LAYER_1
 10
-517.4405249784288
 20
309.5361854004442
 30
0.0
  0
VERTEX
  5
170
  8
LAYER_1
 10
-507.6340164222981
 20
309.8364129357107
 30
0.0
  0
VERTEX
  5
171
  8
LAYER_1
 10
-499.6721750340461
 20
301.1753649665237
 30
0.0
  0
SEQEND
  5
172
  8
LAYER_1
  0
POLYLINE
  5
4D
  8
LAYER_1
 66
     1
 10
0.0
 20
0.0
 30
0.0
 70
     1
  0
VERTEX
  5
173
  8
LAYER_1
 10
-447.4999999999999
 20
316.7890258874917
 30
0.0
  0
VERTEX
  5
174
  8
LAYER_1
 10
-446.4377767744693
 20
314.8446344278582
 30
0.0
  0
VERTEX
  5
175
  8
LAYER_1
 10
-445.40301291392
 20
312.9012706953554
 30
0.0
  0
VERTEX
  5
176
  8
LAYER_1
 10
-443.3771288427527
 20
309.0176381805335
 30
0.0
  0
VERTEX
  5
177
  8
LAYER_1
 10
-429.6504491365624
 20
308.6055474186229
 30
0.0
  0
VERTEX
  5
178
  8
LAYER_1
 10
-429.8195084837712
 20
299.3120245538358
 30
0.0
  0
VERTEX
  5
179
  8
LAYER_1
 10
-426.6777855536866
 20
295.909639053052
 30
0.0
  0
VERTEX
  5
17A
  8
LAYER_1
 10
-423.529792290817
 20
292.5139707828354
 30
0.0
  0
VERTEX
  5
17B
  8
LAYER_1
 10
-426.6777855536866
 20
289.1183025126186
 30
0.0
  0
VERTEX
  5
17C
  8
LAYER_1
 10
-429.8195084837712
 20
285.7159170118347
 30
0.0
  0
VERTEX
  5
17D
  8
LAYER_1
 10
-429.6504491365623
 20
276.4223941470478
 30
0.0
  0
VERTEX
  5
17E
  8
LAYER_1
 10
-443.3771288427527
 20
276.0103033851373
 30
0.0
  0
VERTEX
  5
17F
  8
LAYER_1
 10
-444.3860248070988
 20
274.0690039334894
 30
0.0
  0
VERTEX
  5
180
  8
LAYER_1
 10
-445.40301291392
 20
272.1266708703151
 30
0.0
  0
VERTEX
  5
181
  8
LAYER_1
 10
-446.4377767744693
 20
270.1833071378124
 30
0.0
  0
VERTEX
  5
182
  8
LAYER_1
 10
-447.5
 20
268.2389156781791
 30
0.0
  0
VERTEX
  5
183
  8
LAYER_1
 10
-448.5622232255306
 20
270.1833071378123
 30
0.0
  0
VERTEX
  5
184
  8
LAYER_1
 10
-449.5969870860799
 20
272.126670870315
 30
0.0
  0
VERTEX
  5
185
  8
LAYER_1
 10
-451.6228711572472
 20
276.0103033851373
 30
0.0
  0
VERTEX
  5
186
  8
LAYER_1
 10
-465.3495508634376
 20
276.4223941470478
 30
0.0
  0
VERTEX
  5
187
  8
LAYER_1
 10
-465.1804915162288
 20
285.7159170118349
 30
0.0
  0
VERTEX
  5
188
  8
LAYER_1
 10
-468.3222144463132
 20
289.1183025126187
 30
0.0
  0
VERTEX
  5
189
  8
LAYER_1
 10
-471.4702077091826
 20
292.5139707828354
 30
0.0
  0
VERTEX
  5
18A
  8
LAYER_1
 10
-468.3222144463133
 20
295.9096390530521
 30
0.0
  0
VERTEX
  5
18B
  8
LAYER_1
 10
-465.1804915162288
 20
299.3120245538361
 30
0.0
  0
VERTEX
  5
18C
  8
LAYER_1
 10
-465.3495508634376
 20
308.6055474186229
 30
0.0
  0
VERTEX
  5
18D
  8
LAYER_1
 10
-451.6228711572471
 20
309.0176381805335
 30
0.0
  0
VERTEX
  5
18E
  8
LAYER_1
 10
-450.613975192901
 20
310.9589376321813
 30
0.0
  0
VERTEX
  5
18F
  8
LAYER_1
 10
-449.5969870860799
 20
312.9012706953555
 30
0.0
  0
VERTEX
  5
190
  8
LAYER_1
 10
-448.5622232255306
 20
314.8446344278583
 30
0.0
  0
SEQEND
  5
191
  8
LAYER_1
  0
POLYLINE
  5
4E
  8
LAYER_1
 66
     1
 10
0.0
 20
0.0
 30
0.0
 70
     1
  0
VERTEX
  5
192
  8
LAYER_1
 10
-476.9071128687588
 20
282.6819024360874
 30
0.0
  0
VERTEX
  5
193
  8
LAYER_1
 10
-476.7034794841377
 20
263.7350994887
 30
0.0
  0
VERTEX
  5
194
  8
LAYER_1
 10
-458.2831700801759
 20
263.125277840414
 30
0.0
  0
VERTEX
  5
195
  8
LAYER_1
 10
-454.9364985451061
 20
258.7182367346417
 30
0.0
  0
VERTEX
  5
196
  8
LAYER_1
 10
-460.3219566027251
 20
252.9446475106371
 30
0.0
  0
VERTEX
  5
197
  8
LAYER_1
 10
-465.6999351641118
 20
247.1623281595464
 30
0.0
  0
VERTEX
  5
198
  8
LAYER_1
 10
-471.0703402089071
 20
241.3712081047599
 30
0.0
  0
VERTEX
  5
199
  8
LAYER_1
 10
-476.4330777167522
 20
235.5712167696677
 30
0.0
  0
VERTEX
  5
19A
  8
LAYER_1
 10
-476.586027857054
 20
224.159675129783
 30
0.0
  0
VERTEX
  5
19B
  8
LAYER_1
 10
-481.5449389243891
 20
226.7035582344046
 30
0.0
  0
VERTEX
  5
19C
  8
LAYER_1
 10
-486.5073924813264
 20
229.2388008755599
 30
0.0
  0
VERTEX
  5
19D
  8
LAYER_1
 10
-491.4734375730416
 20
231.7652270225201
 30
0.0
  0
VERTEX
  5
19E
  8
LAYER_1
 10
-496.4431232447105
 20
234.282660644556
 30
0.0
  0
VERTEX
  5
19F
  8
LAYER_1
 10
-498.7281442968162
 20
235.4254263753574
 30
0.0
  0
VERTEX
  5
1A0
  8
LAYER_1
 10
-500.4045926378856
 20
236.2519132350394
 30
0.0
  0
VERTEX
  5
1A1
  8
LAYER_1
 10
-501.4617573621668
 20
236.7803236526865
 30
0.0
  0
VERTEX
  5
1A2
  8
LAYER_1
 10
-501.7547612099644
 20
236.9384384548359
 30
0.0
  0
VERTEX
  5
1A3
  8
LAYER_1
 10
-501.8417827526192
 20
236.9919686995827
 30
0.0
  0
VERTEX
  5
1A4
  8
LAYER_1
 10
-501.888927563908
 20
237.0288600573834
 30
0.0
  0
VERTEX
  5
1A5
  8
LAYER_1
 10
-501.9418856632015
 20
237.0941821389438
 30
0.0
  0
VERTEX
  5
1A6
  8
LAYER_1
 10
-501.9862692481714
 20
237.1667555793148
 30
0.0
  0
VERTEX
  5
1A7
  8
LAYER_1
 10
-502.0572302381587
 20
237.3269615593916
 30
0.0
  0
VERTEX
  5
1A8
  8
LAYER_1
 10
-502.1176452599065
 20
237.4960880434196
 30
0.0
  0
VERTEX
  5
1A9
  8
LAYER_1
 10
-502.1833490394513
 20
237.6607450772046
 30
0.0
  0
VERTEX
  5
1AA
  8
LAYER_1
 10
-505.2123187846761
 20
244.1349024561402
 30
0.0
  0
VERTEX
  5
1AB
  8
LAYER_1
 10
-508.2588120666637
 20
250.5988001066667
 30
0.0
  0
VERTEX
  5
1AC
  8
LAYER_1
 10
-511.3224553797749
 20
257.0525496735333
 30
0.0
  0
VERTEX
  5
1AD
  8
LAYER_1
 10
-514.4028752183701
 20
263.4962628014895
 30
0.0
  0
VERTEX
  5
1AE
  8
LAYER_1
 10
-503.4946901980442
 20
263.1312313609432
 30
0.0
  0
VERTEX
  5
1AF
  8
LAYER_1
 10
-497.7945678509039
 20
269.0210350350512
 30
0.0
  0
VERTEX
  5
1B0
  8
LAYER_1
 10
-492.0868014832139
 20
274.9015815452373
 30
0.0
  0
VERTEX
  5
1B1
  8
LAYER_1
 10
-486.3715006020499
 20
280.7729645094598
 30
0.0
  0
VERTEX
  5
1B2
  8
LAYER_1
 10
-480.6487747144872
 20
286.6352775456775
 30
0.0
  0
SEQEND
  5
1B3
  8
LAYER_1
  0
POLYLINE
  5
4F
  8
LAYER_1
 66
     1
 10
0.0
 20
0.0
 30
0.0
 70
     1
  0
VERTEX
  5
1B4
  8
LAYER_1
 10
-377.53390073761
 20
241.2612194585328
 30
0.0
  0
VERTEX
  5
1B5
  8
LAYER_1
 10
-377.5325849950084
 20
239.1946354005684
 30
0.0
  0
VERTEX
  5
1B6
  8
LAYER_1
 10
-381.1045793020019
 20
239.0538633583299
 30
0.0
  0
VERTEX
  5
1B7
  8
LAYER_1
 10
-379.8106069331727
 20
242.4736887076397
 30
0.0
  0
SEQEND
  5
1B8
  8
LAYER_1
  0
POLYLINE
  5
50
  8
LAYER_1
 66
     1
 10
0.0
 20
0.0
 30
0.0
 70
     1
  0
VERTEX
  5
1B9
  8
LAYER_1
 10
-513.8954206979981
 20
239.0538633583297
 30
0.0
  0
VERTEX
  5
1BA
  8
LAYER_1
 10
-517.4674150049914
 20
239.1946354005684
 30
0.0
  0
VERTEX
  5
1BB
  8
LAYER_1
 10
-517.4660992623898
 20
241.2612194585329
 30
0.0
  0
VERTEX
  5
1BC
  8
LAYER_1
 10
-515.1893930668273
 20
242.4736887076397
 30
0.0
  0
SEQEND
  5
1BD
  8
LAYER_1
  0
POLYLINE
  5
51
  8
LAYER_1
 66
     1
 10
0.0
 20
0.0
 30
0.0
 70
     1
  0
VERTEX
  5
1BE
  8
LAYER_1
 10
-414.3512252855127
 20
286.6352775456775
 30
0.0
  0
VERTEX
  5
1BF
  8
LAYER_1
 10
-408.62849939795
 20
280.7729645094598
 30
0.0
  0
VERTEX
  5
1C0
  8
LAYER_1
 10
-402.9131985167859
 20
274.9015815452373
 30
0.0
  0
VERTEX
  5
1C1
  8
LAYER_1
 10
-397.2054321490959
 20
269.0210350350512
 30
0.0
  0
VERTEX
  5
1C2
  8
LAYER_1
 10
-391.5053098019557
 20
263.1312313609432
 30
0.0
  0
VERTEX
  5
1C3
  8
LAYER_1
 10
-380.5971247816298
 20
263.4962628014897
 30
0.0
  0
VERTEX
  5
1C4
  8
LAYER_1
 10
-383.6775446202249
 20
257.0525496735336
 30
0.0
  0
VERTEX
  5
1C5
  8
LAYER_1
 10
-386.7411879333361
 20
250.5988001066668
 30
0.0
  0
VERTEX
  5
1C6
  8
LAYER_1
 10
-389.7876812153237
 20
244.1349024561403
 30
0.0
  0
VERTEX
  5
1C7
  8
LAYER_1
 10
-392.8166509605484
 20
237.6607450772048
 30
0.0
  0
VERTEX
  5
1C8
  8
LAYER_1
 10
-392.8823547400932
 20
237.4960880434195
 30
0.0
  0
VERTEX
  5
1C9
  8
LAYER_1
 10
-392.9427697618411
 20
237.3269615593916
 30
0.0
  0
VERTEX
  5
1CA
  8
LAYER_1
 10
-393.0137307518283
 20
237.1667555793149
 30
0.0
  0
VERTEX
  5
1CB
  8
LAYER_1
 10
-393.0581143367982
 20
237.094182138944
 30
0.0
  0
VERTEX
  5
1CC
  8
LAYER_1
 10
-393.1110724360916
 20
237.0288600573837
 30
0.0
  0
VERTEX
  5
1CD
  8
LAYER_1
 10
-393.1582172473805
 20
236.9919686995829
 30
0.0
  0
VERTEX
  5
1CE
  8
LAYER_1
 10
-393.2452387900353
 20
236.9384384548361
 30
0.0
  0
VERTEX
  5
1CF
  8
LAYER_1
 10
-393.5382426378329
 20
236.7803236526865
 30
0.0
  0
VERTEX
  5
1D0
  8
LAYER_1
 10
-394.5954073621142
 20
236.2519132350394
 30
0.0
  0
VERTEX
  5
1D1
  8
LAYER_1
 10
-396.2718557031837
 20
235.4254263753574
 30
0.0
  0
VERTEX
  5
1D2
  8
LAYER_1
 10
-398.5568767552895
 20
234.282660644556
 30
0.0
  0
VERTEX
  5
1D3
  8
LAYER_1
 10
-403.5265624269584
 20
231.7652270225201
 30
0.0
  0
VERTEX
  5
1D4
  8
LAYER_1
 10
-408.4926075186736
 20
229.2388008755599
 30
0.0
  0
VERTEX
  5
1D5
  8
LAYER_1
 10
-413.4550610756109
 20
226.7035582344046
 30
0.0
  0
VERTEX
  5
1D6
  8
LAYER_1
 10
-418.413972142946
 20
224.159675129783
 30
0.0
  0
VERTEX
  5
1D7
  8
LAYER_1
 10
-418.5669222832477
 20
235.5712167696678
 30
0.0
  0
VERTEX
  5
1D8
  8
LAYER_1
 10
-423.9296597910928
 20
241.3712081047599
 30
0.0
  0
VERTEX
  5
1D9
  8
LAYER_1
 10
-429.3000648358881
 20
247.1623281595464
 30
0.0
  0
VERTEX
  5
1DA
  8
LAYER_1
 10
-434.6780433972747
 20
252.9446475106371
 30
0.0
  0
VERTEX
  5
1DB
  8
LAYER_1
 10
-440.0635014548939
 20
258.7182367346417
 30
0.0
  0
VERTEX
  5
1DC
  8
LAYER_1
 10
-436.7168299198238
 20
263.1252778404138
 30
0.0
  0
VERTEX
  5
1DD
  8
LAYER_1
 10
-418.2965205158619
 20
263.7350994887
 30
0.0
  0
VERTEX
  5
1DE
  8
LAYER_1
 10
-418.0928871312412
 20
282.6819024360874
 30
0.0
  0
SEQEND
  5
1DF
  8
LAYER_1
  0
POLYLINE
  5
52
  8
LAYER_1
 66
     1
 10
0.0
 20
0.0
 30
0.0
 70
     1
  0
VERTEX
  5
1E0
  8
LAYER_1
 10
-447.5
 20
250.4524776297739
 30
0.0
  0
VERTEX
  5
1E1
  8
LAYER_1
 10
-442.9627032226659
 20
245.6785399930603
 30
0.0
  0
VERTEX
  5
1E2
  8
LAYER_1
 10
-438.4488058169536
 20
240.8986585727755
 30
0.0
  0
VERTEX
  5
1E3
  8
LAYER_1
 10
-433.9522386693591
 20
236.112795074637
 30
0.0
  0
VERTEX
  5
1E4
  8
LAYER_1
 10
-429.4669326663785
 20
231.3209112043625
 30
0.0
  0
VERTEX
  5
1E5
  8
LAYER_1
 10
-429.2422393773132
 20
219.1660935128224
 30
0.0
  0
VERTEX
  5
1E6
  8
LAYER_1
 10
-433.8106848744186
 20
216.5246236262661
 30
0.0
  0
VERTEX
  5
1E7
  8
LAYER_1
 10
-438.375956200571
 20
213.8745675706425
 30
0.0
  0
VERTEX
  5
1E8
  8
LAYER_1
 10
-442.9388092707661
 20
211.2158980656934
 30
0.0
  0
VERTEX
  5
1E9
  8
LAYER_1
 10
-447.5
 20
208.5485878311606
 30
0.0
  0
VERTEX
  5
1EA
  8
LAYER_1
 10
-452.0611907292338
 20
211.2158980656935
 30
0.0
  0
VERTEX
  5
1EB
  8
LAYER_1
 10
-456.6240437994289
 20
213.8745675706425
 30
0.0
  0
VERTEX
  5
1EC
  8
LAYER_1
 10
-461.1893151255812
 20
216.5246236262661
 30
0.0
  0
VERTEX
  5
1ED
  8
LAYER_1
 10
-465.7577606226866
 20
219.1660935128223
 30
0.0
  0
VERTEX
  5
1EE
  8
LAYER_1
 10
-465.533067333621
 20
231.3209112043625
 30
0.0
  0
VERTEX
  5
1EF
  8
LAYER_1
 10
-461.0477613306406
 20
236.1127950746369
 30
0.0
  0
VERTEX
  5
1F0
  8
LAYER_1
 10
-456.5511941830463
 20
240.8986585727754
 30
0.0
  0
VERTEX
  5
1F1
  8
LAYER_1
 10
-452.0372967773341
 20
245.6785399930603
 30
0.0
  0
SEQEND
  5
1F2
  8
LAYER_1
  0
POLYLINE
  5
53
  8
LAYER_1
 66
     1
 10
0.0
 20
0.0
 30
0.0
 70
     1
  0
VERTEX
  5
1F3
  8
LAYER_1
 10
-377.5103901699993
 20
194.1993175910147
 30
0.0
  0
VERTEX
  5
1F4
  8
LAYER_1
 10
-384.1869652584721
 20
201.6845517847784
 30
0.0
  0
VERTEX
  5
1F5
  8
LAYER_1
 10
-390.8773080799738
 20
209.1543882297849
 30
0.0
  0
VERTEX
  5
1F6
  8
LAYER_1
 10
-387.8521219100081
 20
218.7014944452324
 30
0.0
  0
VERTEX
  5
1F7
  8
LAYER_1
 10
-384.8001793567275
 20
228.2379388632046
 30
0.0
  0
VERTEX
  5
1F8
  8
LAYER_1
 10
-377.526482714125
 20
229.0126462448343
 30
0.0
  0
SEQEND
  5
1F9
  8
LAYER_1
  0
POLYLINE
  5
54
  8
LAYER_1
 66
     1
 10
0.0
 20
0.0
 30
0.0
 70
     1
  0
VERTEX
  5
1FA
  8
LAYER_1
 10
-517.4727783869289
 20
229.0125841854422
 30
0.0
  0
VERTEX
  5
1FB
  8
LAYER_1
 10
-517.473517285875
 20
229.0126462448343
 30
0.0
  0
VERTEX
  5
1FC
  8
LAYER_1
 10
-517.4896098300007
 20
194.1993175910147
 30
0.0
  0
VERTEX
  5
1FD
  8
LAYER_1
 10
-510.8130347415279
 20
201.6845517847784
 30
0.0
  0
VERTEX
  5
1FE
  8
LAYER_1
 10
-504.1226919200262
 20
209.1543882297849
 30
0.0
  0
VERTEX
  5
1FF
  8
LAYER_1
 10
-505.6075184509054
 20
213.8408722933208
 30
0.0
  0
VERTEX
  5
200
  8
LAYER_1
 10
-507.2698214425378
 20
219.0537930696575
 30
0.0
  0
VERTEX
  5
201
  8
LAYER_1
 10
-510.5679241916613
 20
229.3419351596598
 30
0.0
  0
VERTEX
  5
202
  8
LAYER_1
 10
-514.576464887364
 20
230.6962353639433
 30
0.0
  0
VERTEX
  5
203
  8
LAYER_1
 10
-516.2715678774305
 20
231.2645015844527
 30
0.0
  0
VERTEX
  5
204
  8
LAYER_1
 10
-517.4724741763323
 20
231.6587580244494
 30
0.0
  0
SEQEND
  5
205
  8
LAYER_1
  0
POLYLINE
  5
55
  8
LAYER_1
 66
     1
 10
0.0
 20
0.0
 30
0.0
 70
     1
  0
VERTEX
  5
206
  8
LAYER_1
 10
-429.3045795093485
 20
362.4896098571749
 30
0.0
  0
VERTEX
  5
207
  8
LAYER_1
 10
-429.4669326663786
 20
353.7070303613083
 30
0.0
  0
VERTEX
  5
208
  8
LAYER_1
 10
-433.9522386693592
 20
348.9151464910337
 30
0.0
  0
VERTEX
  5
209
  8
LAYER_1
 10
-438.4488058169537
 20
344.1292829928952
 30
0.0
  0
VERTEX
  5
20A
  8
LAYER_1
 10
-442.9627032226659
 20
339.3494015726104
 30
0.0
  0
VERTEX
  5
20B
  8
LAYER_1
 10
-447.4999999999999
 20
334.5754639358969
 30
0.0
  0
VERTEX
  5
20C
  8
LAYER_1
 10
-452.0372967773341
 20
339.3494015726105
 30
0.0
  0
VERTEX
  5
20D
  8
LAYER_1
 10
-456.5511941830463
 20
344.1292829928954
 30
0.0
  0
VERTEX
  5
20E
  8
LAYER_1
 10
-461.0477613306406
 20
348.9151464910339
 30
0.0
  0
VERTEX
  5
20F
  8
LAYER_1
 10
-465.533067333621
 20
353.7070303613085
 30
0.0
  0
VERTEX
  5
210
  8
LAYER_1
 10
-465.6954204906513
 20
362.4896098571751
 30
0.0
  0
SEQEND
  5
211
  8
LAYER_1
  0
POLYLINE
  5
56
  8
LAYER_1
 66
     1
 10
0.0
 20
0.0
 30
0.0
 70
     1
  0
VERTEX
  5
212
  8
LAYER_1
 10
-508.3723825270422
 20
362.4888850995007
 30
0.0
  0
VERTEX
  5
213
  8
LAYER_1
 10
-510.1998206432725
 20
356.7900027024663
 30
0.0
  0
VERTEX
  5
214
  8
LAYER_1
 10
-517.473517285875
 20
356.0152953208366
 30
0.0
  0
VERTEX
  5
215
  8
LAYER_1
 10
-517.4765100531843
 20
362.4896098300007
 30
0.0
  0
SEQEND
  5
216
  8
LAYER_1
  0
POLYLINE
  5
57
  8
LAYER_1
 66
     1
 10
0.0
 20
0.0
 30
0.0
 70
     1
  0
VERTEX
  5
217
  8
LAYER_1
 10
-476.9071128687586
 20
-391.4347270971284
 30
0.0
  0
VERTEX
  5
218
  8
LAYER_1
 10
-476.7034794841377
 20
-371.9345143607121
 30
0.0
  0
VERTEX
  5
219
  8
LAYER_1
 10
-458.2831700801761
 20
-371.306880669378
 30
0.0
  0
VERTEX
  5
21A
  8
LAYER_1
 10
-454.936498545106
 20
-366.7711160161365
 30
0.0
  0
VERTEX
  5
21B
  8
LAYER_1
 10
-460.3219566027252
 20
-360.8288882728385
 30
0.0
  0
VERTEX
  5
21C
  8
LAYER_1
 10
-465.6999351641119
 20
-354.8776754075721
 30
0.0
  0
VERTEX
  5
21D
  8
LAYER_1
 10
-471.0703402089072
 20
-348.9174047822827
 30
0.0
  0
VERTEX
  5
21E
  8
LAYER_1
 10
-476.4330777167523
 20
-342.9480037589158
 30
0.0
  0
VERTEX
  5
21F
  8
LAYER_1
 10
-476.5860278570536
 20
-331.2031468431525
 30
0.0
  0
VERTEX
  5
220
  8
LAYER_1
 10
-481.544938924389
 20
-333.8213332387385
 30
0.0
  0
VERTEX
  5
221
  8
LAYER_1
 10
-486.5073924813263
 20
-336.4306267949255
 30
0.0
  0
VERTEX
  5
222
  8
LAYER_1
 10
-491.4734375730416
 20
-339.0308463393717
 30
0.0
  0
VERTEX
  5
223
  8
LAYER_1
 10
-496.4431232447104
 20
-341.6218106997352
 30
0.0
  0
VERTEX
  5
224
  8
LAYER_1
 10
-498.7281442968161
 20
-342.7979550297518
 30
0.0
  0
VERTEX
  5
225
  8
LAYER_1
 10
-500.4045926378857
 20
-343.6485824222677
 30
0.0
  0
VERTEX
  5
226
  8
LAYER_1
 10
-501.461757362167
 20
-344.1924269740304
 30
0.0
  0
VERTEX
  5
227
  8
LAYER_1
 10
-501.7547612099646
 20
-344.3551600898629
 30
0.0
  0
VERTEX
  5
228
  8
LAYER_1
 10
-501.8417827526193
 20
-344.4102538786827
 30
0.0
  0
VERTEX
  5
229
  8
LAYER_1
 10
-501.8889275639082
 20
-344.4482227817873
 30
0.0
  0
VERTEX
  5
22A
  8
LAYER_1
 10
-501.9418856632016
 20
-344.5154528305902
 30
0.0
  0
VERTEX
  5
22B
  8
LAYER_1
 10
-501.9862692481714
 20
-344.5901460403194
 30
0.0
  0
VERTEX
  5
22C
  8
LAYER_1
 10
-502.0572302381586
 20
-344.7550314144808
 30
0.0
  0
VERTEX
  5
22D
  8
LAYER_1
 10
-502.1176452599063
 20
-344.9290978481196
 30
0.0
  0
VERTEX
  5
22E
  8
LAYER_1
 10
-502.1833490394512
 20
-345.0985642850837
 30
0.0
  0
VERTEX
  5
22F
  8
LAYER_1
 10
-505.212318784676
 20
-351.7618228057352
 30
0.0
  0
VERTEX
  5
230
  8
LAYER_1
 10
-508.2588120666637
 20
-358.4145219255656
 30
0.0
  0
VERTEX
  5
231
  8
LAYER_1
 10
-511.322455379775
 20
-365.0567765503123
 30
0.0
  0
VERTEX
  5
232
  8
LAYER_1
 10
-514.4028752183701
 20
-371.6887015857128
 30
0.0
  0
VERTEX
  5
233
  8
LAYER_1
 10
-503.4946901980442
 20
-371.3130080839699
 30
0.0
  0
VERTEX
  5
234
  8
LAYER_1
 10
-497.7945678509038
 20
-377.3748447399884
 30
0.0
  0
VERTEX
  5
235
  8
LAYER_1
 10
-492.0868014832139
 20
-383.4271538431888
 30
0.0
  0
VERTEX
  5
236
  8
LAYER_1
 10
-486.3715006020499
 20
-389.47003174598
 30
0.0
  0
VERTEX
  5
237
  8
LAYER_1
 10
-480.6487747144872
 20
-395.5035748007713
 30
0.0
  0
SEQEND
  5
238
  8
LAYER_1
  0
POLYLINE
  5
58
  8
LAYER_1
 66
     1
 10
0.0
 20
0.0
 30
0.0
 70
     1
  0
VERTEX
  5
239
  8
LAYER_1
 10
-414.3512252855127
 20
-395.5035748007714
 30
0.0
  0
VERTEX
  5
23A
  8
LAYER_1
 10
-408.62849939795
 20
-389.4700317459801
 30
0.0
  0
VERTEX
  5
23B
  8
LAYER_1
 10
-402.9131985167859
 20
-383.4271538431889
 30
0.0
  0
VERTEX
  5
23C
  8
LAYER_1
 10
-397.2054321490959
 20
-377.3748447399885
 30
0.0
  0
VERTEX
  5
23D
  8
LAYER_1
 10
-391.5053098019557
 20
-371.3130080839701
 30
0.0
  0
VERTEX
  5
23E
  8
LAYER_1
 10
-380.5971247816298
 20
-371.6887015857129
 30
0.0
  0
VERTEX
  5
23F
  8
LAYER_1
 10
-383.677544620225
 20
-365.0567765503124
 30
0.0
  0
VERTEX
  5
240
  8
LAYER_1
 10
-386.7411879333361
 20
-358.4145219255656
 30
0.0
  0
VERTEX
  5
241
  8
LAYER_1
 10
-389.7876812153236
 20
-351.7618228057352
 30
0.0
  0
VERTEX
  5
242
  8
LAYER_1
 10
-392.8166509605484
 20
-345.0985642850839
 30
0.0
  0
VERTEX
  5
243
  8
LAYER_1
 10
-392.8823547400933
 20
-344.9290978481196
 30
0.0
  0
VERTEX
  5
244
  8
LAYER_1
 10
-392.9427697618411
 20
-344.7550314144808
 30
0.0
  0
VERTEX
  5
245
  8
LAYER_1
 10
-393.0137307518285
 20
-344.5901460403194
 30
0.0
  0
VERTEX
  5
246
  8
LAYER_1
 10
-393.0581143367983
 20
-344.5154528305902
 30
0.0
  0
VERTEX
  5
247
  8
LAYER_1
 10
-393.1110724360918
 20
-344.4482227817874
 30
0.0
  0
VERTEX
  5
248
  8
LAYER_1
 10
-393.1582172473806
 20
-344.4102538786829
 30
0.0
  0
VERTEX
  5
249
  8
LAYER_1
 10
-393.2452387900354
 20
-344.355160089863
 30
0.0
  0
VERTEX
  5
24A
  8
LAYER_1
 10
-393.5382426378329
 20
-344.1924269740305
 30
0.0
  0
VERTEX
  5
24B
  8
LAYER_1
 10
-394.5954073621141
 20
-343.6485824222679
 30
0.0
  0
VERTEX
  5
24C
  8
LAYER_1
 10
-396.2718557031836
 20
-342.7979550297519
 30
0.0
  0
VERTEX
  5
24D
  8
LAYER_1
 10
-398.5568767552894
 20
-341.6218106997354
 30
0.0
  0
VERTEX
  5
24E
  8
LAYER_1
 10
-403.5265624269583
 20
-339.030846339372
 30
0.0
  0
VERTEX
  5
24F
  8
LAYER_1
 10
-408.4926075186735
 20
-336.4306267949257
 30
0.0
  0
VERTEX
  5
250
  8
LAYER_1
 10
-413.4550610756108
 20
-333.8213332387386
 30
0.0
  0
VERTEX
  5
251
  8
LAYER_1
 10
-418.413972142946
 20
-331.2031468431525
 30
0.0
  0
VERTEX
  5
252
  8
LAYER_1
 10
-418.5669222832474
 20
-342.9480037589155
 30
0.0
  0
VERTEX
  5
253
  8
LAYER_1
 10
-423.9296597910926
 20
-348.9174047822826
 30
0.0
  0
VERTEX
  5
254
  8
LAYER_1
 10
-429.300064835888
 20
-354.8776754075722
 30
0.0
  0
VERTEX
  5
255
  8
LAYER_1
 10
-434.6780433972746
 20
-360.8288882728387
 30
0.0
  0
VERTEX
  5
256
  8
LAYER_1
 10
-440.0635014548938
 20
-366.7711160161366
 30
0.0
  0
VERTEX
  5
257
  8
LAYER_1
 10
-436.7168299198237
 20
-371.306880669378
 30
0.0
  0
VERTEX
  5
258
  8
LAYER_1
 10
-418.2965205158619
 20
-371.9345143607121
 30
0.0
  0
VERTEX
  5
259
  8
LAYER_1
 10
-418.0928871312411
 20
-391.4347270971284
 30
0.0
  0
SEQEND
  5
25A
  8
LAYER_1
  0
POLYLINE
  5
59
  8
LAYER_1
 66
     1
 10
0.0
 20
0.0
 30
0.0
 70
     1
  0
VERTEX
  5
25B
  8
LAYER_1
 10
-447.4999999999999
 20
-358.2639255724257
 30
0.0
  0
VERTEX
  5
25C
  8
LAYER_1
 10
-442.9627032226658
 20
-353.3505478503479
 30
0.0
  0
VERTEX
  5
25D
  8
LAYER_1
 10
-438.4488058169535
 20
-348.4310527350388
 30
0.0
  0
VERTEX
  5
25E
  8
LAYER_1
 10
-433.952238669359
 20
-343.5054008136935
 30
0.0
  0
VERTEX
  5
25F
  8
LAYER_1
 10
-429.4669326663785
 20
-338.5735526735068
 30
0.0
  0
VERTEX
  5
260
  8
LAYER_1
 10
-429.2422393773132
 20
-326.0637096453422
 30
0.0
  0
VERTEX
  5
261
  8
LAYER_1
 10
-433.8106848744186
 20
-323.3450860935104
 30
0.0
  0
VERTEX
  5
262
  8
LAYER_1
 10
-438.3759562005709
 20
-320.6176255825425
 30
0.0
  0
VERTEX
  5
263
  8
LAYER_1
 10
-442.938809270766
 20
-317.8813000353621
 30
0.0
  0
VERTEX
  5
264
  8
LAYER_1
 10
-447.4999999999999
 20
-315.1360813748925
 30
0.0
  0
VERTEX
  5
265
  8
LAYER_1
 10
-452.0611907292338
 20
-317.8813000353621
 30
0.0
  0
VERTEX
  5
266
  8
LAYER_1
 10
-456.6240437994289
 20
-320.6176255825425
 30
0.0
  0
VERTEX
  5
267
  8
LAYER_1
 10
-461.1893151255812
 20
-323.3450860935103
 30
0.0
  0
VERTEX
  5
268
  8
LAYER_1
 10
-465.7577606226866
 20
-326.0637096453421
 30
0.0
  0
VERTEX
  5
269
  8
LAYER_1
 10
-465.533067333621
 20
-338.5735526735069
 30
0.0
  0
VERTEX
  5
26A
  8
LAYER_1
 10
-461.0477613306406
 20
-343.5054008136935
 30
0.0
  0
VERTEX
  5
26B
  8
LAYER_1
 10
-456.5511941830462
 20
-348.4310527350388
 30
0.0
  0
VERTEX
  5
26C
  8
LAYER_1
 10
-452.0372967773339
 20
-353.3505478503479
 30
0.0
  0
SEQEND
  5
26D
  8
LAYER_1
  0
POLYLINE
  5
5A
  8
LAYER_1
 66
     1
 10
0.0
 20
0.0
 30
0.0
 70
     1
  0
VERTEX
  5
26E
  8
LAYER_1
 10
-403.0764538256509
 20
-314.8828981528532
 30
0.0
  0
VERTEX
  5
26F
  8
LAYER_1
 10
-399.3516531051055
 20
-309.4651089494221
 30
0.0
  0
VERTEX
  5
270
  8
LAYER_1
 10
-395.6342273420084
 20
-304.0406099749102
 30
0.0
  0
VERTEX
  5
271
  8
LAYER_1
 10
-409.1174344957698
 20
-308.3440696618858
 30
0.0
  0
VERTEX
  5
272
  8
LAYER_1
 10
-413.0702006508698
 20
-303.2085949302087
 30
0.0
  0
VERTEX
  5
273
  8
LAYER_1
 10
-417.0095138068559
 20
-298.059436960193
 30
0.0
  0
VERTEX
  5
274
  8
LAYER_1
 10
-418.1475219233452
 20
-319.9077276879358
 30
0.0
  0
VERTEX
  5
275
  8
LAYER_1
 10
-410.0865805155642
 20
-324.4945400232098
 30
0.0
  0
VERTEX
  5
276
  8
LAYER_1
 10
-402.0146119007136
 20
-329.0555761315256
 30
0.0
  0
SEQEND
  5
277
  8
LAYER_1
  0
POLYLINE
  5
5B
  8
LAYER_1
 66
     1
 10
0.0
 20
0.0
 30
0.0
 70
     1
  0
VERTEX
  5
278
  8
LAYER_1
 10
-429.7994909288829
 20
-293.3537033397033
 30
0.0
  0
VERTEX
  5
279
  8
LAYER_1
 10
-429.723558800848
 20
-289.7418582045091
 30
0.0
  0
VERTEX
  5
27A
  8
LAYER_1
 10
-429.6594366361168
 20
-287.0992605043658
 30
0.0
  0
VERTEX
  5
27B
  8
LAYER_1
 10
-429.6254919585796
 20
-285.4282602657498
 30
0.0
  0
VERTEX
  5
27C
  8
LAYER_1
 10
-429.6255760287243
 20
-284.9578435777884
 30
0.0
  0
VERTEX
  5
27D
  8
LAYER_1
 10
-429.6308866399876
 20
-284.8140346087173
 30
0.0
  0
VERTEX
  5
27E
  8
LAYER_1
 10
-429.640092292126
 20
-284.7312075151376
 30
0.0
  0
VERTEX
  5
27F
  8
LAYER_1
 10
-429.6641098861979
 20
-284.6431343636959
 30
0.0
  0
VERTEX
  5
280
  8
LAYER_1
 10
-429.6961565975762
 20
-284.5586957863579
 30
0.0
  0
VERTEX
  5
281
  8
LAYER_1
 10
-429.7769233040229
 20
-284.3973657177617
 30
0.0
  0
VERTEX
  5
282
  8
LAYER_1
 10
-429.8675642750096
 20
-284.2405040368866
 30
0.0
  0
VERTEX
  5
283
  8
LAYER_1
 10
-429.9532513740792
 20
-284.0813974712702
 30
0.0
  0
VERTEX
  5
284
  8
LAYER_1
 10
-432.1772684493457
 20
-279.4522165402568
 30
0.0
  0
VERTEX
  5
285
  8
LAYER_1
 10
-434.3921580993711
 20
-274.8171016380892
 30
0.0
  0
VERTEX
  5
286
  8
LAYER_1
 10
-436.5981021086294
 20
-270.1761223817141
 30
0.0
  0
VERTEX
  5
287
  8
LAYER_1
 10
-438.7952822615945
 20
-265.5293483880785
 30
0.0
  0
VERTEX
  5
288
  8
LAYER_1
 10
-440.9838803427402
 20
-260.8768492741292
 30
0.0
  0
VERTEX
  5
289
  8
LAYER_1
 10
-443.1640781365404
 20
-256.2186946568132
 30
0.0
  0
VERTEX
  5
28A
  8
LAYER_1
 10
-445.336057427469
 20
-251.5549541530774
 30
0.0
  0
VERTEX
  5
28B
  8
LAYER_1
 10
-447.4999999999999
 20
-246.8856973798686
 30
0.0
  0
VERTEX
  5
28C
  8
LAYER_1
 10
-449.6639425725308
 20
-251.5549541530775
 30
0.0
  0
VERTEX
  5
28D
  8
LAYER_1
 10
-451.8359218634594
 20
-256.2186946568133
 30
0.0
  0
VERTEX
  5
28E
  8
LAYER_1
 10
-454.0161196572595
 20
-260.8768492741293
 30
0.0
  0
VERTEX
  5
28F
  8
LAYER_1
 10
-456.2047177384053
 20
-265.5293483880786
 30
0.0
  0
VERTEX
  5
290
  8
LAYER_1
 10
-458.4018978913703
 20
-270.1761223817142
 30
0.0
  0
VERTEX
  5
291
  8
LAYER_1
 10
-460.6078419006286
 20
-274.8171016380893
 30
0.0
  0
VERTEX
  5
292
  8
LAYER_1
 10
-462.822731550654
 20
-279.4522165402569
 30
0.0
  0
VERTEX
  5
293
  8
LAYER_1
 10
-465.0467486259204
 20
-284.0813974712702
 30
0.0
  0
VERTEX
  5
294
  8
LAYER_1
 10
-465.1324357249902
 20
-284.2405040368866
 30
0.0
  0
VERTEX
  5
295
  8
LAYER_1
 10
-465.2230766959769
 20
-284.3973657177617
 30
0.0
  0
VERTEX
  5
296
  8
LAYER_1
 10
-465.3038434024237
 20
-284.5586957863579
 30
0.0
  0
VERTEX
  5
297
  8
LAYER_1
 10
-465.3358901138018
 20
-284.6431343636959
 30
0.0
  0
VERTEX
  5
298
  8
LAYER_1
 10
-465.3599077078737
 20
-284.7312075151377
 30
0.0
  0
VERTEX
  5
299
  8
LAYER_1
 10
-465.3691133600122
 20
-284.8140346087174
 30
0.0
  0
VERTEX
  5
29A
  8
LAYER_1
 10
-465.3744239712756
 20
-284.9578435777885
 30
0.0
  0
VERTEX
  5
29B
  8
LAYER_1
 10
-465.3745080414203
 20
-285.4282602657498
 30
0.0
  0
VERTEX
  5
29C
  8
LAYER_1
 10
-465.340563363883
 20
-287.0992605043658
 30
0.0
  0
VERTEX
  5
29D
  8
LAYER_1
 10
-465.2764411991519
 20
-289.7418582045091
 30
0.0
  0
VERTEX
  5
29E
  8
LAYER_1
 10
-465.2005090711169
 20
-293.3537033397033
 30
0.0
  0
VERTEX
  5
29F
  8
LAYER_1
 10
-464.8020118620844
 20
-314.9099510719511
 30
0.0
  0
VERTEX
  5
2A0
  8
LAYER_1
 10
-460.4690552423986
 20
-311.8904951529917
 30
0.0
  0
VERTEX
  5
2A1
  8
LAYER_1
 10
-456.1410731131969
 20
-308.8614619055632
 30
0.0
  0
VERTEX
  5
2A2
  8
LAYER_1
 10
-451.8180573929177
 20
-305.8228146216292
 30
0.0
  0
VERTEX
  5
2A3
  8
LAYER_1
 10
-447.4999999999999
 20
-302.774516593153
 30
0.0
  0
VERTEX
  5
2A4
  8
LAYER_1
 10
-443.1819426070822
 20
-305.8228146216292
 30
0.0
  0
VERTEX
  5
2A5
  8
LAYER_1
 10
-438.858926886803
 20
-308.8614619055632
 30
0.0
  0
VERTEX
  5
2A6
  8
LAYER_1
 10
-434.5309447576011
 20
-311.8904951529917
 30
0.0
  0
VERTEX
  5
2A7
  8
LAYER_1
 10
-430.1979881379152
 20
-314.9099510719511
 30
0.0
  0
SEQEND
  5
2A8
  8
LAYER_1
  0
POLYLINE
  5
5C
  8
LAYER_1
 66
     1
 10
0.0
 20
0.0
 30
0.0
 70
     1
  0
VERTEX
  5
2A9
  8
LAYER_1
 10
-377.510390169999
 20
-300.3676888881929
 30
0.0
  0
VERTEX
  5
2AA
  8
LAYER_1
 10
-384.1869652584722
 20
-308.0715563726234
 30
0.0
  0
VERTEX
  5
2AB
  8
LAYER_1
 10
-390.8773080799739
 20
-315.7595763614494
 30
0.0
  0
VERTEX
  5
2AC
  8
LAYER_1
 10
-387.8521219100081
 20
-325.5855402845112
 30
0.0
  0
VERTEX
  5
2AD
  8
LAYER_1
 10
-384.8001793567274
 20
-335.4005309938067
 30
0.0
  0
VERTEX
  5
2AE
  8
LAYER_1
 10
-377.5264827141249
 20
-336.1978665016603
 30
0.0
  0
SEQEND
  5
2AF
  8
LAYER_1
  0
POLYLINE
  5
5D
  8
LAYER_1
 66
     1
 10
0.0
 20
0.0
 30
0.0
 70
     1
  0
VERTEX
  5
2B0
  8
LAYER_1
 10
-510.1998206432725
 20
-335.4005309938068
 30
0.0
  0
VERTEX
  5
2B1
  8
LAYER_1
 10
-507.1478780899918
 20
-325.5855402845112
 30
0.0
  0
VERTEX
  5
2B2
  8
LAYER_1
 10
-504.122691920026
 20
-315.7595763614495
 30
0.0
  0
VERTEX
  5
2B3
  8
LAYER_1
 10
-510.8130347415279
 20
-308.0715563726234
 30
0.0
  0
VERTEX
  5
2B4
  8
LAYER_1
 10
-517.4896098300006
 20
-300.367688888193
 30
0.0
  0
VERTEX
  5
2B5
  8
LAYER_1
 10
-517.4735172858749
 20
-336.1978665016602
 30
0.0
  0
SEQEND
  5
2B6
  8
LAYER_1
  0
POLYLINE
  5
5E
  8
LAYER_1
 66
     1
 10
0.0
 20
0.0
 30
0.0
 70
     1
  0
VERTEX
  5
2B7
  8
LAYER_1
 10
-492.9853880992861
 20
-329.0555761315255
 30
0.0
  0
VERTEX
  5
2B8
  8
LAYER_1
 10
-484.9134194844355
 20
-324.4945400232098
 30
0.0
  0
VERTEX
  5
2B9
  8
LAYER_1
 10
-476.8524780766544
 20
-319.907727687936
 30
0.0
  0
VERTEX
  5
2BA
  8
LAYER_1
 10
-477.9904861931439
 20
-298.059436960193
 30
0.0
  0
VERTEX
  5
2BB
  8
LAYER_1
 10
-481.92979934913
 20
-303.2085949302087
 30
0.0
  0
VERTEX
  5
2BC
  8
LAYER_1
 10
-485.8825655042302
 20
-308.3440696618857
 30
0.0
  0
VERTEX
  5
2BD
  8
LAYER_1
 10
-499.3657726579915
 20
-304.0406099749101
 30
0.0
  0
VERTEX
  5
2BE
  8
LAYER_1
 10
-495.6483468948944
 20
-309.4651089494221
 30
0.0
  0
VERTEX
  5
2BF
  8
LAYER_1
 10
-491.9235461743489
 20
-314.8828981528532
 30
0.0
  0
SEQEND
  5
2C0
  8
LAYER_1
  0
POLYLINE
  5
5F
  8
LAYER_1
 66
     1
 10
0.0
 20
0.0
 30
0.0
 70
     1
  0
VERTEX
  5
2C1
  8
LAYER_1
 10
-405.0579449035569
 20
-295.3684617716408
 30
0.0
  0
VERTEX
  5
2C2
  8
LAYER_1
 10
-391.2832984743859
 20
-290.8397602889272
 30
0.0
  0
VERTEX
  5
2C3
  8
LAYER_1
 10
-377.5060973437629
 20
-286.3213710728008
 30
0.0
  0
VERTEX
  5
2C4
  8
LAYER_1
 10
-377.5
 20
-242.5994969799486
 30
0.0
  0
VERTEX
  5
2C5
  8
LAYER_1
 10
-383.7055136035798
 20
-240.2962200237685
 30
0.0
  0
VERTEX
  5
2C6
  8
LAYER_1
 10
-386.2982219520261
 20
-239.3199704646473
 30
0.0
  0
VERTEX
  5
2C7
  8
LAYER_1
 10
-388.1927139338879
 20
-238.5950855117727
 30
0.0
  0
VERTEX
  5
2C8
  8
LAYER_1
 10
-389.3921780156515
 20
-238.1435517185819
 30
0.0
  0
VERTEX
  5
2C9
  8
LAYER_1
 10
-389.7322709897734
 20
-238.0271623048172
 30
0.0
  0
VERTEX
  5
2CA
  8
LAYER_1
 10
-389.8375820794054
 20
-237.9975143582835
 30
0.0
  0
VERTEX
  5
2CB
  8
LAYER_1
 10
-389.8998026638031
 20
-237.9873556385123
 30
0.0
  0
VERTEX
  5
2CC
  8
LAYER_1
 10
-389.9766412492808
 20
-237.9931278856935
 30
0.0
  0
VERTEX
  5
2CD
  8
LAYER_1
 10
-390.0520632607632
 20
-238.0098963965152
 30
0.0
  0
VERTEX
  5
2CE
  8
LAYER_1
 10
-390.199965128179
 20
-238.0662719615019
 30
0.0
  0
VERTEX
  5
2CF
  8
LAYER_1
 10
-390.3461233989224
 20
-238.1361818383168
 30
0.0
  0
VERTEX
  5
2D0
  8
LAYER_1
 10
-390.4931532058655
 20
-238.1993255318038
 30
0.0
  0
VERTEX
  5
2D1
  8
LAYER_1
 10
-404.219322254951
 20
-243.1084853748956
 30
0.0
  0
VERTEX
  5
2D2
  8
LAYER_1
 10
-417.9429017317733
 20
-248.0272324447517
 30
0.0
  0
VERTEX
  5
2D3
  8
LAYER_1
 10
-418.3631185679708
 20
-279.5960930434843
 30
0.0
  0
VERTEX
  5
2D4
  8
LAYER_1
 10
-415.0493321060401
 20
-283.5531355097852
 30
0.0
  0
VERTEX
  5
2D5
  8
LAYER_1
 10
-411.7271744660826
 20
-287.5008858866676
 30
0.0
  0
VERTEX
  5
2D6
  8
LAYER_1
 10
-408.3966954609657
 20
-291.4393320239975
 30
0.0
  0
SEQEND
  5
2D7
  8
LAYER_1
  0
POLYLINE
  5
60
  8
LAYER_1
 66
     1
 10
0.0
 20
0.0
 30
0.0
 70
     1
  0
VERTEX
  5
2D8
  8
LAYER_1
 10
-489.9420550964427
 20
-295.368461771641
 30
0.0
  0
VERTEX
  5
2D9
  8
LAYER_1
 10
-486.603304539034
 20
-291.4393320239977
 30
0.0
  0
VERTEX
  5
2DA
  8
LAYER_1
 10
-483.2728255339173
 20
-287.5008858866678
 30
0.0
  0
VERTEX
  5
2DB
  8
LAYER_1
 10
-479.9506678939598
 20
-283.5531355097854
 30
0.0
  0
VERTEX
  5
2DC
  8
LAYER_1
 10
-476.6368814320289
 20
-279.5960930434843
 30
0.0
  0
VERTEX
  5
2DD
  8
LAYER_1
 10
-477.0570982682265
 20
-248.0272324447513
 30
0.0
  0
VERTEX
  5
2DE
  8
LAYER_1
 10
-490.7806777450488
 20
-243.1084853748956
 30
0.0
  0
VERTEX
  5
2DF
  8
LAYER_1
 10
-504.5068467941342
 20
-238.1993255318039
 30
0.0
  0
VERTEX
  5
2E0
  8
LAYER_1
 10
-504.6538766010775
 20
-238.1361818383168
 30
0.0
  0
VERTEX
  5
2E1
  8
LAYER_1
 10
-504.800034871821
 20
-238.0662719615021
 30
0.0
  0
VERTEX
  5
2E2
  8
LAYER_1
 10
-504.9479367392366
 20
-238.0098963965153
 30
0.0
  0
VERTEX
  5
2E3
  8
LAYER_1
 10
-505.0233587507191
 20
-237.9931278856936
 30
0.0
  0
VERTEX
  5
2E4
  8
LAYER_1
 10
-505.1001973361966
 20
-237.9873556385123
 30
0.0
  0
VERTEX
  5
2E5
  8
LAYER_1
 10
-505.1624179205944
 20
-237.9975143582835
 30
0.0
  0
VERTEX
  5
2E6
  8
LAYER_1
 10
-505.2677290102263
 20
-238.0271623048172
 30
0.0
  0
VERTEX
  5
2E7
  8
LAYER_1
 10
-505.6078219843483
 20
-238.143551718582
 30
0.0
  0
VERTEX
  5
2E8
  8
LAYER_1
 10
-506.8072860661119
 20
-238.5950855117727
 30
0.0
  0
VERTEX
  5
2E9
  8
LAYER_1
 10
-508.7017780479738
 20
-239.3199704646473
 30
0.0
  0
VERTEX
  5
2EA
  8
LAYER_1
 10
-511.2944863964203
 20
-240.2962200237686
 30
0.0
  0
VERTEX
  5
2EB
  8
LAYER_1
 10
-517.4999999999999
 20
-242.5994969799484
 30
0.0
  0
VERTEX
  5
2EC
  8
LAYER_1
 10
-517.4939026562367
 20
-286.3213710728008
 30
0.0
  0
VERTEX
  5
2ED
  8
LAYER_1
 10
-503.7167015256138
 20
-290.8397602889272
 30
0.0
  0
SEQEND
  5
2EE
  8
LAYER_1
  0
POLYLINE
  5
61
  8
LAYER_1
 66
     1
 10
0.0
 20
0.0
 30
0.0
 70
     1
  0
VERTEX
  5
2EF
  8
LAYER_1
 10
-377.5339007376099
 20
-348.80420352052
 30
0.0
  0
VERTEX
  5
2F0
  8
LAYER_1
 10
-377.5325849950083
 20
-346.6772574135751
 30
0.0
  0
VERTEX
  5
2F1
  8
LAYER_1
 10
-381.1045793020018
 20
-346.5323736155746
 30
0.0
  0
VERTEX
  5
2F2
  8
LAYER_1
 10
-379.8106069331726
 20
-350.0520873117644
 30
0.0
  0
SEQEND
  5
2F3
  8
LAYER_1
  0
POLYLINE
  5
62
  8
LAYER_1
 66
     1
 10
0.0
 20
0.0
 30
0.0
 70
     1
  0
VERTEX
  5
2F4
  8
LAYER_1
 10
-513.8954206979979
 20
-346.5323736155742
 30
0.0
  0
VERTEX
  5
2F5
  8
LAYER_1
 10
-517.4674150049914
 20
-346.6772574135751
 30
0.0
  0
VERTEX
  5
2F6
  8
LAYER_1
 10
-517.4660992623901
 20
-348.80420352052
 30
0.0
  0
VERTEX
  5
2F7
  8
LAYER_1
 10
-515.1893930668272
 20
-350.0520873117642
 30
0.0
  0
SEQEND
  5
2F8
  8
LAYER_1
  0
POLYLINE
  5
63
  8
LAYER_1
 66
     1
 10
0.0
 20
0.0
 30
0.0
 70
     1
  0
VERTEX
  5
2F9
  8
LAYER_1
 10
403.3769605515121
 20
350.100197336197
 30
0.0
  0
VERTEX
  5
2FA
  8
LAYER_1
 10
403.386533084425
 20
350.1624179205947
 30
0.0
  0
VERTEX
  5
2FB
  8
LAYER_1
 10
403.4144702606032
 20
350.2677290102267
 30
0.0
  0
VERTEX
  5
2FC
  8
LAYER_1
 10
403.5241436760599
 20
350.6078219843486
 30
0.0
  0
VERTEX
  5
2FD
  8
LAYER_1
 10
403.9496226925058
 20
351.8072860661122
 30
0.0
  0
VERTEX
  5
2FE
  8
LAYER_1
 10
404.6326797337208
 20
353.701778047974
 30
0.0
  0
VERTEX
  5
2FF
  8
LAYER_1
 10
405.5525969325762
 20
356.2944863964203
 30
0.0
  0
VERTEX
  5
300
  8
LAYER_1
 10
407.7229682950227
 20
362.5
 30
0.0
  0
VERTEX
  5
301
  8
LAYER_1
 10
448.9219666130505
 20
362.493902656237
 30
0.0
  0
VERTEX
  5
302
  8
LAYER_1
 10
453.1796319940004
 20
348.7167015256139
 30
0.0
  0
VERTEX
  5
303
  8
LAYER_1
 10
457.4470145945938
 20
334.942055096443
 30
0.0
  0
VERTEX
  5
304
  8
LAYER_1
 10
453.7446067444477
 20
331.6033045390343
 30
0.0
  0
VERTEX
  5
305
  8
LAYER_1
 10
450.0334200866456
 20
328.2728255339174
 30
0.0
  0
VERTEX
  5
306
  8
LAYER_1
 10
446.3134660702244
 20
324.9506678939599
 30
0.0
  0
VERTEX
  5
307
  8
LAYER_1
 10
442.5847561442211
 20
321.6368814320292
 30
0.0
  0
VERTEX
  5
308
  8
LAYER_1
 10
412.8375080745896
 20
322.0570982682266
 30
0.0
  0
VERTEX
  5
309
  8
LAYER_1
 10
408.2025866202296
 20
335.7806777450489
 30
0.0
  0
VERTEX
  5
30A
  8
LAYER_1
 10
403.5766991825377
 20
349.5068467941344
 30
0.0
  0
VERTEX
  5
30B
  8
LAYER_1
 10
403.5171990587269
 20
349.6538766010776
 30
0.0
  0
VERTEX
  5
30C
  8
LAYER_1
 10
403.4513231795003
 20
349.8000348718211
 30
0.0
  0
VERTEX
  5
30D
  8
LAYER_1
 10
403.398200644036
 20
349.9479367392369
 30
0.0
  0
VERTEX
  5
30E
  8
LAYER_1
 10
403.3823997237079
 20
350.0233587507194
 30
0.0
  0
SEQEND
  5
30F
  8
LAYER_1
  0
POLYLINE
  5
64
  8
LAYER_1
 66
     1
 10
0.0
 20
0.0
 30
0.0
 70
     1
  0
VERTEX
  5
310
  8
LAYER_1
 10
403.376960551512
 20
234.8998026638033
 30
0.0
  0
VERTEX
  5
311
  8
LAYER_1
 10
403.3823997237077
 20
234.9766412492809
 30
0.0
  0
VERTEX
  5
312
  8
LAYER_1
 10
403.3982006440359
 20
235.0520632607634
 30
0.0
  0
VERTEX
  5
313
  8
LAYER_1
 10
403.4513231795003
 20
235.1999651281791
 30
0.0
  0
VERTEX
  5
314
  8
LAYER_1
 10
403.5171990587269
 20
235.3461233989225
 30
0.0
  0
VERTEX
  5
315
  8
LAYER_1
 10
403.5766991825377
 20
235.4931532058658
 30
0.0
  0
VERTEX
  5
316
  8
LAYER_1
 10
408.2025866202296
 20
249.2193222549512
 30
0.0
  0
VERTEX
  5
317
  8
LAYER_1
 10
412.8375080745896
 20
262.9429017317734
 30
0.0
  0
VERTEX
  5
318
  8
LAYER_1
 10
442.5847561442208
 20
263.3631185679712
 30
0.0
  0
VERTEX
  5
319
  8
LAYER_1
 10
446.3134660702243
 20
260.0493321060402
 30
0.0
  0
VERTEX
  5
31A
  8
LAYER_1
 10
450.0334200866456
 20
256.7271744660827
 30
0.0
  0
VERTEX
  5
31B
  8
LAYER_1
 10
453.7446067444477
 20
253.3966954609659
 30
0.0
  0
VERTEX
  5
31C
  8
LAYER_1
 10
457.4470145945938
 20
250.0579449035572
 30
0.0
  0
VERTEX
  5
31D
  8
LAYER_1
 10
453.1796319940004
 20
236.283298474386
 30
0.0
  0
VERTEX
  5
31E
  8
LAYER_1
 10
448.9219666130505
 20
222.506097343763
 30
0.0
  0
VERTEX
  5
31F
  8
LAYER_1
 10
407.7229682950227
 20
222.5
 30
0.0
  0
VERTEX
  5
320
  8
LAYER_1
 10
405.5525969325762
 20
228.7055136035797
 30
0.0
  0
VERTEX
  5
321
  8
LAYER_1
 10
404.6326797337208
 20
231.298221952026
 30
0.0
  0
VERTEX
  5
322
  8
LAYER_1
 10
403.9496226925057
 20
233.1927139338879
 30
0.0
  0
VERTEX
  5
323
  8
LAYER_1
 10
403.5241436760598
 20
234.3921780156516
 30
0.0
  0
VERTEX
  5
324
  8
LAYER_1
 10
403.414470260603
 20
234.7322709897736
 30
0.0
  0
VERTEX
  5
325
  8
LAYER_1
 10
403.3865330844249
 20
234.8375820794055
 30
0.0
  0
SEQEND
  5
326
  8
LAYER_1
  0
POLYLINE
  5
65
  8
LAYER_1
 66
     1
 10
0.0
 20
0.0
 30
0.0
 70
     1
  0
VERTEX
  5
327
  8
LAYER_1
 10
480.570295473726
 20
263.1475219233455
 30
0.0
  0
VERTEX
  5
328
  8
LAYER_1
 10
484.8924357663569
 20
255.0865805155643
 30
0.0
  0
VERTEX
  5
329
  8
LAYER_1
 10
489.1902871932173
 20
247.0146119007138
 30
0.0
  0
VERTEX
  5
32A
  8
LAYER_1
 10
475.8354128123696
 20
248.076453825651
 30
0.0
  0
VERTEX
  5
32B
  8
LAYER_1
 10
470.7302453667666
 20
244.3516531051055
 30
0.0
  0
VERTEX
  5
32C
  8
LAYER_1
 10
465.6187553228484
 20
240.6342273420084
 30
0.0
  0
VERTEX
  5
32D
  8
LAYER_1
 10
469.6738932162717
 20
254.1174344957699
 30
0.0
  0
VERTEX
  5
32E
  8
LAYER_1
 10
464.8347498990544
 20
258.07020065087
 30
0.0
  0
VERTEX
  5
32F
  8
LAYER_1
 10
459.9827129050452
 20
262.0095138068559
 30
0.0
  0
SEQEND
  5
330
  8
LAYER_1
  0
POLYLINE
  5
66
  8
LAYER_1
 66
     1
 10
0.0
 20
0.0
 30
0.0
 70
     1
  0
VERTEX
  5
331
  8
LAYER_1
 10
411.7618428110607
 20
292.5
 30
0.0
  0
VERTEX
  5
332
  8
LAYER_1
 10
416.1616702644159
 20
294.6639425725309
 30
0.0
  0
VERTEX
  5
333
  8
LAYER_1
 10
420.5562997526459
 20
296.8359218634595
 30
0.0
  0
VERTEX
  5
334
  8
LAYER_1
 10
424.9456656758988
 20
299.0161196572597
 30
0.0
  0
VERTEX
  5
335
  8
LAYER_1
 10
429.329702434322
 20
301.2047177384054
 30
0.0
  0
VERTEX
  5
336
  8
LAYER_1
 10
433.7083444280636
 20
303.4018978913705
 30
0.0
  0
VERTEX
  5
337
  8
LAYER_1
 10
438.0815260572714
 20
305.6078419006288
 30
0.0
  0
VERTEX
  5
338
  8
LAYER_1
 10
442.4491817220931
 20
307.8227315506542
 30
0.0
  0
VERTEX
  5
339
  8
LAYER_1
 10
446.8112458226767
 20
310.0467486259206
 30
0.0
  0
VERTEX
  5
33A
  8
LAYER_1
 10
446.9611714895249
 20
310.1324357249903
 30
0.0
  0
VERTEX
  5
33B
  8
LAYER_1
 10
447.1089818078294
 20
310.2230766959769
 30
0.0
  0
VERTEX
  5
33C
  8
LAYER_1
 10
447.2610026752475
 20
310.3038434024238
 30
0.0
  0
VERTEX
  5
33D
  8
LAYER_1
 10
447.340568907892
 20
310.3358901138021
 30
0.0
  0
VERTEX
  5
33E
  8
LAYER_1
 10
447.4235599894363
 20
310.3599077078741
 30
0.0
  0
VERTEX
  5
33F
  8
LAYER_1
 10
447.5016077254925
 20
310.3691133600125
 30
0.0
  0
VERTEX
  5
340
  8
LAYER_1
 10
447.6371185103754
 20
310.3744239712759
 30
0.0
  0
VERTEX
  5
341
  8
LAYER_1
 10
448.0803908251654
 20
310.3745080414204
 30
0.0
  0
VERTEX
  5
342
  8
LAYER_1
 10
449.654969624646
 20
310.3405633638831
 30
0.0
  0
VERTEX
  5
343
  8
LAYER_1
 10
452.1450819645749
 20
310.2764411991521
 30
0.0
  0
VERTEX
  5
344
  8
LAYER_1
 10
455.548513421649
 20
310.2005090711173
 30
0.0
  0
VERTEX
  5
345
  8
LAYER_1
 10
475.8609047015336
 20
309.8020118620848
 30
0.0
  0
VERTEX
  5
346
  8
LAYER_1
 10
473.0156799277192
 20
305.4690552423989
 30
0.0
  0
VERTEX
  5
347
  8
LAYER_1
 10
470.161430464372
 20
301.141073113197
 30
0.0
  0
VERTEX
  5
348
  8
LAYER_1
 10
467.2981217216128
 20
296.8180573929178
 30
0.0
  0
VERTEX
  5
349
  8
LAYER_1
 10
464.4257191095627
 20
292.5
 30
0.0
  0
VERTEX
  5
34A
  8
LAYER_1
 10
467.2981217216128
 20
288.1819426070822
 30
0.0
  0
VERTEX
  5
34B
  8
LAYER_1
 10
470.161430464372
 20
283.858926886803
 30
0.0
  0
VERTEX
  5
34C
  8
LAYER_1
 10
473.0156799277192
 20
279.5309447576012
 30
0.0
  0
VERTEX
  5
34D
  8
LAYER_1
 10
475.8609047015336
 20
275.1979881379154
 30
0.0
  0
VERTEX
  5
34E
  8
LAYER_1
 10
455.5485134216493
 20
274.7994909288832
 30
0.0
  0
VERTEX
  5
34F
  8
LAYER_1
 10
452.1450819645751
 20
274.7235588008482
 30
0.0
  0
VERTEX
  5
350
  8
LAYER_1
 10
449.654969624646
 20
274.6594366361171
 30
0.0
  0
VERTEX
  5
351
  8
LAYER_1
 10
448.0803908251653
 20
274.6254919585797
 30
0.0
  0
VERTEX
  5
352
  8
LAYER_1
 10
447.6371185103754
 20
274.6255760287244
 30
0.0
  0
VERTEX
  5
353
  8
LAYER_1
 10
447.5016077254925
 20
274.6308866399877
 30
0.0
  0
VERTEX
  5
354
  8
LAYER_1
 10
447.4235599894363
 20
274.6400922921262
 30
0.0
  0
VERTEX
  5
355
  8
LAYER_1
 10
447.340568907892
 20
274.664109886198
 30
0.0
  0
VERTEX
  5
356
  8
LAYER_1
 10
447.2610026752475
 20
274.6961565975763
 30
0.0
  0
VERTEX
  5
357
  8
LAYER_1
 10
447.1089818078294
 20
274.7769233040231
 30
0.0
  0
VERTEX
  5
358
  8
LAYER_1
 10
446.9611714895249
 20
274.8675642750097
 30
0.0
  0
VERTEX
  5
359
  8
LAYER_1
 10
446.8112458226767
 20
274.9532513740794
 30
0.0
  0
VERTEX
  5
35A
  8
LAYER_1
 10
442.4491817220931
 20
277.1772684493458
 30
0.0
  0
VERTEX
  5
35B
  8
LAYER_1
 10
438.0815260572713
 20
279.3921580993713
 30
0.0
  0
VERTEX
  5
35C
  8
LAYER_1
 10
433.7083444280635
 20
281.5981021086296
 30
0.0
  0
VERTEX
  5
35D
  8
LAYER_1
 10
429.3297024343219
 20
283.7952822615947
 30
0.0
  0
VERTEX
  5
35E
  8
LAYER_1
 10
424.9456656758987
 20
285.9838803427405
 30
0.0
  0
VERTEX
  5
35F
  8
LAYER_1
 10
420.5562997526459
 20
288.1640781365406
 30
0.0
  0
VERTEX
  5
360
  8
LAYER_1
 10
416.1616702644159
 20
290.3360574274692
 30
0.0
  0
SEQEND
  5
361
  8
LAYER_1
  0
POLYLINE
  5
67
  8
LAYER_1
 66
     1
 10
0.0
 20
0.0
 30
0.0
 70
     1
  0
VERTEX
  5
362
  8
LAYER_1
 10
459.9827129050452
 20
322.9904861931441
 30
0.0
  0
VERTEX
  5
363
  8
LAYER_1
 10
464.8347498990545
 20
326.9297993491301
 30
0.0
  0
VERTEX
  5
364
  8
LAYER_1
 10
469.6738932162714
 20
330.8825655042301
 30
0.0
  0
VERTEX
  5
365
  8
LAYER_1
 10
465.6187553228484
 20
344.3657726579916
 30
0.0
  0
VERTEX
  5
366
  8
LAYER_1
 10
470.7302453667666
 20
340.6483468948945
 30
0.0
  0
VERTEX
  5
367
  8
LAYER_1
 10
475.8354128123696
 20
336.923546174349
 30
0.0
  0
VERTEX
  5
368
  8
LAYER_1
 10
489.1902871932173
 20
337.9853880992864
 30
0.0
  0
VERTEX
  5
369
  8
LAYER_1
 10
484.8924357663569
 20
329.9134194844357
 30
0.0
  0
VERTEX
  5
36A
  8
LAYER_1
 10
480.5702954737262
 20
321.8524780766547
 30
0.0
  0
SEQEND
  5
36B
  8
LAYER_1
  0
POLYLINE
  5
68
  8
LAYER_1
 66
     1
 10
0.0
 20
0.0
 30
0.0
 70
     1
  0
VERTEX
  5
36C
  8
LAYER_1
 10
495.9204472115443
 20
362.473517285875
 30
0.0
  0
VERTEX
  5
36D
  8
LAYER_1
 10
495.1691202172531
 20
355.1998206432725
 30
0.0
  0
VERTEX
  5
36E
  8
LAYER_1
 10
485.9204822273772
 20
352.1478780899919
 30
0.0
  0
VERTEX
  5
36F
  8
LAYER_1
 10
476.6615042092001
 20
349.1226919200262
 30
0.0
  0
VERTEX
  5
370
  8
LAYER_1
 10
469.417104714431
 20
355.8130347415279
 30
0.0
  0
VERTEX
  5
371
  8
LAYER_1
 10
462.1577721693687
 20
362.4896098300007
 30
0.0
  0
SEQEND
  5
372
  8
LAYER_1
  0
POLYLINE
  5
69
  8
LAYER_1
 66
     1
 10
0.0
 20
0.0
 30
0.0
 70
     1
  0
VERTEX
  5
373
  8
LAYER_1
 10
462.1577721693687
 20
222.5103901699993
 30
0.0
  0
VERTEX
  5
374
  8
LAYER_1
 10
469.417104714431
 20
229.1869652584721
 30
0.0
  0
VERTEX
  5
375
  8
LAYER_1
 10
476.6615042092
 20
235.8773080799738
 30
0.0
  0
VERTEX
  5
376
  8
LAYER_1
 10
485.920482227377
 20
232.8521219100082
 30
0.0
  0
VERTEX
  5
377
  8
LAYER_1
 10
495.1691202172531
 20
229.8001793567275
 30
0.0
  0
VERTEX
  5
378
  8
LAYER_1
 10
495.9204472115443
 20
222.526482714125
 30
0.0
  0
SEQEND
  5
379
  8
LAYER_1
  0
POLYLINE
  5
6A
  8
LAYER_1
 66
     1
 10
0.0
 20
0.0
 30
0.0
 70
     1
  0
VERTEX
  5
37A
  8
LAYER_1
 10
505.7951476335129
 20
362.4674150049916
 30
0.0
  0
VERTEX
  5
37B
  8
LAYER_1
 10
507.7993629353649
 20
362.4660992623901
 30
0.0
  0
VERTEX
  5
37C
  8
LAYER_1
 10
508.9752403030045
 20
360.1893930668273
 30
0.0
  0
VERTEX
  5
37D
  8
LAYER_1
 10
505.6586240403687
 20
358.8954206979981
 30
0.0
  0
SEQEND
  5
37E
  8
LAYER_1
  0
POLYLINE
  5
6B
  8
LAYER_1
 66
     1
 10
0.0
 20
0.0
 30
0.0
 70
     1
  0
VERTEX
  5
37F
  8
LAYER_1
 10
508.9752403030046
 20
224.8106069331727
 30
0.0
  0
VERTEX
  5
380
  8
LAYER_1
 10
507.7993629353649
 20
222.5339007376099
 30
0.0
  0
VERTEX
  5
381
  8
LAYER_1
 10
505.7951476335129
 20
222.5325849950086
 30
0.0
  0
VERTEX
  5
382
  8
LAYER_1
 10
505.6586240403687
 20
226.1045793020019
 30
0.0
  0
SEQEND
  5
383
  8
LAYER_1
  0
POLYLINE
  5
6C
  8
LAYER_1
 66
     1
 10
0.0
 20
0.0
 30
0.0
 70
     1
  0
VERTEX
  5
384
  8
LAYER_1
 10
476.0739866465285
 20
292.5
 30
0.0
  0
VERTEX
  5
385
  8
LAYER_1
 10
478.6607984271745
 20
297.0611907292339
 30
0.0
  0
VERTEX
  5
386
  8
LAYER_1
 10
481.2392302523165
 20
301.624043799429
 30
0.0
  0
VERTEX
  5
387
  8
LAYER_1
 10
483.8093085789045
 20
306.1893151255812
 30
0.0
  0
VERTEX
  5
388
  8
LAYER_1
 10
486.3710598638884
 20
310.7577606226866
 30
0.0
  0
VERTEX
  5
389
  8
LAYER_1
 10
498.1590495731497
 20
310.5330673336214
 30
0.0
  0
VERTEX
  5
38A
  8
LAYER_1
 10
502.8063161290344
 20
306.0477613306409
 30
0.0
  0
VERTEX
  5
38B
  8
LAYER_1
 10
507.4477440054271
 20
301.5511941830464
 30
0.0
  0
VERTEX
  5
38C
  8
LAYER_1
 10
512.0833703409025
 20
297.0372967773341
 30
0.0
  0
VERTEX
  5
38D
  8
LAYER_1
 10
516.7132322740356
 20
292.5
 30
0.0
  0
VERTEX
  5
38E
  8
LAYER_1
 10
512.0833703409025
 20
287.9627032226659
 30
0.0
  0
VERTEX
  5
38F
  8
LAYER_1
 10
507.447744005427
 20
283.4488058169536
 30
0.0
  0
VERTEX
  5
390
  8
LAYER_1
 10
502.8063161290344
 20
278.9522386693592
 30
0.0
  0
VERTEX
  5
391
  8
LAYER_1
 10
498.1590495731497
 20
274.4669326663789
 30
0.0
  0
VERTEX
  5
392
  8
LAYER_1
 10
486.3710598638884
 20
274.2422393773136
 30
0.0
  0
VERTEX
  5
393
  8
LAYER_1
 10
483.8093085789044
 20
278.8106848744188
 30
0.0
  0
VERTEX
  5
394
  8
LAYER_1
 10
481.2392302523164
 20
283.3759562005711
 30
0.0
  0
VERTEX
  5
395
  8
LAYER_1
 10
478.6607984271744
 20
287.9388092707661
 30
0.0
  0
SEQEND
  5
396
  8
LAYER_1
  0
POLYLINE
  5
6D
  8
LAYER_1
 66
     1
 10
0.0
 20
0.0
 30
0.0
 70
     1
  0
VERTEX
  5
397
  8
LAYER_1
 10
491.2139370017379
 20
321.586027857054
 30
0.0
  0
VERTEX
  5
398
  8
LAYER_1
 10
493.6810466384143
 20
326.5449389243891
 30
0.0
  0
VERTEX
  5
399
  8
LAYER_1
 10
496.1397765776728
 20
331.5073924813264
 30
0.0
  0
VERTEX
  5
39A
  8
LAYER_1
 10
498.5899561013281
 20
336.4734375730416
 30
0.0
  0
VERTEX
  5
39B
  8
LAYER_1
 10
501.0314144911945
 20
341.4431232447105
 30
0.0
  0
VERTEX
  5
39C
  8
LAYER_1
 10
502.1396919673891
 20
343.7281442968163
 30
0.0
  0
VERTEX
  5
39D
  8
LAYER_1
 10
502.9412357538953
 20
345.4045926378858
 30
0.0
  0
VERTEX
  5
39E
  8
LAYER_1
 10
503.4536989371009
 20
346.461757362167
 30
0.0
  0
VERTEX
  5
39F
  8
LAYER_1
 10
503.6070418919621
 20
346.7547612099645
 30
0.0
  0
VERTEX
  5
3A0
  8
LAYER_1
 10
503.6589566133691
 20
346.8417827526193
 30
0.0
  0
VERTEX
  5
3A1
  8
LAYER_1
 10
503.6947346033935
 20
346.8889275639081
 30
0.0
  0
VERTEX
  5
3A2
  8
LAYER_1
 10
503.7580852882629
 20
346.9418856632016
 30
0.0
  0
VERTEX
  5
3A3
  8
LAYER_1
 10
503.8284684885682
 20
346.9862692481714
 30
0.0
  0
VERTEX
  5
3A4
  8
LAYER_1
 10
503.9838395103665
 20
347.0572302381588
 30
0.0
  0
VERTEX
  5
3A5
  8
LAYER_1
 10
504.1478618185473
 20
347.1176452599066
 30
0.0
  0
VERTEX
  5
3A6
  8
LAYER_1
 10
504.3075495628701
 20
347.1833490394515
 30
0.0
  0
VERTEX
  5
3A7
  8
LAYER_1
 10
510.5863192240679
 20
350.2123187846763
 30
0.0
  0
VERTEX
  5
3A8
  8
LAYER_1
 10
516.8551387917328
 20
353.2588120666639
 30
0.0
  0
VERTEX
  5
3A9
  8
LAYER_1
 10
523.1141165412157
 20
356.322455379775
 30
0.0
  0
VERTEX
  5
3AA
  8
LAYER_1
 10
529.3633607478685
 20
359.4028752183701
 30
0.0
  0
VERTEX
  5
3AB
  8
LAYER_1
 10
529.0093458235876
 20
348.4946901980443
 30
0.0
  0
VERTEX
  5
3AC
  8
LAYER_1
 10
534.721397362483
 20
342.7945678509041
 30
0.0
  0
VERTEX
  5
3AD
  8
LAYER_1
 10
540.4244711153004
 20
337.0868014832141
 30
0.0
  0
VERTEX
  5
3AE
  8
LAYER_1
 10
546.1186578746426
 20
331.37150060205
 30
0.0
  0
VERTEX
  5
3AF
  8
LAYER_1
 10
551.8040484331121
 20
325.6487747144872
 30
0.0
  0
VERTEX
  5
3B0
  8
LAYER_1
 10
547.9699847481313
 20
321.9071128687588
 30
0.0
  0
VERTEX
  5
3B1
  8
LAYER_1
 10
529.5949894306245
 20
321.7034794841379
 30
0.0
  0
VERTEX
  5
3B2
  8
LAYER_1
 10
529.0035719781449
 20
303.2831700801762
 30
0.0
  0
VERTEX
  5
3B3
  8
LAYER_1
 10
524.7295337719372
 20
299.9364985451064
 30
0.0
  0
VERTEX
  5
3B4
  8
LAYER_1
 10
519.1301893732601
 20
305.3219566027253
 30
0.0
  0
VERTEX
  5
3B5
  8
LAYER_1
 10
513.5223783195609
 20
310.699935164112
 30
0.0
  0
VERTEX
  5
3B6
  8
LAYER_1
 10
507.9060321642061
 20
316.0703402089073
 30
0.0
  0
VERTEX
  5
3B7
  8
LAYER_1
 10
502.2810824605626
 20
321.4330777167525
 30
0.0
  0
SEQEND
  5
3B8
  8
LAYER_1
  0
POLYLINE
  5
6E
  8
LAYER_1
 66
     1
 10
0.0
 20
0.0
 30
0.0
 70
     1
  0
VERTEX
  5
3B9
  8
LAYER_1
 10
502.2810824605626
 20
263.5669222832475
 30
0.0
  0
VERTEX
  5
3BA
  8
LAYER_1
 10
507.9060321642061
 20
268.9296597910928
 30
0.0
  0
VERTEX
  5
3BB
  8
LAYER_1
 10
513.5223783195609
 20
274.3000648358881
 30
0.0
  0
VERTEX
  5
3BC
  8
LAYER_1
 10
519.1301893732601
 20
279.6780433972748
 30
0.0
  0
VERTEX
  5
3BD
  8
LAYER_1
 10
524.7295337719372
 20
285.0635014548939
 30
0.0
  0
VERTEX
  5
3BE
  8
LAYER_1
 10
529.0035719781449
 20
281.7168299198238
 30
0.0
  0
VERTEX
  5
3BF
  8
LAYER_1
 10
529.5949894306245
 20
263.2965205158623
 30
0.0
  0
VERTEX
  5
3C0
  8
LAYER_1
 10
547.9699847481313
 20
263.0928871312412
 30
0.0
  0
VERTEX
  5
3C1
  8
LAYER_1
 10
551.8040484331121
 20
259.3512252855128
 30
0.0
  0
VERTEX
  5
3C2
  8
LAYER_1
 10
546.1186578746426
 20
253.6284993979502
 30
0.0
  0
VERTEX
  5
3C3
  8
LAYER_1
 10
540.4244711153004
 20
247.9131985167861
 30
0.0
  0
VERTEX
  5
3C4
  8
LAYER_1
 10
534.721397362483
 20
242.2054321490961
 30
0.0
  0
VERTEX
  5
3C5
  8
LAYER_1
 10
529.0093458235879
 20
236.5053098019557
 30
0.0
  0
VERTEX
  5
3C6
  8
LAYER_1
 10
529.3633607478687
 20
225.5971247816301
 30
0.0
  0
VERTEX
  5
3C7
  8
LAYER_1
 10
523.1141165412158
 20
228.6775446202251
 30
0.0
  0
VERTEX
  5
3C8
  8
LAYER_1
 10
516.8551387917328
 20
231.7411879333362
 30
0.0
  0
VERTEX
  5
3C9
  8
LAYER_1
 10
510.5863192240679
 20
234.7876812153239
 30
0.0
  0
VERTEX
  5
3CA
  8
LAYER_1
 10
504.3075495628703
 20
237.8166509605487
 30
0.0
  0
VERTEX
  5
3CB
  8
LAYER_1
 10
504.1478618185474
 20
237.8823547400935
 30
0.0
  0
VERTEX
  5
3CC
  8
LAYER_1
 10
503.9838395103664
 20
237.9427697618413
 30
0.0
  0
VERTEX
  5
3CD
  8
LAYER_1
 10
503.8284684885682
 20
238.0137307518285
 30
0.0
  0
VERTEX
  5
3CE
  8
LAYER_1
 10
503.7580852882629
 20
238.0581143367984
 30
0.0
  0
VERTEX
  5
3CF
  8
LAYER_1
 10
503.6947346033937
 20
238.1110724360919
 30
0.0
  0
VERTEX
  5
3D0
  8
LAYER_1
 10
503.6589566133692
 20
238.1582172473808
 30
0.0
  0
VERTEX
  5
3D1
  8
LAYER_1
 10
503.6070418919622
 20
238.2452387900354
 30
0.0
  0
VERTEX
  5
3D2
  8
LAYER_1
 10
503.453698937101
 20
238.538242637833
 30
0.0
  0
VERTEX
  5
3D3
  8
LAYER_1
 10
502.9412357538953
 20
239.5954073621142
 30
0.0
  0
VERTEX
  5
3D4
  8
LAYER_1
 10
502.1396919673892
 20
241.2718557031837
 30
0.0
  0
VERTEX
  5
3D5
  8
LAYER_1
 10
501.0314144911948
 20
243.5568767552895
 30
0.0
  0
VERTEX
  5
3D6
  8
LAYER_1
 10
498.5899561013283
 20
248.5265624269584
 30
0.0
  0
VERTEX
  5
3D7
  8
LAYER_1
 10
496.139776577673
 20
253.4926075186736
 30
0.0
  0
VERTEX
  5
3D8
  8
LAYER_1
 10
493.6810466384144
 20
258.455061075611
 30
0.0
  0
VERTEX
  5
3D9
  8
LAYER_1
 10
491.2139370017379
 20
263.4139721429462
 30
0.0
  0
SEQEND
  5
3DA
  8
LAYER_1
  0
POLYLINE
  5
6F
  8
LAYER_1
 66
     1
 10
0.0
 20
0.0
 30
0.0
 70
     1
  0
VERTEX
  5
3DB
  8
LAYER_1
 10
377.510905483661
 20
350.100197336197
 30
0.0
  0
VERTEX
  5
3DC
  8
LAYER_1
 10
377.5013329507481
 20
350.1624179205947
 30
0.0
  0
VERTEX
  5
3DD
  8
LAYER_1
 10
377.4733957745698
 20
350.2677290102267
 30
0.0
  0
VERTEX
  5
3DE
  8
LAYER_1
 10
377.3637223591131
 20
350.6078219843486
 30
0.0
  0
VERTEX
  5
3DF
  8
LAYER_1
 10
376.9382433426673
 20
351.8072860661122
 30
0.0
  0
VERTEX
  5
3E0
  8
LAYER_1
 10
376.2551863014523
 20
353.701778047974
 30
0.0
  0
VERTEX
  5
3E1
  8
LAYER_1
 10
375.3352691025969
 20
356.2944863964203
 30
0.0
  0
VERTEX
  5
3E2
  8
LAYER_1
 10
373.1648977401504
 20
362.5
 30
0.0
  0
VERTEX
  5
3E3
  8
LAYER_1
 10
331.9658994221227
 20
362.493902656237
 30
0.0
  0
VERTEX
  5
3E4
  8
LAYER_1
 10
327.7082340411727
 20
348.7167015256139
 30
0.0
  0
VERTEX
  5
3E5
  8
LAYER_1
 10
323.4408514405793
 20
334.942055096443
 30
0.0
  0
VERTEX
  5
3E6
  8
LAYER_1
 10
327.1432592907254
 20
331.6033045390343
 30
0.0
  0
VERTEX
  5
3E7
  8
LAYER_1
 10
330.8544459485275
 20
328.2728255339174
 30
0.0
  0
VERTEX
  5
3E8
  8
LAYER_1
 10
334.5743999649487
 20
324.9506678939599
 30
0.0
  0
VERTEX
  5
3E9
  8
LAYER_1
 10
338.303109890952
 20
321.6368814320292
 30
0.0
  0
VERTEX
  5
3EA
  8
LAYER_1
 10
368.0503579605835
 20
322.0570982682266
 30
0.0
  0
VERTEX
  5
3EB
  8
LAYER_1
 10
372.6852794149435
 20
335.7806777450489
 30
0.0
  0
VERTEX
  5
3EC
  8
LAYER_1
 10
377.3111668526354
 20
349.5068467941344
 30
0.0
  0
VERTEX
  5
3ED
  8
LAYER_1
 10
377.3706669764462
 20
349.6538766010776
 30
0.0
  0
VERTEX
  5
3EE
  8
LAYER_1
 10
377.4365428556728
 20
349.8000348718211
 30
0.0
  0
VERTEX
  5
3EF
  8
LAYER_1
 10
377.4896653911371
 20
349.9479367392369
 30
0.0
  0
VERTEX
  5
3F0
  8
LAYER_1
 10
377.5054663114652
 20
350.0233587507194
 30
0.0
  0
SEQEND
  5
3F1
  8
LAYER_1
  0
POLYLINE
  5
70
  8
LAYER_1
 66
     1
 10
0.0
 20
0.0
 30
0.0
 70
     1
  0
VERTEX
  5
3F2
  8
LAYER_1
 10
377.5109054836611
 20
234.8998026638033
 30
0.0
  0
VERTEX
  5
3F3
  8
LAYER_1
 10
377.5054663114654
 20
234.9766412492809
 30
0.0
  0
VERTEX
  5
3F4
  8
LAYER_1
 10
377.4896653911372
 20
235.0520632607634
 30
0.0
  0
VERTEX
  5
3F5
  8
LAYER_1
 10
377.4365428556729
 20
235.1999651281791
 30
0.0
  0
VERTEX
  5
3F6
  8
LAYER_1
 10
377.3706669764462
 20
235.3461233989225
 30
0.0
  0
VERTEX
  5
3F7
  8
LAYER_1
 10
377.3111668526354
 20
235.4931532058658
 30
0.0
  0
VERTEX
  5
3F8
  8
LAYER_1
 10
372.6852794149435
 20
249.2193222549512
 30
0.0
  0
VERTEX
  5
3F9
  8
LAYER_1
 10
368.0503579605835
 20
262.9429017317734
 30
0.0
  0
VERTEX
  5
3FA
  8
LAYER_1
 10
338.3031098909523
 20
263.3631185679712
 30
0.0
  0
VERTEX
  5
3FB
  8
LAYER_1
 10
334.5743999649488
 20
260.0493321060402
 30
0.0
  0
VERTEX
  5
3FC
  8
LAYER_1
 10
330.8544459485275
 20
256.7271744660827
 30
0.0
  0
VERTEX
  5
3FD
  8
LAYER_1
 10
327.1432592907254
 20
253.3966954609659
 30
0.0
  0
VERTEX
  5
3FE
  8
LAYER_1
 10
323.4408514405793
 20
250.0579449035572
 30
0.0
  0
VERTEX
  5
3FF
  8
LAYER_1
 10
327.7082340411727
 20
236.283298474386
 30
0.0
  0
VERTEX
  5
400
  8
LAYER_1
 10
331.9658994221227
 20
222.506097343763
 30
0.0
  0
VERTEX
  5
401
  8
LAYER_1
 10
373.1648977401504
 20
222.5
 30
0.0
  0
VERTEX
  5
402
  8
LAYER_1
 10
375.3352691025969
 20
228.7055136035797
 30
0.0
  0
VERTEX
  5
403
  8
LAYER_1
 10
376.2551863014523
 20
231.298221952026
 30
0.0
  0
VERTEX
  5
404
  8
LAYER_1
 10
376.9382433426674
 20
233.1927139338879
 30
0.0
  0
VERTEX
  5
405
  8
LAYER_1
 10
377.3637223591134
 20
234.3921780156516
 30
0.0
  0
VERTEX
  5
406
  8
LAYER_1
 10
377.4733957745701
 20
234.7322709897736
 30
0.0
  0
VERTEX
  5
407
  8
LAYER_1
 10
377.5013329507482
 20
234.8375820794055
 30
0.0
  0
SEQEND
  5
408
  8
LAYER_1
  0
POLYLINE
  5
71
  8
LAYER_1
 66
     1
 10
0.0
 20
0.0
 30
0.0
 70
     1
  0
VERTEX
  5
409
  8
LAYER_1
 10
300.3175705614471
 20
263.1475219233455
 30
0.0
  0
VERTEX
  5
40A
  8
LAYER_1
 10
295.9954302688162
 20
255.0865805155643
 30
0.0
  0
VERTEX
  5
40B
  8
LAYER_1
 10
291.6975788419558
 20
247.0146119007138
 30
0.0
  0
VERTEX
  5
40C
  8
LAYER_1
 10
305.0524532228036
 20
248.076453825651
 30
0.0
  0
VERTEX
  5
40D
  8
LAYER_1
 10
310.1576206684065
 20
244.3516531051055
 30
0.0
  0
VERTEX
  5
40E
  8
LAYER_1
 10
315.2691107123247
 20
240.6342273420084
 30
0.0
  0
VERTEX
  5
40F
  8
LAYER_1
 10
311.2139728189015
 20
254.1174344957699
 30
0.0
  0
VERTEX
  5
410
  8
LAYER_1
 10
316.0531161361187
 20
258.07020065087
 30
0.0
  0
VERTEX
  5
411
  8
LAYER_1
 10
320.9051531301279
 20
262.0095138068559
 30
0.0
  0
SEQEND
  5
412
  8
LAYER_1
  0
POLYLINE
  5
72
  8
LAYER_1
 66
     1
 10
0.0
 20
0.0
 30
0.0
 70
     1
  0
VERTEX
  5
413
  8
LAYER_1
 10
369.1260232241124
 20
292.5
 30
0.0
  0
VERTEX
  5
414
  8
LAYER_1
 10
364.7261957707572
 20
294.6639425725309
 30
0.0
  0
VERTEX
  5
415
  8
LAYER_1
 10
360.3315662825271
 20
296.8359218634595
 30
0.0
  0
VERTEX
  5
416
  8
LAYER_1
 10
355.9422003592744
 20
299.0161196572597
 30
0.0
  0
VERTEX
  5
417
  8
LAYER_1
 10
351.5581636008511
 20
301.2047177384054
 30
0.0
  0
VERTEX
  5
418
  8
LAYER_1
 10
347.1795216071095
 20
303.4018978913705
 30
0.0
  0
VERTEX
  5
419
  8
LAYER_1
 10
342.8063399779018
 20
305.6078419006288
 30
0.0
  0
VERTEX
  5
41A
  8
LAYER_1
 10
338.43868431308
 20
307.8227315506542
 30
0.0
  0
VERTEX
  5
41B
  8
LAYER_1
 10
334.0766202124965
 20
310.0467486259206
 30
0.0
  0
VERTEX
  5
41C
  8
LAYER_1
 10
333.9266945456483
 20
310.1324357249903
 30
0.0
  0
VERTEX
  5
41D
  8
LAYER_1
 10
333.7788842273437
 20
310.2230766959769
 30
0.0
  0
VERTEX
  5
41E
  8
LAYER_1
 10
333.6268633599257
 20
310.3038434024238
 30
0.0
  0
VERTEX
  5
41F
  8
LAYER_1
 10
333.5472971272811
 20
310.3358901138021
 30
0.0
  0
VERTEX
  5
420
  8
LAYER_1
 10
333.4643060457368
 20
310.3599077078741
 30
0.0
  0
VERTEX
  5
421
  8
LAYER_1
 10
333.3862583096807
 20
310.3691133600125
 30
0.0
  0
VERTEX
  5
422
  8
LAYER_1
 10
333.2507475247977
 20
310.3744239712759
 30
0.0
  0
VERTEX
  5
423
  8
LAYER_1
 10
332.8074752100077
 20
310.3745080414204
 30
0.0
  0
VERTEX
  5
424
  8
LAYER_1
 10
331.2328964105271
 20
310.3405633638831
 30
0.0
  0
VERTEX
  5
425
  8
LAYER_1
 10
328.7427840705982
 20
310.2764411991521
 30
0.0
  0
VERTEX
  5
426
  8
LAYER_1
 10
325.3393526135241
 20
310.2005090711173
 30
0.0
  0
VERTEX
  5
427
  8
LAYER_1
 10
305.0269613336394
 20
309.8020118620848
 30
0.0
  0
VERTEX
  5
428
  8
LAYER_1
 10
307.8721861074538
 20
305.4690552423989
 30
0.0
  0
VERTEX
  5
429
  8
LAYER_1
 10
310.7264355708011
 20
301.141073113197
 30
0.0
  0
VERTEX
  5
42A
  8
LAYER_1
 10
313.5897443135602
 20
296.8180573929178
 30
0.0
  0
VERTEX
  5
42B
  8
LAYER_1
 10
316.4621469256103
 20
292.5
 30
0.0
  0
VERTEX
  5
42C
  8
LAYER_1
 10
313.5897443135602
 20
288.1819426070822
 30
0.0
  0
VERTEX
  5
42D
  8
LAYER_1
 10
310.7264355708011
 20
283.858926886803
 30
0.0
  0
VERTEX
  5
42E
  8
LAYER_1
 10
307.8721861074538
 20
279.5309447576012
 30
0.0
  0
VERTEX
  5
42F
  8
LAYER_1
 10
305.0269613336394
 20
275.1979881379154
 30
0.0
  0
VERTEX
  5
430
  8
LAYER_1
 10
325.3393526135238
 20
274.7994909288832
 30
0.0
  0
VERTEX
  5
431
  8
LAYER_1
 10
328.742784070598
 20
274.7235588008482
 30
0.0
  0
VERTEX
  5
432
  8
LAYER_1
 10
331.2328964105271
 20
274.6594366361171
 30
0.0
  0
VERTEX
  5
433
  8
LAYER_1
 10
332.8074752100077
 20
274.6254919585797
 30
0.0
  0
VERTEX
  5
434
  8
LAYER_1
 10
333.2507475247977
 20
274.6255760287244
 30
0.0
  0
VERTEX
  5
435
  8
LAYER_1
 10
333.3862583096807
 20
274.6308866399877
 30
0.0
  0
VERTEX
  5
436
  8
LAYER_1
 10
333.4643060457368
 20
274.6400922921262
 30
0.0
  0
VERTEX
  5
437
  8
LAYER_1
 10
333.5472971272811
 20
274.664109886198
 30
0.0
  0
VERTEX
  5
438
  8
LAYER_1
 10
333.6268633599257
 20
274.6961565975763
 30
0.0
  0
VERTEX
  5
439
  8
LAYER_1
 10
333.7788842273437
 20
274.7769233040231
 30
0.0
  0
VERTEX
  5
43A
  8
LAYER_1
 10
333.9266945456483
 20
274.8675642750097
 30
0.0
  0
VERTEX
  5
43B
  8
LAYER_1
 10
334.0766202124965
 20
274.9532513740794
 30
0.0
  0
VERTEX
  5
43C
  8
LAYER_1
 10
338.43868431308
 20
277.1772684493458
 30
0.0
  0
VERTEX
  5
43D
  8
LAYER_1
 10
342.8063399779018
 20
279.3921580993713
 30
0.0
  0
VERTEX
  5
43E
  8
LAYER_1
 10
347.1795216071095
 20
281.5981021086296
 30
0.0
  0
VERTEX
  5
43F
  8
LAYER_1
 10
351.5581636008512
 20
283.7952822615947
 30
0.0
  0
VERTEX
  5
440
  8
LAYER_1
 10
355.9422003592745
 20
285.9838803427405
 30
0.0
  0
VERTEX
  5
441
  8
LAYER_1
 10
360.3315662825272
 20
288.1640781365406
 30
0.0
  0
VERTEX
  5
442
  8
LAYER_1
 10
364.7261957707573
 20
290.3360574274692
 30
0.0
  0
SEQEND
  5
443
  8
LAYER_1
  0
POLYLINE
  5
73
  8
LAYER_1
 66
     1
 10
0.0
 20
0.0
 30
0.0
 70
     1
  0
VERTEX
  5
444
  8
LAYER_1
 10
320.9051531301279
 20
322.9904861931441
 30
0.0
  0
VERTEX
  5
445
  8
LAYER_1
 10
316.0531161361186
 20
326.9297993491301
 30
0.0
  0
VERTEX
  5
446
  8
LAYER_1
 10
311.2139728189018
 20
330.8825655042301
 30
0.0
  0
VERTEX
  5
447
  8
LAYER_1
 10
315.2691107123247
 20
344.3657726579916
 30
0.0
  0
VERTEX
  5
448
  8
LAYER_1
 10
310.1576206684065
 20
340.6483468948945
 30
0.0
  0
VERTEX
  5
449
  8
LAYER_1
 10
305.0524532228036
 20
336.923546174349
 30
0.0
  0
VERTEX
  5
44A
  8
LAYER_1
 10
291.6975788419558
 20
337.9853880992864
 30
0.0
  0
VERTEX
  5
44B
  8
LAYER_1
 10
295.9954302688162
 20
329.9134194844357
 30
0.0
  0
VERTEX
  5
44C
  8
LAYER_1
 10
300.3175705614469
 20
321.8524780766547
 30
0.0
  0
SEQEND
  5
44D
  8
LAYER_1
  0
POLYLINE
  5
74
  8
LAYER_1
 66
     1
 10
0.0
 20
0.0
 30
0.0
 70
     1
  0
VERTEX
  5
44E
  8
LAYER_1
 10
284.9674188236288
 20
362.473517285875
 30
0.0
  0
VERTEX
  5
44F
  8
LAYER_1
 10
285.71874581792
 20
355.1998206432725
 30
0.0
  0
VERTEX
  5
450
  8
LAYER_1
 10
294.967383807796
 20
352.1478780899919
 30
0.0
  0
VERTEX
  5
451
  8
LAYER_1
 10
304.226361825973
 20
349.1226919200262
 30
0.0
  0
VERTEX
  5
452
  8
LAYER_1
 10
311.4707613207421
 20
355.8130347415279
 30
0.0
  0
VERTEX
  5
453
  8
LAYER_1
 10
318.7300938658043
 20
362.4896098300007
 30
0.0
  0
SEQEND
  5
454
  8
LAYER_1
  0
POLYLINE
  5
75
  8
LAYER_1
 66
     1
 10
0.0
 20
0.0
 30
0.0
 70
     1
  0
VERTEX
  5
455
  8
LAYER_1
 10
318.7300938658043
 20
222.5103901699993
 30
0.0
  0
VERTEX
  5
456
  8
LAYER_1
 10
311.4707613207421
 20
229.1869652584721
 30
0.0
  0
VERTEX
  5
457
  8
LAYER_1
 10
304.2263618259731
 20
235.8773080799738
 30
0.0
  0
VERTEX
  5
458
  8
LAYER_1
 10
294.9673838077961
 20
232.8521219100082
 30
0.0
  0
VERTEX
  5
459
  8
LAYER_1
 10
285.71874581792
 20
229.8001793567275
 30
0.0
  0
VERTEX
  5
45A
  8
LAYER_1
 10
284.9674188236288
 20
222.526482714125
 30
0.0
  0
SEQEND
  5
45B
  8
LAYER_1
  0
POLYLINE
  5
76
  8
LAYER_1
 66
     1
 10
0.0
 20
0.0
 30
0.0
 70
     1
  0
VERTEX
  5
45C
  8
LAYER_1
 10
275.0927184016602
 20
362.4674150049916
 30
0.0
  0
VERTEX
  5
45D
  8
LAYER_1
 10
273.0885030998082
 20
362.4660992623901
 30
0.0
  0
VERTEX
  5
45E
  8
LAYER_1
 10
271.9126257321687
 20
360.1893930668273
 30
0.0
  0
VERTEX
  5
45F
  8
LAYER_1
 10
275.2292419948044
 20
358.8954206979981
 30
0.0
  0
SEQEND
  5
460
  8
LAYER_1
  0
POLYLINE
  5
77
  8
LAYER_1
 66
     1
 10
0.0
 20
0.0
 30
0.0
 70
     1
  0
VERTEX
  5
461
  8
LAYER_1
 10
271.9126257321685
 20
224.8106069331727
 30
0.0
  0
VERTEX
  5
462
  8
LAYER_1
 10
273.0885030998082
 20
222.5339007376099
 30
0.0
  0
VERTEX
  5
463
  8
LAYER_1
 10
275.0927184016602
 20
222.5325849950086
 30
0.0
  0
VERTEX
  5
464
  8
LAYER_1
 10
275.2292419948044
 20
226.1045793020019
 30
0.0
  0
SEQEND
  5
465
  8
LAYER_1
  0
POLYLINE
  5
78
  8
LAYER_1
 66
     1
 10
0.0
 20
0.0
 30
0.0
 70
     1
  0
VERTEX
  5
466
  8
LAYER_1
 10
304.8138793886446
 20
292.5
 30
0.0
  0
VERTEX
  5
467
  8
LAYER_1
 10
302.2270676079986
 20
297.0611907292339
 30
0.0
  0
VERTEX
  5
468
  8
LAYER_1
 10
299.6486357828566
 20
301.624043799429
 30
0.0
  0
VERTEX
  5
469
  8
LAYER_1
 10
297.0785574562685
 20
306.1893151255812
 30
0.0
  0
VERTEX
  5
46A
  8
LAYER_1
 10
294.5168061712847
 20
310.7577606226866
 30
0.0
  0
VERTEX
  5
46B
  8
LAYER_1
 10
282.7288164620234
 20
310.5330673336214
 30
0.0
  0
VERTEX
  5
46C
  8
LAYER_1
 10
278.0815499061386
 20
306.0477613306409
 30
0.0
  0
VERTEX
  5
46D
  8
LAYER_1
 10
273.440122029746
 20
301.5511941830464
 30
0.0
  0
VERTEX
  5
46E
  8
LAYER_1
 10
268.8044956942705
 20
297.0372967773341
 30
0.0
  0
VERTEX
  5
46F
  8
LAYER_1
 10
264.1746337611374
 20
292.5
 30
0.0
  0
VERTEX
  5
470
  8
LAYER_1
 10
268.8044956942707
 20
287.9627032226659
 30
0.0
  0
VERTEX
  5
471
  8
LAYER_1
 10
273.4401220297461
 20
283.4488058169536
 30
0.0
  0
VERTEX
  5
472
  8
LAYER_1
 10
278.0815499061387
 20
278.9522386693592
 30
0.0
  0
VERTEX
  5
473
  8
LAYER_1
 10
282.7288164620234
 20
274.4669326663789
 30
0.0
  0
VERTEX
  5
474
  8
LAYER_1
 10
294.5168061712847
 20
274.2422393773136
 30
0.0
  0
VERTEX
  5
475
  8
LAYER_1
 10
297.0785574562686
 20
278.8106848744188
 30
0.0
  0
VERTEX
  5
476
  8
LAYER_1
 10
299.6486357828566
 20
283.3759562005711
 30
0.0
  0
VERTEX
  5
477
  8
LAYER_1
 10
302.2270676079987
 20
287.9388092707661
 30
0.0
  0
SEQEND
  5
478
  8
LAYER_1
  0
POLYLINE
  5
79
  8
LAYER_1
 66
     1
 10
0.0
 20
0.0
 30
0.0
 70
     1
  0
VERTEX
  5
479
  8
LAYER_1
 10
289.6739290334352
 20
321.586027857054
 30
0.0
  0
VERTEX
  5
47A
  8
LAYER_1
 10
287.2068193967589
 20
326.5449389243891
 30
0.0
  0
VERTEX
  5
47B
  8
LAYER_1
 10
284.7480894575003
 20
331.5073924813264
 30
0.0
  0
VERTEX
  5
47C
  8
LAYER_1
 10
282.297909933845
 20
336.4734375730416
 30
0.0
  0
VERTEX
  5
47D
  8
LAYER_1
 10
279.8564515439786
 20
341.4431232447105
 30
0.0
  0
VERTEX
  5
47E
  8
LAYER_1
 10
278.748174067784
 20
343.7281442968163
 30
0.0
  0
VERTEX
  5
47F
  8
LAYER_1
 10
277.9466302812778
 20
345.4045926378858
 30
0.0
  0
VERTEX
  5
480
  8
LAYER_1
 10
277.4341670980722
 20
346.461757362167
 30
0.0
  0
VERTEX
  5
481
  8
LAYER_1
 10
277.280824143211
 20
346.7547612099645
 30
0.0
  0
VERTEX
  5
482
  8
LAYER_1
 10
277.228909421804
 20
346.8417827526193
 30
0.0
  0
VERTEX
  5
483
  8
LAYER_1
 10
277.1931314317796
 20
346.8889275639081
 30
0.0
  0
VERTEX
  5
484
  8
LAYER_1
 10
277.1297807469102
 20
346.9418856632016
 30
0.0
  0
VERTEX
  5
485
  8
LAYER_1
 10
277.0593975466049
 20
346.9862692481714
 30
0.0
  0
VERTEX
  5
486
  8
LAYER_1
 10
276.9040265248067
 20
347.0572302381588
 30
0.0
  0
VERTEX
  5
487
  8
LAYER_1
 10
276.7400042166258
 20
347.1176452599066
 30
0.0
  0
VERTEX
  5
488
  8
LAYER_1
 10
276.580316472303
 20
347.1833490394515
 30
0.0
  0
VERTEX
  5
489
  8
LAYER_1
 10
270.3015468111052
 20
350.2123187846763
 30
0.0
  0
VERTEX
  5
48A
  8
LAYER_1
 10
264.0327272434404
 20
353.2588120666639
 30
0.0
  0
VERTEX
  5
48B
  8
LAYER_1
 10
257.7737494939573
 20
356.322455379775
 30
0.0
  0
VERTEX
  5
48C
  8
LAYER_1
 10
251.5245052873047
 20
359.4028752183701
 30
0.0
  0
VERTEX
  5
48D
  8
LAYER_1
 10
251.8785202115854
 20
348.4946901980443
 30
0.0
  0
VERTEX
  5
48E
  8
LAYER_1
 10
246.1664686726901
 20
342.7945678509041
 30
0.0
  0
VERTEX
  5
48F
  8
LAYER_1
 10
240.4633949198727
 20
337.0868014832141
 30
0.0
  0
VERTEX
  5
490
  8
LAYER_1
 10
234.7692081605305
 20
331.37150060205
 30
0.0
  0
VERTEX
  5
491
  8
LAYER_1
 10
229.0838176020609
 20
325.6487747144872
 30
0.0
  0
VERTEX
  5
492
  8
LAYER_1
 10
232.9178812870418
 20
321.9071128687588
 30
0.0
  0
VERTEX
  5
493
  8
LAYER_1
 10
251.2928766045486
 20
321.7034794841379
 30
0.0
  0
VERTEX
  5
494
  8
LAYER_1
 10
251.8842940570281
 20
303.2831700801762
 30
0.0
  0
VERTEX
  5
495
  8
LAYER_1
 10
256.1583322632358
 20
299.9364985451064
 30
0.0
  0
VERTEX
  5
496
  8
LAYER_1
 10
261.7576766619129
 20
305.3219566027253
 30
0.0
  0
VERTEX
  5
497
  8
LAYER_1
 10
267.3654877156122
 20
310.699935164112
 30
0.0
  0
VERTEX
  5
498
  8
LAYER_1
 10
272.981833870967
 20
316.0703402089073
 30
0.0
  0
VERTEX
  5
499
  8
LAYER_1
 10
278.6067835746106
 20
321.4330777167525
 30
0.0
  0
SEQEND
  5
49A
  8
LAYER_1
  0
POLYLINE
  5
7A
  8
LAYER_1
 66
     1
 10
0.0
 20
0.0
 30
0.0
 70
     1
  0
VERTEX
  5
49B
  8
LAYER_1
 10
278.6067835746106
 20
263.5669222832475
 30
0.0
  0
VERTEX
  5
49C
  8
LAYER_1
 10
272.981833870967
 20
268.9296597910928
 30
0.0
  0
VERTEX
  5
49D
  8
LAYER_1
 10
267.3654877156122
 20
274.3000648358881
 30
0.0
  0
VERTEX
  5
49E
  8
LAYER_1
 10
261.7576766619129
 20
279.6780433972748
 30
0.0
  0
VERTEX
  5
49F
  8
LAYER_1
 10
256.1583322632358
 20
285.0635014548939
 30
0.0
  0
VERTEX
  5
4A0
  8
LAYER_1
 10
251.8842940570281
 20
281.7168299198238
 30
0.0
  0
VERTEX
  5
4A1
  8
LAYER_1
 10
251.2928766045486
 20
263.2965205158623
 30
0.0
  0
VERTEX
  5
4A2
  8
LAYER_1
 10
232.9178812870418
 20
263.0928871312412
 30
0.0
  0
VERTEX
  5
4A3
  8
LAYER_1
 10
229.0838176020609
 20
259.3512252855128
 30
0.0
  0
VERTEX
  5
4A4
  8
LAYER_1
 10
234.7692081605305
 20
253.6284993979502
 30
0.0
  0
VERTEX
  5
4A5
  8
LAYER_1
 10
240.4633949198727
 20
247.9131985167861
 30
0.0
  0
VERTEX
  5
4A6
  8
LAYER_1
 10
246.1664686726901
 20
242.2054321490961
 30
0.0
  0
VERTEX
  5
4A7
  8
LAYER_1
 10
251.8785202115853
 20
236.5053098019557
 30
0.0
  0
VERTEX
  5
4A8
  8
LAYER_1
 10
251.5245052873045
 20
225.5971247816301
 30
0.0
  0
VERTEX
  5
4A9
  8
LAYER_1
 10
257.7737494939572
 20
228.6775446202251
 30
0.0
  0
VERTEX
  5
4AA
  8
LAYER_1
 10
264.0327272434403
 20
231.7411879333362
 30
0.0
  0
VERTEX
  5
4AB
  8
LAYER_1
 10
270.3015468111051
 20
234.7876812153239
 30
0.0
  0
VERTEX
  5
4AC
  8
LAYER_1
 10
276.5803164723027
 20
237.8166509605487
 30
0.0
  0
VERTEX
  5
4AD
  8
LAYER_1
 10
276.7400042166257
 20
237.8823547400935
 30
0.0
  0
VERTEX
  5
4AE
  8
LAYER_1
 10
276.9040265248067
 20
237.9427697618413
 30
0.0
  0
VERTEX
  5
4AF
  8
LAYER_1
 10
277.0593975466049
 20
238.0137307518285
 30
0.0
  0
VERTEX
  5
4B0
  8
LAYER_1
 10
277.1297807469102
 20
238.0581143367984
 30
0.0
  0
VERTEX
  5
4B1
  8
LAYER_1
 10
277.1931314317794
 20
238.1110724360919
 30
0.0
  0
VERTEX
  5
4B2
  8
LAYER_1
 10
277.2289094218038
 20
238.1582172473808
 30
0.0
  0
VERTEX
  5
4B3
  8
LAYER_1
 10
277.2808241432109
 20
238.2452387900354
 30
0.0
  0
VERTEX
  5
4B4
  8
LAYER_1
 10
277.4341670980722
 20
238.538242637833
 30
0.0
  0
VERTEX
  5
4B5
  8
LAYER_1
 10
277.9466302812777
 20
239.5954073621142
 30
0.0
  0
VERTEX
  5
4B6
  8
LAYER_1
 10
278.7481740677839
 20
241.2718557031837
 30
0.0
  0
VERTEX
  5
4B7
  8
LAYER_1
 10
279.8564515439783
 20
243.5568767552895
 30
0.0
  0
VERTEX
  5
4B8
  8
LAYER_1
 10
282.2979099338447
 20
248.5265624269584
 30
0.0
  0
VERTEX
  5
4B9
  8
LAYER_1
 10
284.7480894575
 20
253.4926075186736
 30
0.0
  0
VERTEX
  5
4BA
  8
LAYER_1
 10
287.2068193967587
 20
258.455061075611
 30
0.0
  0
VERTEX
  5
4BB
  8
LAYER_1
 10
289.6739290334352
 20
263.4139721429462
 30
0.0
  0
SEQEND
  5
4BC
  8
LAYER_1
  0
POLYLINE
  5
7B
  8
LAYER_1
 66
     1
 10
0.0
 20
0.0
 30
0.0
 70
     1
  0
VERTEX
  5
4BD
  8
LAYER_1
 10
239.8910315555134
 20
362.4405249784288
 30
0.0
  0
VERTEX
  5
4BE
  8
LAYER_1
 10
206.874050826816
 20
362.4405249784288
 30
0.0
  0
VERTEX
  5
4BF
  8
LAYER_1
 10
206.5828840494961
 20
352.6340164222981
 30
0.0
  0
VERTEX
  5
4C0
  8
LAYER_1
 10
214.9825447373937
 20
344.6721750340462
 30
0.0
  0
VERTEX
  5
4C1
  8
LAYER_1
 10
223.3825411911648
 20
336.6933646587568
 30
0.0
  0
VERTEX
  5
4C2
  8
LAYER_1
 10
231.7825376449358
 20
344.6721750340462
 30
0.0
  0
VERTEX
  5
4C3
  8
LAYER_1
 10
240.1821983328336
 20
352.6340164222981
 30
0.0
  0
SEQEND
  5
4C4
  8
LAYER_1
  0
POLYLINE
  5
7C
  8
LAYER_1
 66
     1
 10
0.0
 20
0.0
 30
0.0
 70
     1
  0
VERTEX
  5
4C5
  8
LAYER_1
 10
223.3825411911648
 20
248.306635341243
 30
0.0
  0
VERTEX
  5
4C6
  8
LAYER_1
 10
214.9825447373937
 20
240.3278249659539
 30
0.0
  0
VERTEX
  5
4C7
  8
LAYER_1
 10
206.5828840494961
 20
232.3659835777019
 30
0.0
  0
VERTEX
  5
4C8
  8
LAYER_1
 10
206.8740508268162
 20
222.5594750215712
 30
0.0
  0
VERTEX
  5
4C9
  8
LAYER_1
 10
239.8910315555134
 20
222.5594750215714
 30
0.0
  0
VERTEX
  5
4CA
  8
LAYER_1
 10
240.1821983328336
 20
232.3659835777019
 30
0.0
  0
VERTEX
  5
4CB
  8
LAYER_1
 10
231.7825376449358
 20
240.3278249659539
 30
0.0
  0
SEQEND
  5
4CC
  8
LAYER_1
  0
POLYLINE
  5
7D
  8
LAYER_1
 66
     1
 10
0.0
 20
0.0
 30
0.0
 70
     1
  0
VERTEX
  5
4CD
  8
LAYER_1
 10
246.9249839515034
 20
292.5
 30
0.0
  0
VERTEX
  5
4CE
  8
LAYER_1
 10
245.0392735197552
 20
293.5622232255307
 30
0.0
  0
VERTEX
  5
4CF
  8
LAYER_1
 10
243.1545597987063
 20
294.5969870860799
 30
0.0
  0
VERTEX
  5
4D0
  8
LAYER_1
 10
239.3881339023196
 20
296.6228711572473
 30
0.0
  0
VERTEX
  5
4D1
  8
LAYER_1
 10
238.9884798898977
 20
310.3495508634376
 30
0.0
  0
VERTEX
  5
4D2
  8
LAYER_1
 10
229.9754321689813
 20
310.1804915162286
 30
0.0
  0
VERTEX
  5
4D3
  8
LAYER_1
 10
226.6757294265785
 20
313.3222144463133
 30
0.0
  0
VERTEX
  5
4D4
  8
LAYER_1
 10
223.3825411911648
 20
316.4702077091829
 30
0.0
  0
VERTEX
  5
4D5
  8
LAYER_1
 10
220.089352955751
 20
313.3222144463133
 30
0.0
  0
VERTEX
  5
4D6
  8
LAYER_1
 10
216.7896502133483
 20
310.1804915162288
 30
0.0
  0
VERTEX
  5
4D7
  8
LAYER_1
 10
207.7766024924319
 20
310.3495508634376
 30
0.0
  0
VERTEX
  5
4D8
  8
LAYER_1
 10
207.37694848001
 20
296.6228711572471
 30
0.0
  0
VERTEX
  5
4D9
  8
LAYER_1
 10
205.4942367405696
 20
295.613975192901
 30
0.0
  0
VERTEX
  5
4DA
  8
LAYER_1
 10
203.6105225836233
 20
294.5969870860798
 30
0.0
  0
VERTEX
  5
4DB
  8
LAYER_1
 10
201.7258088625744
 20
293.5622232255306
 30
0.0
  0
VERTEX
  5
4DC
  8
LAYER_1
 10
199.8400984308262
 20
292.5
 30
0.0
  0
VERTEX
  5
4DD
  8
LAYER_1
 10
201.7258088625743
 20
291.4377767744694
 30
0.0
  0
VERTEX
  5
4DE
  8
LAYER_1
 10
203.6105225836233
 20
290.4030129139201
 30
0.0
  0
VERTEX
  5
4DF
  8
LAYER_1
 10
207.3769484800098
 20
288.3771288427529
 30
0.0
  0
VERTEX
  5
4E0
  8
LAYER_1
 10
207.7766024924319
 20
274.6504491365624
 30
0.0
  0
VERTEX
  5
4E1
  8
LAYER_1
 10
216.7896502133483
 20
274.8195084837712
 30
0.0
  0
VERTEX
  5
4E2
  8
LAYER_1
 10
220.0893529557511
 20
271.6777855536868
 30
0.0
  0
VERTEX
  5
4E3
  8
LAYER_1
 10
223.3825411911646
 20
268.5297922908173
 30
0.0
  0
VERTEX
  5
4E4
  8
LAYER_1
 10
226.6757294265785
 20
271.6777855536867
 30
0.0
  0
VERTEX
  5
4E5
  8
LAYER_1
 10
229.9754321689811
 20
274.8195084837712
 30
0.0
  0
VERTEX
  5
4E6
  8
LAYER_1
 10
238.9884798898977
 20
274.6504491365624
 30
0.0
  0
VERTEX
  5
4E7
  8
LAYER_1
 10
239.3881339023199
 20
288.3771288427529
 30
0.0
  0
VERTEX
  5
4E8
  8
LAYER_1
 10
241.27084564176
 20
289.3860248070989
 30
0.0
  0
VERTEX
  5
4E9
  8
LAYER_1
 10
243.1545597987063
 20
290.4030129139201
 30
0.0
  0
VERTEX
  5
4EA
  8
LAYER_1
 10
245.0392735197552
 20
291.4377767744694
 30
0.0
  0
SEQEND
  5
4EB
  8
LAYER_1
  0
POLYLINE
  5
7E
  8
LAYER_1
 66
     1
 10
0.0
 20
0.0
 30
0.0
 70
     1
  0
VERTEX
  5
4EC
  8
LAYER_1
 10
213.8472010952879
 20
263.0928871312412
 30
0.0
  0
VERTEX
  5
4ED
  8
LAYER_1
 10
195.4722057777808
 20
263.2965205158623
 30
0.0
  0
VERTEX
  5
4EE
  8
LAYER_1
 10
194.8807883253015
 20
281.7168299198238
 30
0.0
  0
VERTEX
  5
4EF
  8
LAYER_1
 10
190.6067501190936
 20
285.0635014548939
 30
0.0
  0
VERTEX
  5
4F0
  8
LAYER_1
 10
185.0074057204165
 20
279.6780433972748
 30
0.0
  0
VERTEX
  5
4F1
  8
LAYER_1
 10
179.3995946667172
 20
274.3000648358881
 30
0.0
  0
VERTEX
  5
4F2
  8
LAYER_1
 10
173.7832485113625
 20
268.9296597910928
 30
0.0
  0
VERTEX
  5
4F3
  8
LAYER_1
 10
168.1582988077189
 20
263.5669222832475
 30
0.0
  0
VERTEX
  5
4F4
  8
LAYER_1
 10
157.0911533488944
 20
263.4139721429462
 30
0.0
  0
VERTEX
  5
4F5
  8
LAYER_1
 10
159.5582629855708
 20
258.4550610756108
 30
0.0
  0
VERTEX
  5
4F6
  8
LAYER_1
 10
162.0169929248294
 20
253.4926075186735
 30
0.0
  0
VERTEX
  5
4F7
  8
LAYER_1
 10
164.4671724484847
 20
248.5265624269584
 30
0.0
  0
VERTEX
  5
4F8
  8
LAYER_1
 10
166.9086308383512
 20
243.5568767552895
 30
0.0
  0
VERTEX
  5
4F9
  8
LAYER_1
 10
168.0169083145456
 20
241.2718557031837
 30
0.0
  0
VERTEX
  5
4FA
  8
LAYER_1
 10
168.8184521010519
 20
239.5954073621142
 30
0.0
  0
VERTEX
  5
4FB
  8
LAYER_1
 10
169.3309152842575
 20
238.5382426378329
 30
0.0
  0
VERTEX
  5
4FC
  8
LAYER_1
 10
169.4842582391187
 20
238.2452387900353
 30
0.0
  0
VERTEX
  5
4FD
  8
LAYER_1
 10
169.5361729605258
 20
238.1582172473806
 30
0.0
  0
VERTEX
  5
4FE
  8
LAYER_1
 10
169.5719509505501
 20
238.1110724360917
 30
0.0
  0
VERTEX
  5
4FF
  8
LAYER_1
 10
169.6353016354195
 20
238.0581143367983
 30
0.0
  0
VERTEX
  5
500
  8
LAYER_1
 10
169.7056848357248
 20
238.0137307518285
 30
0.0
  0
VERTEX
  5
501
  8
LAYER_1
 10
169.8610558575231
 20
237.9427697618412
 30
0.0
  0
VERTEX
  5
502
  8
LAYER_1
 10
170.025078165704
 20
237.8823547400935
 30
0.0
  0
VERTEX
  5
503
  8
LAYER_1
 10
170.1847659100268
 20
237.8166509605487
 30
0.0
  0
VERTEX
  5
504
  8
LAYER_1
 10
176.4635355712244
 20
234.7876812153239
 30
0.0
  0
VERTEX
  5
505
  8
LAYER_1
 10
182.7323551388892
 20
231.7411879333362
 30
0.0
  0
VERTEX
  5
506
  8
LAYER_1
 10
188.9913328883722
 20
228.677544620225
 30
0.0
  0
VERTEX
  5
507
  8
LAYER_1
 10
195.2405770950248
 20
225.5971247816299
 30
0.0
  0
VERTEX
  5
508
  8
LAYER_1
 10
194.8865621707439
 20
236.5053098019557
 30
0.0
  0
VERTEX
  5
509
  8
LAYER_1
 10
200.5986137096394
 20
242.2054321490961
 30
0.0
  0
VERTEX
  5
50A
  8
LAYER_1
 10
206.3016874624568
 20
247.9131985167861
 30
0.0
  0
VERTEX
  5
50B
  8
LAYER_1
 10
211.995874221799
 20
253.6284993979502
 30
0.0
  0
VERTEX
  5
50C
  8
LAYER_1
 10
217.6812647802685
 20
259.3512252855128
 30
0.0
  0
SEQEND
  5
50D
  8
LAYER_1
  0
POLYLINE
  5
7F
  8
LAYER_1
 66
     1
 10
0.0
 20
0.0
 30
0.0
 70
     1
  0
VERTEX
  5
50E
  8
LAYER_1
 10
173.6765792825215
 20
362.4660992623901
 30
0.0
  0
VERTEX
  5
50F
  8
LAYER_1
 10
171.672363980669
 20
362.4674150049916
 30
0.0
  0
VERTEX
  5
510
  8
LAYER_1
 10
171.5358403875253
 20
358.8954206979981
 30
0.0
  0
VERTEX
  5
511
  8
LAYER_1
 10
174.852456650161
 20
360.1893930668273
 30
0.0
  0
SEQEND
  5
512
  8
LAYER_1
  0
POLYLINE
  5
80
  8
LAYER_1
 66
     1
 10
0.0
 20
0.0
 30
0.0
 70
     1
  0
VERTEX
  5
513
  8
LAYER_1
 10
171.5358403875251
 20
226.1045793020019
 30
0.0
  0
VERTEX
  5
514
  8
LAYER_1
 10
171.6723639806693
 20
222.5325849950086
 30
0.0
  0
VERTEX
  5
515
  8
LAYER_1
 10
173.6765792825215
 20
222.5339007376099
 30
0.0
  0
VERTEX
  5
516
  8
LAYER_1
 10
174.852456650161
 20
224.8106069331727
 30
0.0
  0
SEQEND
  5
517
  8
LAYER_1
  0
POLYLINE
  5
81
  8
LAYER_1
 66
     1
 10
0.0
 20
0.0
 30
0.0
 70
     1
  0
VERTEX
  5
518
  8
LAYER_1
 10
217.6812647802688
 20
325.6487747144872
 30
0.0
  0
VERTEX
  5
519
  8
LAYER_1
 10
211.9958742217992
 20
331.3715006020499
 30
0.0
  0
VERTEX
  5
51A
  8
LAYER_1
 10
206.301687462457
 20
337.086801483214
 30
0.0
  0
VERTEX
  5
51B
  8
LAYER_1
 10
200.5986137096395
 20
342.7945678509041
 30
0.0
  0
VERTEX
  5
51C
  8
LAYER_1
 10
194.8865621707441
 20
348.4946901980443
 30
0.0
  0
VERTEX
  5
51D
  8
LAYER_1
 10
195.2405770950248
 20
359.4028752183701
 30
0.0
  0
VERTEX
  5
51E
  8
LAYER_1
 10
188.9913328883722
 20
356.3224553797749
 30
0.0
  0
VERTEX
  5
51F
  8
LAYER_1
 10
182.7323551388892
 20
353.2588120666638
 30
0.0
  0
VERTEX
  5
520
  8
LAYER_1
 10
176.4635355712244
 20
350.2123187846763
 30
0.0
  0
VERTEX
  5
521
  8
LAYER_1
 10
170.1847659100268
 20
347.1833490394515
 30
0.0
  0
VERTEX
  5
522
  8
LAYER_1
 10
170.025078165704
 20
347.1176452599066
 30
0.0
  0
VERTEX
  5
523
  8
LAYER_1
 10
169.861055857523
 20
347.0572302381588
 30
0.0
  0
VERTEX
  5
524
  8
LAYER_1
 10
169.7056848357247
 20
346.9862692481714
 30
0.0
  0
VERTEX
  5
525
  8
LAYER_1
 10
169.6353016354194
 20
346.9418856632016
 30
0.0
  0
VERTEX
  5
526
  8
LAYER_1
 10
169.5719509505501
 20
346.8889275639081
 30
0.0
  0
VERTEX
  5
527
  8
LAYER_1
 10
169.5361729605258
 20
346.8417827526193
 30
0.0
  0
VERTEX
  5
528
  8
LAYER_1
 10
169.4842582391187
 20
346.7547612099645
 30
0.0
  0
VERTEX
  5
529
  8
LAYER_1
 10
169.3309152842575
 20
346.461757362167
 30
0.0
  0
VERTEX
  5
52A
  8
LAYER_1
 10
168.8184521010519
 20
345.4045926378858
 30
0.0
  0
VERTEX
  5
52B
  8
LAYER_1
 10
168.0169083145457
 20
343.7281442968163
 30
0.0
  0
VERTEX
  5
52C
  8
LAYER_1
 10
166.9086308383514
 20
341.4431232447105
 30
0.0
  0
VERTEX
  5
52D
  8
LAYER_1
 10
164.4671724484849
 20
336.4734375730416
 30
0.0
  0
VERTEX
  5
52E
  8
LAYER_1
 10
162.0169929248296
 20
331.5073924813264
 30
0.0
  0
VERTEX
  5
52F
  8
LAYER_1
 10
159.5582629855709
 20
326.5449389243891
 30
0.0
  0
VERTEX
  5
530
  8
LAYER_1
 10
157.0911533488944
 20
321.586027857054
 30
0.0
  0
VERTEX
  5
531
  8
LAYER_1
 10
168.1582988077187
 20
321.4330777167525
 30
0.0
  0
VERTEX
  5
532
  8
LAYER_1
 10
173.7832485113624
 20
316.0703402089073
 30
0.0
  0
VERTEX
  5
533
  8
LAYER_1
 10
179.3995946667173
 20
310.6999351641119
 30
0.0
  0
VERTEX
  5
534
  8
LAYER_1
 10
185.0074057204166
 20
305.3219566027253
 30
0.0
  0
VERTEX
  5
535
  8
LAYER_1
 10
190.6067501190936
 20
299.9364985451061
 30
0.0
  0
VERTEX
  5
536
  8
LAYER_1
 10
194.8807883253015
 20
303.2831700801762
 30
0.0
  0
VERTEX
  5
537
  8
LAYER_1
 10
195.4722057777808
 20
321.7034794841381
 30
0.0
  0
VERTEX
  5
538
  8
LAYER_1
 10
213.8472010952879
 20
321.9071128687588
 30
0.0
  0
SEQEND
  5
539
  8
LAYER_1
  0
POLYLINE
  5
82
  8
LAYER_1
 66
     1
 10
0.0
 20
0.0
 30
0.0
 70
     1
  0
VERTEX
  5
53A
  8
LAYER_1
 10
182.5904486211923
 20
292.5
 30
0.0
  0
VERTEX
  5
53B
  8
LAYER_1
 10
177.9605866880591
 20
297.0372967773341
 30
0.0
  0
VERTEX
  5
53C
  8
LAYER_1
 10
173.3249603525836
 20
301.5511941830464
 30
0.0
  0
VERTEX
  5
53D
  8
LAYER_1
 10
168.6835324761909
 20
306.0477613306409
 30
0.0
  0
VERTEX
  5
53E
  8
LAYER_1
 10
164.0362659203062
 20
310.5330673336214
 30
0.0
  0
VERTEX
  5
53F
  8
LAYER_1
 10
152.2482762110451
 20
310.7577606226866
 30
0.0
  0
VERTEX
  5
540
  8
LAYER_1
 10
149.6865249260612
 20
306.1893151255812
 30
0.0
  0
VERTEX
  5
541
  8
LAYER_1
 10
147.1164465994731
 20
301.624043799429
 30
0.0
  0
VERTEX
  5
542
  8
LAYER_1
 10
144.5380147743311
 20
297.0611907292339
 30
0.0
  0
VERTEX
  5
543
  8
LAYER_1
 10
141.9512029936853
 20
292.5
 30
0.0
  0
VERTEX
  5
544
  8
LAYER_1
 10
144.5380147743311
 20
287.9388092707661
 30
0.0
  0
VERTEX
  5
545
  8
LAYER_1
 10
147.1164465994731
 20
283.375956200571
 30
0.0
  0
VERTEX
  5
546
  8
LAYER_1
 10
149.6865249260612
 20
278.8106848744188
 30
0.0
  0
VERTEX
  5
547
  8
LAYER_1
 10
152.2482762110451
 20
274.2422393773134
 30
0.0
  0
VERTEX
  5
548
  8
LAYER_1
 10
164.0362659203062
 20
274.4669326663789
 30
0.0
  0
VERTEX
  5
549
  8
LAYER_1
 10
168.6835324761909
 20
278.9522386693593
 30
0.0
  0
VERTEX
  5
54A
  8
LAYER_1
 10
173.3249603525836
 20
283.4488058169537
 30
0.0
  0
VERTEX
  5
54B
  8
LAYER_1
 10
177.9605866880591
 20
287.9627032226659
 30
0.0
  0
SEQEND
  5
54C
  8
LAYER_1
  0
POLYLINE
  5
83
  8
LAYER_1
 66
     1
 10
0.0
 20
0.0
 30
0.0
 70
     1
  0
VERTEX
  5
54D
  8
LAYER_1
 10
141.7126291595263
 20
336.923546174349
 30
0.0
  0
VERTEX
  5
54E
  8
LAYER_1
 10
136.6074617139232
 20
340.6483468948945
 30
0.0
  0
VERTEX
  5
54F
  8
LAYER_1
 10
131.495971670005
 20
344.3657726579916
 30
0.0
  0
VERTEX
  5
550
  8
LAYER_1
 10
135.5511095634282
 20
330.8825655042301
 30
0.0
  0
VERTEX
  5
551
  8
LAYER_1
 10
130.7119662462111
 20
326.9297993491301
 30
0.0
  0
VERTEX
  5
552
  8
LAYER_1
 10
125.8599292522019
 20
322.9904861931441
 30
0.0
  0
VERTEX
  5
553
  8
LAYER_1
 10
146.4475118208825
 20
321.8524780766547
 30
0.0
  0
VERTEX
  5
554
  8
LAYER_1
 10
150.7696521135136
 20
329.9134194844358
 30
0.0
  0
VERTEX
  5
555
  8
LAYER_1
 10
155.0675035403738
 20
337.9853880992864
 30
0.0
  0
SEQEND
  5
556
  8
LAYER_1
  0
POLYLINE
  5
84
  8
LAYER_1
 66
     1
 10
0.0
 20
0.0
 30
0.0
 70
     1
  0
VERTEX
  5
557
  8
LAYER_1
 10
121.4257297688057
 20
310.200509071117
 30
0.0
  0
VERTEX
  5
558
  8
LAYER_1
 10
118.0222983117316
 20
310.276441199152
 30
0.0
  0
VERTEX
  5
559
  8
LAYER_1
 10
115.5321859718027
 20
310.3405633638831
 30
0.0
  0
VERTEX
  5
55A
  8
LAYER_1
 10
113.9576071723222
 20
310.3745080414203
 30
0.0
  0
VERTEX
  5
55B
  8
LAYER_1
 10
113.5143348575323
 20
310.3744239712757
 30
0.0
  0
VERTEX
  5
55C
  8
LAYER_1
 10
113.3788240726494
 20
310.3691133600123
 30
0.0
  0
VERTEX
  5
55D
  8
LAYER_1
 10
113.3007763365932
 20
310.3599077078738
 30
0.0
  0
VERTEX
  5
55E
  8
LAYER_1
 10
113.2177852550489
 20
310.335890113802
 30
0.0
  0
VERTEX
  5
55F
  8
LAYER_1
 10
113.1382190224044
 20
310.3038434024237
 30
0.0
  0
VERTEX
  5
560
  8
LAYER_1
 10
112.9861981549862
 20
310.2230766959769
 30
0.0
  0
VERTEX
  5
561
  8
LAYER_1
 10
112.8383878366816
 20
310.1324357249903
 30
0.0
  0
VERTEX
  5
562
  8
LAYER_1
 10
112.6884621698335
 20
310.0467486259206
 30
0.0
  0
VERTEX
  5
563
  8
LAYER_1
 10
108.3263980692499
 20
307.8227315506542
 30
0.0
  0
VERTEX
  5
564
  8
LAYER_1
 10
103.9587424044282
 20
305.6078419006288
 30
0.0
  0
VERTEX
  5
565
  8
LAYER_1
 10
99.58556077522039
 20
303.4018978913705
 30
0.0
  0
VERTEX
  5
566
  8
LAYER_1
 10
95.20691878147875
 20
301.2047177384054
 30
0.0
  0
VERTEX
  5
567
  8
LAYER_1
 10
90.82288202305546
 20
299.0161196572597
 30
0.0
  0
VERTEX
  5
568
  8
LAYER_1
 10
86.43351609980267
 20
296.8359218634595
 30
0.0
  0
VERTEX
  5
569
  8
LAYER_1
 10
82.03888661157262
 20
294.6639425725309
 30
0.0
  0
VERTEX
  5
56A
  8
LAYER_1
 10
77.6390591582175
 20
292.5
 30
0.0
  0
VERTEX
  5
56B
  8
LAYER_1
 10
82.03888661157269
 20
290.3360574274691
 30
0.0
  0
VERTEX
  5
56C
  8
LAYER_1
 10
86.43351609980277
 20
288.1640781365405
 30
0.0
  0
VERTEX
  5
56D
  8
LAYER_1
 10
90.82288202305554
 20
285.9838803427403
 30
0.0
  0
VERTEX
  5
56E
  8
LAYER_1
 10
95.20691878147883
 20
283.7952822615946
 30
0.0
  0
VERTEX
  5
56F
  8
LAYER_1
 10
99.58556077522044
 20
281.5981021086295
 30
0.0
  0
VERTEX
  5
570
  8
LAYER_1
 10
103.9587424044282
 20
279.3921580993712
 30
0.0
  0
VERTEX
  5
571
  8
LAYER_1
 10
108.3263980692499
 20
277.1772684493458
 30
0.0
  0
VERTEX
  5
572
  8
LAYER_1
 10
112.6884621698335
 20
274.9532513740794
 30
0.0
  0
VERTEX
  5
573
  8
LAYER_1
 10
112.8383878366816
 20
274.8675642750097
 30
0.0
  0
VERTEX
  5
574
  8
LAYER_1
 10
112.9861981549862
 20
274.776923304023
 30
0.0
  0
VERTEX
  5
575
  8
LAYER_1
 10
113.1382190224043
 20
274.6961565975762
 30
0.0
  0
VERTEX
  5
576
  8
LAYER_1
 10
113.2177852550489
 20
274.664109886198
 30
0.0
  0
VERTEX
  5
577
  8
LAYER_1
 10
113.3007763365932
 20
274.6400922921262
 30
0.0
  0
VERTEX
  5
578
  8
LAYER_1
 10
113.3788240726494
 20
274.6308866399877
 30
0.0
  0
VERTEX
  5
579
  8
LAYER_1
 10
113.5143348575323
 20
274.6255760287243
 30
0.0
  0
VERTEX
  5
57A
  8
LAYER_1
 10
113.9576071723222
 20
274.6254919585797
 30
0.0
  0
VERTEX
  5
57B
  8
LAYER_1
 10
115.5321859718027
 20
274.6594366361169
 30
0.0
  0
VERTEX
  5
57C
  8
LAYER_1
 10
118.0222983117316
 20
274.723558800848
 30
0.0
  0
VERTEX
  5
57D
  8
LAYER_1
 10
121.4257297688057
 20
274.799490928883
 30
0.0
  0
VERTEX
  5
57E
  8
LAYER_1
 10
141.7381210486902
 20
275.1979881379154
 30
0.0
  0
VERTEX
  5
57F
  8
LAYER_1
 10
138.892896274876
 20
279.5309447576013
 30
0.0
  0
VERTEX
  5
580
  8
LAYER_1
 10
136.0386468115288
 20
283.8589268868031
 30
0.0
  0
VERTEX
  5
581
  8
LAYER_1
 10
133.1753380687697
 20
288.1819426070822
 30
0.0
  0
VERTEX
  5
582
  8
LAYER_1
 10
130.3029354567196
 20
292.5
 30
0.0
  0
VERTEX
  5
583
  8
LAYER_1
 10
133.1753380687697
 20
296.8180573929177
 30
0.0
  0
VERTEX
  5
584
  8
LAYER_1
 10
136.0386468115288
 20
301.141073113197
 30
0.0
  0
VERTEX
  5
585
  8
LAYER_1
 10
138.892896274876
 20
305.4690552423989
 30
0.0
  0
VERTEX
  5
586
  8
LAYER_1
 10
141.7381210486902
 20
309.8020118620848
 30
0.0
  0
SEQEND
  5
587
  8
LAYER_1
  0
POLYLINE
  5
85
  8
LAYER_1
 66
     1
 10
0.0
 20
0.0
 30
0.0
 70
     1
  0
VERTEX
  5
588
  8
LAYER_1
 10
128.0349885165255
 20
362.489609830001
 30
0.0
  0
VERTEX
  5
589
  8
LAYER_1
 10
135.2943210615878
 20
355.8130347415278
 30
0.0
  0
VERTEX
  5
58A
  8
LAYER_1
 10
142.5387205563567
 20
349.122691920026
 30
0.0
  0
VERTEX
  5
58B
  8
LAYER_1
 10
151.7976985745337
 20
352.1478780899918
 30
0.0
  0
VERTEX
  5
58C
  8
LAYER_1
 10
161.0463365644096
 20
355.1998206432725
 30
0.0
  0
VERTEX
  5
58D
  8
LAYER_1
 10
161.7976635587008
 20
362.473517285875
 30
0.0
  0
SEQEND
  5
58E
  8
LAYER_1
  0
POLYLINE
  5
86
  8
LAYER_1
 66
     1
 10
0.0
 20
0.0
 30
0.0
 70
     1
  0
VERTEX
  5
58F
  8
LAYER_1
 10
161.0463365644096
 20
229.8001793567275
 30
0.0
  0
VERTEX
  5
590
  8
LAYER_1
 10
151.7976985745337
 20
232.8521219100082
 30
0.0
  0
VERTEX
  5
591
  8
LAYER_1
 10
142.5387205563567
 20
235.8773080799738
 30
0.0
  0
VERTEX
  5
592
  8
LAYER_1
 10
135.2943210615878
 20
229.1869652584721
 30
0.0
  0
VERTEX
  5
593
  8
LAYER_1
 10
128.0349885165256
 20
222.5103901699993
 30
0.0
  0
VERTEX
  5
594
  8
LAYER_1
 10
161.7976635587008
 20
222.526482714125
 30
0.0
  0
SEQEND
  5
595
  8
LAYER_1
  0
POLYLINE
  5
87
  8
LAYER_1
 66
     1
 10
0.0
 20
0.0
 30
0.0
 70
     1
  0
VERTEX
  5
596
  8
LAYER_1
 10
155.0675035403736
 20
247.0146119007138
 30
0.0
  0
VERTEX
  5
597
  8
LAYER_1
 10
150.7696521135136
 20
255.0865805155643
 30
0.0
  0
VERTEX
  5
598
  8
LAYER_1
 10
146.4475118208828
 20
263.1475219233455
 30
0.0
  0
VERTEX
  5
599
  8
LAYER_1
 10
125.8599292522019
 20
262.0095138068559
 30
0.0
  0
VERTEX
  5
59A
  8
LAYER_1
 10
130.7119662462111
 20
258.0702006508699
 30
0.0
  0
VERTEX
  5
59B
  8
LAYER_1
 10
135.5511095634282
 20
254.1174344957697
 30
0.0
  0
VERTEX
  5
59C
  8
LAYER_1
 10
131.495971670005
 20
240.6342273420084
 30
0.0
  0
VERTEX
  5
59D
  8
LAYER_1
 10
136.6074617139232
 20
244.3516531051055
 30
0.0
  0
VERTEX
  5
59E
  8
LAYER_1
 10
141.7126291595263
 20
248.076453825651
 30
0.0
  0
SEQEND
  5
59F
  8
LAYER_1
  0
POLYLINE
  5
88
  8
LAYER_1
 66
     1
 10
0.0
 20
0.0
 30
0.0
 70
     1
  0
VERTEX
  5
5A0
  8
LAYER_1
 10
123.3242309417505
 20
334.942055096443
 30
0.0
  0
VERTEX
  5
5A1
  8
LAYER_1
 10
119.0568483411572
 20
348.7167015256139
 30
0.0
  0
VERTEX
  5
5A2
  8
LAYER_1
 10
114.7991829602073
 20
362.493902656237
 30
0.0
  0
VERTEX
  5
5A3
  8
LAYER_1
 10
73.6001846421795
 20
362.5
 30
0.0
  0
VERTEX
  5
5A4
  8
LAYER_1
 10
71.42981327973331
 20
356.2944863964201
 30
0.0
  0
VERTEX
  5
5A5
  8
LAYER_1
 10
70.50989608087777
 20
353.7017780479739
 30
0.0
  0
VERTEX
  5
5A6
  8
LAYER_1
 10
69.82683903966264
 20
351.8072860661121
 30
0.0
  0
VERTEX
  5
5A7
  8
LAYER_1
 10
69.4013600232168
 20
350.6078219843484
 30
0.0
  0
VERTEX
  5
5A8
  8
LAYER_1
 10
69.29168660776008
 20
350.2677290102264
 30
0.0
  0
VERTEX
  5
5A9
  8
LAYER_1
 10
69.2637494315819
 20
350.1624179205945
 30
0.0
  0
VERTEX
  5
5AA
  8
LAYER_1
 10
69.254176898669
 20
350.1001973361967
 30
0.0
  0
VERTEX
  5
5AB
  8
LAYER_1
 10
69.25961607086468
 20
350.0233587507191
 30
0.0
  0
VERTEX
  5
5AC
  8
LAYER_1
 10
69.2754169911928
 20
349.9479367392366
 30
0.0
  0
VERTEX
  5
5AD
  8
LAYER_1
 10
69.3285395266572
 20
349.8000348718209
 30
0.0
  0
VERTEX
  5
5AE
  8
LAYER_1
 10
69.39441540588392
 20
349.6538766010775
 30
0.0
  0
VERTEX
  5
5AF
  8
LAYER_1
 10
69.45391552969468
 20
349.5068467941344
 30
0.0
  0
VERTEX
  5
5B0
  8
LAYER_1
 10
74.07980296738651
 20
335.7806777450489
 30
0.0
  0
VERTEX
  5
5B1
  8
LAYER_1
 10
78.71472442174678
 20
322.0570982682266
 30
0.0
  0
VERTEX
  5
5B2
  8
LAYER_1
 10
108.4619724913776
 20
321.636881432029
 30
0.0
  0
VERTEX
  5
5B3
  8
LAYER_1
 10
112.1906824173811
 20
324.9506678939598
 30
0.0
  0
VERTEX
  5
5B4
  8
LAYER_1
 10
115.9106364338024
 20
328.2728255339173
 30
0.0
  0
VERTEX
  5
5B5
  8
LAYER_1
 10
119.6218230916045
 20
331.6033045390342
 30
0.0
  0
SEQEND
  5
5B6
  8
LAYER_1
  0
POLYLINE
  5
89
  8
LAYER_1
 66
     1
 10
0.0
 20
0.0
 30
0.0
 70
     1
  0
VERTEX
  5
5B7
  8
LAYER_1
 10
123.3242309417507
 20
250.0579449035572
 30
0.0
  0
VERTEX
  5
5B8
  8
LAYER_1
 10
119.6218230916046
 20
253.3966954609659
 30
0.0
  0
VERTEX
  5
5B9
  8
LAYER_1
 10
115.9106364338025
 20
256.7271744660826
 30
0.0
  0
VERTEX
  5
5BA
  8
LAYER_1
 10
112.1906824173812
 20
260.0493321060401
 30
0.0
  0
VERTEX
  5
5BB
  8
LAYER_1
 10
108.4619724913776
 20
263.363118567971
 30
0.0
  0
VERTEX
  5
5BC
  8
LAYER_1
 10
78.71472442174655
 20
262.9429017317734
 30
0.0
  0
VERTEX
  5
5BD
  8
LAYER_1
 10
74.07980296738648
 20
249.2193222549511
 30
0.0
  0
VERTEX
  5
5BE
  8
LAYER_1
 10
69.45391552969468
 20
235.4931532058658
 30
0.0
  0
VERTEX
  5
5BF
  8
LAYER_1
 10
69.39441540588396
 20
235.3461233989224
 30
0.0
  0
VERTEX
  5
5C0
  8
LAYER_1
 10
69.32853952665728
 20
235.1999651281789
 30
0.0
  0
VERTEX
  5
5C1
  8
LAYER_1
 10
69.2754169911929
 20
235.0520632607632
 30
0.0
  0
VERTEX
  5
5C2
  8
LAYER_1
 10
69.25961607086475
 20
234.9766412492808
 30
0.0
  0
VERTEX
  5
5C3
  8
LAYER_1
 10
69.254176898669
 20
234.8998026638033
 30
0.0
  0
VERTEX
  5
5C4
  8
LAYER_1
 10
69.2637494315819
 20
234.8375820794055
 30
0.0
  0
VERTEX
  5
5C5
  8
LAYER_1
 10
69.29168660776008
 20
234.7322709897736
 30
0.0
  0
VERTEX
  5
5C6
  8
LAYER_1
 10
69.4013600232168
 20
234.3921780156516
 30
0.0
  0
VERTEX
  5
5C7
  8
LAYER_1
 10
69.82683903966264
 20
233.1927139338879
 30
0.0
  0
VERTEX
  5
5C8
  8
LAYER_1
 10
70.50989608087777
 20
231.298221952026
 30
0.0
  0
VERTEX
  5
5C9
  8
LAYER_1
 10
71.42981327973331
 20
228.7055136035797
 30
0.0
  0
VERTEX
  5
5CA
  8
LAYER_1
 10
73.6001846421795
 20
222.5
 30
0.0
  0
VERTEX
  5
5CB
  8
LAYER_1
 10
114.7991829602073
 20
222.506097343763
 30
0.0
  0
VERTEX
  5
5CC
  8
LAYER_1
 10
119.0568483411571
 20
236.2832984743861
 30
0.0
  0
SEQEND
  5
5CD
  8
LAYER_1
  0
POLYLINE
  5
8A
  8
LAYER_1
 66
     1
 10
0.0
 20
0.0
 30
0.0
 70
     1
  0
VERTEX
  5
5CE
  8
LAYER_1
 10
557.5053248440083
 20
336.6933646587568
 30
0.0
  0
VERTEX
  5
5CF
  8
LAYER_1
 10
549.1053283902372
 20
344.6721750340462
 30
0.0
  0
VERTEX
  5
5D0
  8
LAYER_1
 10
540.7056677023395
 20
352.6340164222981
 30
0.0
  0
VERTEX
  5
5D1
  8
LAYER_1
 10
540.9968344796597
 20
362.4405249784288
 30
0.0
  0
VERTEX
  5
5D2
  8
LAYER_1
 10
557.5053248440083
 20
362.4405249784288
 30
0.0
  0
SEQEND
  5
5D3
  8
LAYER_1
  0
POLYLINE
  5
8B
  8
LAYER_1
 66
     1
 10
0.0
 20
0.0
 30
0.0
 70
     1
  0
VERTEX
  5
5D4
  8
LAYER_1
 10
557.5053248440083
 20
316.4702077091827
 30
0.0
  0
VERTEX
  5
5D5
  8
LAYER_1
 10
557.5053248440083
 20
316.4702077091829
 30
0.0
  0
VERTEX
  5
5D6
  8
LAYER_1
 10
554.2121366085946
 20
313.3222144463133
 30
0.0
  0
VERTEX
  5
5D7
  8
LAYER_1
 10
550.9124338661918
 20
310.1804915162286
 30
0.0
  0
VERTEX
  5
5D8
  8
LAYER_1
 10
541.8993861452753
 20
310.3495508634376
 30
0.0
  0
VERTEX
  5
5D9
  8
LAYER_1
 10
541.4997321328535
 20
296.6228711572473
 30
0.0
  0
VERTEX
  5
5DA
  8
LAYER_1
 10
539.6170203934131
 20
295.6139751929011
 30
0.0
  0
VERTEX
  5
5DB
  8
LAYER_1
 10
537.7333062364669
 20
294.5969870860799
 30
0.0
  0
VERTEX
  5
5DC
  8
LAYER_1
 10
535.8485925154179
 20
293.5622232255307
 30
0.0
  0
VERTEX
  5
5DD
  8
LAYER_1
 10
533.9628820836697
 20
292.5
 30
0.0
  0
VERTEX
  5
5DE
  8
LAYER_1
 10
535.8485925154179
 20
291.4377767744694
 30
0.0
  0
VERTEX
  5
5DF
  8
LAYER_1
 10
537.7333062364669
 20
290.4030129139201
 30
0.0
  0
VERTEX
  5
5E0
  8
LAYER_1
 10
541.4997321328533
 20
288.3771288427529
 30
0.0
  0
VERTEX
  5
5E1
  8
LAYER_1
 10
541.8993861452753
 20
274.6504491365624
 30
0.0
  0
VERTEX
  5
5E2
  8
LAYER_1
 10
550.912433866192
 20
274.8195084837712
 30
0.0
  0
VERTEX
  5
5E3
  8
LAYER_1
 10
554.2121366085946
 20
271.6777855536867
 30
0.0
  0
VERTEX
  5
5E4
  8
LAYER_1
 10
557.5053248440086
 20
268.5297922908173
 30
0.0
  0
SEQEND
  5
5E5
  8
LAYER_1
  0
POLYLINE
  5
8C
  8
LAYER_1
 66
     1
 10
0.0
 20
0.0
 30
0.0
 70
     1
  0
VERTEX
  5
5E6
  8
LAYER_1
 10
557.5053248440083
 20
222.5594750215713
 30
0.0
  0
VERTEX
  5
5E7
  8
LAYER_1
 10
540.9968344796597
 20
222.5594750215714
 30
0.0
  0
VERTEX
  5
5E8
  8
LAYER_1
 10
540.7056677023395
 20
232.3659835777019
 30
0.0
  0
VERTEX
  5
5E9
  8
LAYER_1
 10
549.1053283902372
 20
240.3278249659539
 30
0.0
  0
VERTEX
  5
5EA
  8
LAYER_1
 10
557.5053248440083
 20
248.306635341243
 30
0.0
  0
SEQEND
  5
5EB
  8
LAYER_1
  0
POLYLINE
  5
8D
  8
LAYER_1
 66
     1
 10
0.0
 20
0.0
 30
0.0
 70
     1
  0
VERTEX
  5
5EC
  8
LAYER_1
 10
-377.5594750215711
 20
-401.5539764994136
 30
0.0
  0
VERTEX
  5
5ED
  8
LAYER_1
 10
-377.5594750215711
 20
-384.0345666438278
 30
0.0
  0
VERTEX
  5
5EE
  8
LAYER_1
 10
-387.3659835777017
 20
-383.7255698793982
 30
0.0
  0
VERTEX
  5
5EF
  8
LAYER_1
 10
-395.3278249659538
 20
-392.6395950259329
 30
0.0
  0
VERTEX
  5
5F0
  8
LAYER_1
 10
-403.3066353412432
 20
-401.5539764994136
 30
0.0
  0
SEQEND
  5
5F1
  8
LAYER_1
  0
POLYLINE
  5
8E
  8
LAYER_1
 66
     1
 10
0.0
 20
0.0
 30
0.0
 70
     1
  0
VERTEX
  5
5F2
  8
LAYER_1
 10
-471.4702077091827
 20
-401.5539764994134
 30
0.0
  0
VERTEX
  5
5F3
  8
LAYER_1
 10
-468.3222144463131
 20
-398.0591254770328
 30
0.0
  0
VERTEX
  5
5F4
  8
LAYER_1
 10
-465.1804915162287
 20
-394.557361023113
 30
0.0
  0
VERTEX
  5
5F5
  8
LAYER_1
 10
-465.3495508634375
 20
-384.9923872680512
 30
0.0
  0
VERTEX
  5
5F6
  8
LAYER_1
 10
-451.6228711572471
 20
-384.5682599075523
 30
0.0
  0
VERTEX
  5
5F7
  8
LAYER_1
 10
-450.6139751929011
 20
-382.5702577962019
 30
0.0
  0
VERTEX
  5
5F8
  8
LAYER_1
 10
-449.5969870860799
 20
-380.5711918829685
 30
0.0
  0
VERTEX
  5
5F9
  8
LAYER_1
 10
-448.5622232255305
 20
-378.5710651959875
 30
0.0
  0
VERTEX
  5
5FA
  8
LAYER_1
 10
-447.4999999999999
 20
-376.5698807633944
 30
0.0
  0
VERTEX
  5
5FB
  8
LAYER_1
 10
-446.4377767744693
 20
-378.5710651959875
 30
0.0
  0
VERTEX
  5
5FC
  8
LAYER_1
 10
-445.4030129139201
 20
-380.5711918829685
 30
0.0
  0
VERTEX
  5
5FD
  8
LAYER_1
 10
-443.3771288427528
 20
-384.5682599075524
 30
0.0
  0
VERTEX
  5
5FE
  8
LAYER_1
 10
-429.6504491365623
 20
-384.9923872680513
 30
0.0
  0
VERTEX
  5
5FF
  8
LAYER_1
 10
-429.8195084837711
 20
-394.557361023113
 30
0.0
  0
VERTEX
  5
600
  8
LAYER_1
 10
-426.6777855536866
 20
-398.0591254770327
 30
0.0
  0
VERTEX
  5
601
  8
LAYER_1
 10
-423.5297922908171
 20
-401.5539764994135
 30
0.0
  0
SEQEND
  5
602
  8
LAYER_1
  0
POLYLINE
  5
8F
  8
LAYER_1
 66
     1
 10
0.0
 20
0.0
 30
0.0
 70
     1
  0
VERTEX
  5
603
  8
LAYER_1
 10
-491.693364658757
 20
-401.5539764994136
 30
0.0
  0
VERTEX
  5
604
  8
LAYER_1
 10
-499.672175034046
 20
-392.6395950259329
 30
0.0
  0
VERTEX
  5
605
  8
LAYER_1
 10
-507.634016422298
 20
-383.7255698793982
 30
0.0
  0
VERTEX
  5
606
  8
LAYER_1
 10
-517.4405249784287
 20
-384.0345666438279
 30
0.0
  0
VERTEX
  5
607
  8
LAYER_1
 10
-517.4405249784286
 20
-401.5539764994136
 30
0.0
  0
SEQEND
  5
608
  8
LAYER_1
  0
POLYLINE
  5
90
  8
LAYER_1
 66
     1
 10
0.0
 20
0.0
 30
0.0
 70
     1
  0
VERTEX
  5
609
  8
LAYER_1
 10
-429.799490928883
 20
187.3843867049084
 30
0.0
  0
VERTEX
  5
60A
  8
LAYER_1
 10
-429.723558800848
 20
183.8750445773115
 30
0.0
  0
VERTEX
  5
60B
  8
LAYER_1
 10
-429.6594366361169
 20
181.3074429531336
 30
0.0
  0
VERTEX
  5
60C
  8
LAYER_1
 10
-429.6254919585795
 20
179.6838651658528
 30
0.0
  0
VERTEX
  5
60D
  8
LAYER_1
 10
-429.6255760287241
 20
179.2267987527608
 30
0.0
  0
VERTEX
  5
60E
  8
LAYER_1
 10
-429.6308866399875
 20
179.0870710361514
 30
0.0
  0
VERTEX
  5
60F
  8
LAYER_1
 10
-429.6400922921259
 20
179.0065945489473
 30
0.0
  0
VERTEX
  5
610
  8
LAYER_1
 10
-429.6641098861979
 20
178.9210208853223
 30
0.0
  0
VERTEX
  5
611
  8
LAYER_1
 10
-429.6961565975762
 20
178.8389786477526
 30
0.0
  0
VERTEX
  5
612
  8
LAYER_1
 10
-429.7769233040231
 20
178.6822270748084
 30
0.0
  0
VERTEX
  5
613
  8
LAYER_1
 10
-429.8675642750097
 20
178.5298170781735
 30
0.0
  0
VERTEX
  5
614
  8
LAYER_1
 10
-429.9532513740792
 20
178.3752259059068
 30
0.0
  0
VERTEX
  5
615
  8
LAYER_1
 10
-432.1772684493457
 20
173.8774196463925
 30
0.0
  0
VERTEX
  5
616
  8
LAYER_1
 10
-434.392158099371
 20
169.3738478199239
 30
0.0
  0
VERTEX
  5
617
  8
LAYER_1
 10
-436.5981021086294
 20
164.8645780677411
 30
0.0
  0
VERTEX
  5
618
  8
LAYER_1
 10
-438.7952822615945
 20
160.3496780310845
 30
0.0
  0
VERTEX
  5
619
  8
LAYER_1
 10
-440.9838803427402
 20
155.8292153511942
 30
0.0
  0
VERTEX
  5
61A
  8
LAYER_1
 10
-443.1640781365404
 20
151.3032576693106
 30
0.0
  0
VERTEX
  5
61B
  8
LAYER_1
 10
-445.336057427469
 20
146.7718726266739
 30
0.0
  0
VERTEX
  5
61C
  8
LAYER_1
 10
-447.4999999999999
 20
142.2351278645243
 30
0.0
  0
VERTEX
  5
61D
  8
LAYER_1
 10
-449.6639425725308
 20
146.7718726266741
 30
0.0
  0
VERTEX
  5
61E
  8
LAYER_1
 10
-451.8359218634594
 20
151.3032576693109
 30
0.0
  0
VERTEX
  5
61F
  8
LAYER_1
 10
-454.0161196572595
 20
155.8292153511945
 30
0.0
  0
VERTEX
  5
620
  8
LAYER_1
 10
-456.2047177384052
 20
160.3496780310848
 30
0.0
  0
VERTEX
  5
621
  8
LAYER_1
 10
-458.4018978913703
 20
164.8645780677414
 30
0.0
  0
VERTEX
  5
622
  8
LAYER_1
 10
-460.6078419006286
 20
169.3738478199241
 30
0.0
  0
VERTEX
  5
623
  8
LAYER_1
 10
-462.8227315506539
 20
173.8774196463927
 30
0.0
  0
VERTEX
  5
624
  8
LAYER_1
 10
-465.0467486259204
 20
178.375225905907
 30
0.0
  0
VERTEX
  5
625
  8
LAYER_1
 10
-465.1324357249901
 20
178.5298170781735
 30
0.0
  0
VERTEX
  5
626
  8
LAYER_1
 10
-465.2230766959768
 20
178.6822270748083
 30
0.0
  0
VERTEX
  5
627
  8
LAYER_1
 10
-465.3038434024236
 20
178.8389786477525
 30
0.0
  0
VERTEX
  5
628
  8
LAYER_1
 10
-465.3358901138018
 20
178.9210208853223
 30
0.0
  0
VERTEX
  5
629
  8
LAYER_1
 10
-465.3599077078737
 20
179.0065945489474
 30
0.0
  0
VERTEX
  5
62A
  8
LAYER_1
 10
-465.3691133600122
 20
179.0870710361515
 30
0.0
  0
VERTEX
  5
62B
  8
LAYER_1
 10
-465.3744239712756
 20
179.2267987527609
 30
0.0
  0
VERTEX
  5
62C
  8
LAYER_1
 10
-465.3745080414203
 20
179.6838651658529
 30
0.0
  0
VERTEX
  5
62D
  8
LAYER_1
 10
-465.3405633638829
 20
181.3074429531335
 30
0.0
  0
VERTEX
  5
62E
  8
LAYER_1
 10
-465.2764411991519
 20
183.8750445773113
 30
0.0
  0
VERTEX
  5
62F
  8
LAYER_1
 10
-465.200509071117
 20
187.3843867049083
 30
0.0
  0
VERTEX
  5
630
  8
LAYER_1
 10
-464.8020118620844
 20
208.328875033758
 30
0.0
  0
VERTEX
  5
631
  8
LAYER_1
 10
-460.4690552423986
 20
205.3951103062579
 30
0.0
  0
VERTEX
  5
632
  8
LAYER_1
 10
-456.1410731131967
 20
202.4520400518018
 30
0.0
  0
VERTEX
  5
633
  8
LAYER_1
 10
-451.8180573929176
 20
199.4996286041156
 30
0.0
  0
VERTEX
  5
634
  8
LAYER_1
 10
-447.4999999999999
 20
196.5378402969251
 30
0.0
  0
VERTEX
  5
635
  8
LAYER_1
 10
-443.1819426070821
 20
199.4996286041156
 30
0.0
  0
VERTEX
  5
636
  8
LAYER_1
 10
-438.858926886803
 20
202.4520400518018
 30
0.0
  0
VERTEX
  5
637
  8
LAYER_1
 10
-434.5309447576011
 20
205.3951103062579
 30
0.0
  0
VERTEX
  5
638
  8
LAYER_1
 10
-430.1979881379151
 20
208.328875033758
 30
0.0
  0
SEQEND
  5
639
  8
LAYER_1
  0
POLYLINE
  5
91
  8
LAYER_1
 66
     1
 10
0.0
 20
0.0
 30
0.0
 70
     1
  0
VERTEX
  5
63A
  8
LAYER_1
 10
-405.0579449035573
 20
189.341966938134
 30
0.0
  0
VERTEX
  5
63B
  8
LAYER_1
 10
-391.283298474386
 20
184.9417885523731
 30
0.0
  0
VERTEX
  5
63C
  8
LAYER_1
 10
-377.5060973437629
 20
180.5516297743781
 30
0.0
  0
VERTEX
  5
63D
  8
LAYER_1
 10
-377.5
 20
138.0705684585314
 30
0.0
  0
VERTEX
  5
63E
  8
LAYER_1
 10
-383.7055136035798
 20
135.8326577643315
 30
0.0
  0
VERTEX
  5
63F
  8
LAYER_1
 10
-386.2982219520261
 20
134.8841138548797
 30
0.0
  0
VERTEX
  5
640
  8
LAYER_1
 10
-388.1927139338879
 20
134.1798009046936
 30
0.0
  0
VERTEX
  5
641
  8
LAYER_1
 10
-389.3921780156514
 20
133.7410814958691
 30
0.0
  0
VERTEX
  5
642
  8
LAYER_1
 10
-389.7322709897733
 20
133.6279951763724
 30
0.0
  0
VERTEX
  5
643
  8
LAYER_1
 10
-389.8375820794053
 20
133.5991886290613
 30
0.0
  0
VERTEX
  5
644
  8
LAYER_1
 10
-389.899802663803
 20
133.589318210502
 30
0.0
  0
VERTEX
  5
645
  8
LAYER_1
 10
-389.9766412492805
 20
133.5949266431579
 30
0.0
  0
VERTEX
  5
646
  8
LAYER_1
 10
-390.052063260763
 20
133.6112192690156
 30
0.0
  0
VERTEX
  5
647
  8
LAYER_1
 10
-390.1999651281787
 20
133.6659949135324
 30
0.0
  0
VERTEX
  5
648
  8
LAYER_1
 10
-390.3461233989223
 20
133.7339207704443
 30
0.0
  0
VERTEX
  5
649
  8
LAYER_1
 10
-390.4931532058655
 20
133.7952724661432
 30
0.0
  0
VERTEX
  5
64A
  8
LAYER_1
 10
-404.2193222549511
 20
138.5651119259246
 30
0.0
  0
VERTEX
  5
64B
  8
LAYER_1
 10
-417.9429017317734
 20
143.3442665300463
 30
0.0
  0
VERTEX
  5
64C
  8
LAYER_1
 10
-418.363118567971
 20
174.0172129805607
 30
0.0
  0
VERTEX
  5
64D
  8
LAYER_1
 10
-415.0493321060401
 20
177.8619558496185
 30
0.0
  0
VERTEX
  5
64E
  8
LAYER_1
 10
-411.7271744660827
 20
181.697670335778
 30
0.0
  0
VERTEX
  5
64F
  8
LAYER_1
 10
-408.3966954609659
 20
185.5243446337222
 30
0.0
  0
SEQEND
  5
650
  8
LAYER_1
  0
POLYLINE
  5
92
  8
LAYER_1
 66
     1
 10
0.0
 20
0.0
 30
0.0
 70
     1
  0
VERTEX
  5
651
  8
LAYER_1
 10
-489.9420550964428
 20
189.341966938134
 30
0.0
  0
VERTEX
  5
652
  8
LAYER_1
 10
-486.6033045390341
 20
185.5243446337223
 30
0.0
  0
VERTEX
  5
653
  8
LAYER_1
 10
-483.2728255339172
 20
181.697670335778
 30
0.0
  0
VERTEX
  5
654
  8
LAYER_1
 10
-479.9506678939598
 20
177.8619558496185
 30
0.0
  0
VERTEX
  5
655
  8
LAYER_1
 10
-476.636881432029
 20
174.0172129805608
 30
0.0
  0
VERTEX
  5
656
  8
LAYER_1
 10
-477.0570982682266
 20
143.3442665300463
 30
0.0
  0
VERTEX
  5
657
  8
LAYER_1
 10
-490.7806777450488
 20
138.5651119259246
 30
0.0
  0
VERTEX
  5
658
  8
LAYER_1
 10
-504.5068467941342
 20
133.7952724661432
 30
0.0
  0
VERTEX
  5
659
  8
LAYER_1
 10
-504.6538766010774
 20
133.7339207704443
 30
0.0
  0
VERTEX
  5
65A
  8
LAYER_1
 10
-504.8000348718208
 20
133.6659949135324
 30
0.0
  0
VERTEX
  5
65B
  8
LAYER_1
 10
-504.9479367392365
 20
133.6112192690156
 30
0.0
  0
VERTEX
  5
65C
  8
LAYER_1
 10
-505.023358750719
 20
133.594926643158
 30
0.0
  0
VERTEX
  5
65D
  8
LAYER_1
 10
-505.1001973361966
 20
133.5893182105023
 30
0.0
  0
VERTEX
  5
65E
  8
LAYER_1
 10
-505.1624179205944
 20
133.5991886290615
 30
0.0
  0
VERTEX
  5
65F
  8
LAYER_1
 10
-505.2677290102264
 20
133.6279951763726
 30
0.0
  0
VERTEX
  5
660
  8
LAYER_1
 10
-505.6078219843483
 20
133.7410814958693
 30
0.0
  0
VERTEX
  5
661
  8
LAYER_1
 10
-506.8072860661119
 20
134.1798009046937
 30
0.0
  0
VERTEX
  5
662
  8
LAYER_1
 10
-508.7017780479738
 20
134.8841138548797
 30
0.0
  0
VERTEX
  5
663
  8
LAYER_1
 10
-511.2944863964199
 20
135.8326577643315
 30
0.0
  0
VERTEX
  5
664
  8
LAYER_1
 10
-517.5
 20
138.0705684585314
 30
0.0
  0
VERTEX
  5
665
  8
LAYER_1
 10
-517.4939026562369
 20
180.5516297743781
 30
0.0
  0
VERTEX
  5
666
  8
LAYER_1
 10
-503.7167015256138
 20
184.941788552373
 30
0.0
  0
SEQEND
  5
667
  8
LAYER_1
  0
POLYLINE
  5
93
  8
LAYER_1
 66
     1
 10
0.0
 20
0.0
 30
0.0
 70
     1
  0
VERTEX
  5
668
  8
LAYER_1
 10
-429.8906659666208
 20
135.1321305305404
 30
0.0
  0
VERTEX
  5
669
  8
LAYER_1
 10
-419.0878178544066
 20
131.4350316281144
 30
0.0
  0
VERTEX
  5
66A
  8
LAYER_1
 10
-408.2833470876063
 20
127.7313955118528
 30
0.0
  0
VERTEX
  5
66B
  8
LAYER_1
 10
-397.4772335417463
 20
124.0088388213139
 30
0.0
  0
VERTEX
  5
66C
  8
LAYER_1
 10
-392.073554437771
 20
122.1365954605524
 30
0.0
  0
VERTEX
  5
66D
  8
LAYER_1
 10
-386.6694570923531
 20
120.254978196056
 30
0.0
  0
VERTEX
  5
66E
  8
LAYER_1
 10
-392.073554437771
 20
118.3733609315597
 30
0.0
  0
VERTEX
  5
66F
  8
LAYER_1
 10
-397.4772335417463
 20
116.5011175707983
 30
0.0
  0
VERTEX
  5
670
  8
LAYER_1
 10
-408.2833470876063
 20
112.7785608802595
 30
0.0
  0
VERTEX
  5
671
  8
LAYER_1
 10
-419.0878178544066
 20
109.074924763998
 30
0.0
  0
VERTEX
  5
672
  8
LAYER_1
 10
-429.8906659666208
 20
105.3778258615722
 30
0.0
  0
VERTEX
  5
673
  8
LAYER_1
 10
-430.114445888402
 20
93.93206114344912
 30
0.0
  0
VERTEX
  5
674
  8
LAYER_1
 10
-433.5743307325017
 20
100.492782216409
 30
0.0
  0
VERTEX
  5
675
  8
LAYER_1
 10
-437.01404315982
 20
107.0668827263755
 30
0.0
  0
VERTEX
  5
676
  8
LAYER_1
 10
-440.4335412531543
 20
113.6543017080306
 30
0.0
  0
VERTEX
  5
677
  8
LAYER_1
 10
-443.8327830953021
 20
120.2549781960562
 30
0.0
  0
VERTEX
  5
678
  8
LAYER_1
 10
-440.4335412531543
 20
126.8556546840816
 30
0.0
  0
VERTEX
  5
679
  8
LAYER_1
 10
-437.0140431598201
 20
133.4430736657366
 30
0.0
  0
VERTEX
  5
67A
  8
LAYER_1
 10
-433.5743307325018
 20
140.0171741757031
 30
0.0
  0
VERTEX
  5
67B
  8
LAYER_1
 10
-430.1144458884021
 20
146.5778952486631
 30
0.0
  0
SEQEND
  5
67C
  8
LAYER_1
  0
POLYLINE
  5
94
  8
LAYER_1
 66
     1
 10
0.0
 20
0.0
 30
0.0
 70
     1
  0
VERTEX
  5
67D
  8
LAYER_1
 10
-464.8855541115978
 20
146.5778952486631
 30
0.0
  0
VERTEX
  5
67E
  8
LAYER_1
 10
-461.4256692674979
 20
140.0171741757032
 30
0.0
  0
VERTEX
  5
67F
  8
LAYER_1
 10
-457.9859568401797
 20
133.4430736657367
 30
0.0
  0
VERTEX
  5
680
  8
LAYER_1
 10
-454.5664587468455
 20
126.8556546840816
 30
0.0
  0
VERTEX
  5
681
  8
LAYER_1
 10
-451.1672169046977
 20
120.2549781960562
 30
0.0
  0
VERTEX
  5
682
  8
LAYER_1
 10
-454.5664587468455
 20
113.6543017080306
 30
0.0
  0
VERTEX
  5
683
  8
LAYER_1
 10
-457.9859568401797
 20
107.0668827263755
 30
0.0
  0
VERTEX
  5
684
  8
LAYER_1
 10
-461.4256692674981
 20
100.492782216409
 30
0.0
  0
VERTEX
  5
685
  8
LAYER_1
 10
-464.8855541115979
 20
93.93206114344912
 30
0.0
  0
VERTEX
  5
686
  8
LAYER_1
 10
-465.1093340333791
 20
105.3778258615719
 30
0.0
  0
VERTEX
  5
687
  8
LAYER_1
 10
-475.9121821455931
 20
109.0749247639978
 30
0.0
  0
VERTEX
  5
688
  8
LAYER_1
 10
-486.7166529123934
 20
112.7785608802594
 30
0.0
  0
VERTEX
  5
689
  8
LAYER_1
 10
-497.5227664582533
 20
116.5011175707983
 30
0.0
  0
VERTEX
  5
68A
  8
LAYER_1
 10
-502.9264455622287
 20
118.3733609315597
 30
0.0
  0
VERTEX
  5
68B
  8
LAYER_1
 10
-508.3305429076464
 20
120.2549781960561
 30
0.0
  0
VERTEX
  5
68C
  8
LAYER_1
 10
-502.9264455622287
 20
122.1365954605525
 30
0.0
  0
VERTEX
  5
68D
  8
LAYER_1
 10
-497.5227664582534
 20
124.008838821314
 30
0.0
  0
VERTEX
  5
68E
  8
LAYER_1
 10
-486.7166529123933
 20
127.7313955118529
 30
0.0
  0
VERTEX
  5
68F
  8
LAYER_1
 10
-475.912182145593
 20
131.4350316281144
 30
0.0
  0
VERTEX
  5
690
  8
LAYER_1
 10
-465.1093340333789
 20
135.1321305305403
 30
0.0
  0
SEQEND
  5
691
  8
LAYER_1
  0
POLYLINE
  5
95
  8
LAYER_1
 66
     1
 10
0.0
 20
0.0
 30
0.0
 70
     1
  0
VERTEX
  5
692
  8
LAYER_1
 10
-389.899802663803
 20
106.92063818161
 30
0.0
  0
VERTEX
  5
693
  8
LAYER_1
 10
-389.8375820794053
 20
106.9107677630508
 30
0.0
  0
VERTEX
  5
694
  8
LAYER_1
 10
-389.7322709897733
 20
106.8819612157397
 30
0.0
  0
VERTEX
  5
695
  8
LAYER_1
 10
-389.3921780156514
 20
106.768874896243
 30
0.0
  0
VERTEX
  5
696
  8
LAYER_1
 10
-388.1927139338879
 20
106.3301554874186
 30
0.0
  0
VERTEX
  5
697
  8
LAYER_1
 10
-386.2982219520261
 20
105.6258425372326
 30
0.0
  0
VERTEX
  5
698
  8
LAYER_1
 10
-383.7055136035797
 20
104.6772986277808
 30
0.0
  0
VERTEX
  5
699
  8
LAYER_1
 10
-377.5
 20
102.4393879335807
 30
0.0
  0
VERTEX
  5
69A
  8
LAYER_1
 10
-377.5060973437629
 20
59.95832661773363
 30
0.0
  0
VERTEX
  5
69B
  8
LAYER_1
 10
-391.283298474386
 20
55.56816783973855
 30
0.0
  0
VERTEX
  5
69C
  8
LAYER_1
 10
-405.0579449035569
 20
51.16798945397761
 30
0.0
  0
VERTEX
  5
69D
  8
LAYER_1
 10
-408.3966954609657
 20
54.98561175838947
 30
0.0
  0
VERTEX
  5
69E
  8
LAYER_1
 10
-411.7271744660826
 20
58.8122860563337
 30
0.0
  0
VERTEX
  5
69F
  8
LAYER_1
 10
-415.0493321060401
 20
62.64800054249319
 30
0.0
  0
VERTEX
  5
6A0
  8
LAYER_1
 10
-418.3631185679707
 20
66.4927434115508
 30
0.0
  0
VERTEX
  5
6A1
  8
LAYER_1
 10
-417.9429017317733
 20
97.16568986206619
 30
0.0
  0
VERTEX
  5
6A2
  8
LAYER_1
 10
-404.2193222549511
 20
101.9448444661876
 30
0.0
  0
VERTEX
  5
6A3
  8
LAYER_1
 10
-390.4931532058655
 20
106.7146839259691
 30
0.0
  0
VERTEX
  5
6A4
  8
LAYER_1
 10
-390.3461233989223
 20
106.7760356216679
 30
0.0
  0
VERTEX
  5
6A5
  8
LAYER_1
 10
-390.1999651281788
 20
106.8439614785798
 30
0.0
  0
VERTEX
  5
6A6
  8
LAYER_1
 10
-390.0520632607631
 20
106.8987371230965
 30
0.0
  0
VERTEX
  5
6A7
  8
LAYER_1
 10
-389.9766412492805
 20
106.9150297489541
 30
0.0
  0
SEQEND
  5
6A8
  8
LAYER_1
  0
POLYLINE
  5
96
  8
LAYER_1
 66
     1
 10
0.0
 20
0.0
 30
0.0
 70
     1
  0
VERTEX
  5
6A9
  8
LAYER_1
 10
-505.1001973361966
 20
106.9206381816102
 30
0.0
  0
VERTEX
  5
6AA
  8
LAYER_1
 10
-505.023358750719
 20
106.9150297489543
 30
0.0
  0
VERTEX
  5
6AB
  8
LAYER_1
 10
-504.9479367392366
 20
106.8987371230966
 30
0.0
  0
VERTEX
  5
6AC
  8
LAYER_1
 10
-504.8000348718209
 20
106.8439614785798
 30
0.0
  0
VERTEX
  5
6AD
  8
LAYER_1
 10
-504.6538766010774
 20
106.7760356216679
 30
0.0
  0
VERTEX
  5
6AE
  8
LAYER_1
 10
-504.5068467941342
 20
106.714683925969
 30
0.0
  0
VERTEX
  5
6AF
  8
LAYER_1
 10
-490.7806777450487
 20
101.9448444661877
 30
0.0
  0
VERTEX
  5
6B0
  8
LAYER_1
 10
-477.0570982682265
 20
97.16568986206619
 30
0.0
  0
VERTEX
  5
6B1
  8
LAYER_1
 10
-476.6368814320288
 20
66.49274341155113
 30
0.0
  0
VERTEX
  5
6B2
  8
LAYER_1
 10
-479.9506678939598
 20
62.64800054249331
 30
0.0
  0
VERTEX
  5
6B3
  8
LAYER_1
 10
-483.2728255339173
 20
58.81228605633375
 30
0.0
  0
VERTEX
  5
6B4
  8
LAYER_1
 10
-486.603304539034
 20
54.9856117583895
 30
0.0
  0
VERTEX
  5
6B5
  8
LAYER_1
 10
-489.9420550964427
 20
51.16798945397761
 30
0.0
  0
VERTEX
  5
6B6
  8
LAYER_1
 10
-503.7167015256139
 20
55.56816783973855
 30
0.0
  0
VERTEX
  5
6B7
  8
LAYER_1
 10
-517.493902656237
 20
59.95832661773363
 30
0.0
  0
VERTEX
  5
6B8
  8
LAYER_1
 10
-517.5
 20
102.4393879335807
 30
0.0
  0
VERTEX
  5
6B9
  8
LAYER_1
 10
-511.2944863964203
 20
104.6772986277808
 30
0.0
  0
VERTEX
  5
6BA
  8
LAYER_1
 10
-508.7017780479739
 20
105.6258425372327
 30
0.0
  0
VERTEX
  5
6BB
  8
LAYER_1
 10
-506.807286066112
 20
106.3301554874188
 30
0.0
  0
VERTEX
  5
6BC
  8
LAYER_1
 10
-505.6078219843483
 20
106.7688748962432
 30
0.0
  0
VERTEX
  5
6BD
  8
LAYER_1
 10
-505.2677290102264
 20
106.8819612157399
 30
0.0
  0
VERTEX
  5
6BE
  8
LAYER_1
 10
-505.1624179205944
 20
106.910767763051
 30
0.0
  0
SEQEND
  5
6BF
  8
LAYER_1
  0
POLYLINE
  5
97
  8
LAYER_1
 66
     1
 10
0.0
 20
0.0
 30
0.0
 70
     1
  0
VERTEX
  5
6C0
  8
LAYER_1
 10
-476.8524780766545
 20
27.32514004129824
 30
0.0
  0
VERTEX
  5
6C1
  8
LAYER_1
 10
-484.9134194844357
 20
22.86849997035252
 30
0.0
  0
VERTEX
  5
6C2
  8
LAYER_1
 10
-492.9853880992861
 20
18.43690460530274
 30
0.0
  0
VERTEX
  5
6C3
  8
LAYER_1
 10
-491.9235461743489
 20
32.20736652427581
 30
0.0
  0
VERTEX
  5
6C4
  8
LAYER_1
 10
-495.6483468948944
 20
37.47140060612935
 30
0.0
  0
VERTEX
  5
6C5
  8
LAYER_1
 10
-499.3657726579916
 20
42.74195403791055
 30
0.0
  0
VERTEX
  5
6C6
  8
LAYER_1
 10
-485.8825655042301
 20
38.56062515789881
 30
0.0
  0
VERTEX
  5
6C7
  8
LAYER_1
 10
-481.9297993491299
 20
43.5503567622452
 30
0.0
  0
VERTEX
  5
6C8
  8
LAYER_1
 10
-477.990486193144
 20
48.55338327901052
 30
0.0
  0
SEQEND
  5
6C9
  8
LAYER_1
  0
POLYLINE
  5
98
  8
LAYER_1
 66
     1
 10
0.0
 20
0.0
 30
0.0
 70
     1
  0
VERTEX
  5
6CA
  8
LAYER_1
 10
-447.5
 20
98.27482852758794
 30
0.0
  0
VERTEX
  5
6CB
  8
LAYER_1
 10
-445.3360574274691
 20
93.73808376543822
 30
0.0
  0
VERTEX
  5
6CC
  8
LAYER_1
 10
-443.1640781365404
 20
89.20669872280142
 30
0.0
  0
VERTEX
  5
6CD
  8
LAYER_1
 10
-440.9838803427402
 20
84.68074104091778
 30
0.0
  0
VERTEX
  5
6CE
  8
LAYER_1
 10
-438.7952822615945
 20
80.16027836102751
 30
0.0
  0
VERTEX
  5
6CF
  8
LAYER_1
 10
-436.5981021086295
 20
75.64537832437088
 30
0.0
  0
VERTEX
  5
6D0
  8
LAYER_1
 10
-434.3921580993712
 20
71.13610857218812
 30
0.0
  0
VERTEX
  5
6D1
  8
LAYER_1
 10
-432.1772684493458
 20
66.63253674571948
 30
0.0
  0
VERTEX
  5
6D2
  8
LAYER_1
 10
-429.9532513740794
 20
62.13473048620519
 30
0.0
  0
VERTEX
  5
6D3
  8
LAYER_1
 10
-429.8675642750097
 20
61.9801393139384
 30
0.0
  0
VERTEX
  5
6D4
  8
LAYER_1
 10
-429.776923304023
 20
61.82772931730354
 30
0.0
  0
VERTEX
  5
6D5
  8
LAYER_1
 10
-429.6961565975761
 20
61.67097774435937
 30
0.0
  0
VERTEX
  5
6D6
  8
LAYER_1
 10
-429.6641098861979
 20
61.58893550678964
 30
0.0
  0
VERTEX
  5
6D7
  8
LAYER_1
 10
-429.6400922921259
 20
61.50336184316461
 30
0.0
  0
VERTEX
  5
6D8
  8
LAYER_1
 10
-429.6308866399875
 20
61.42288535596046
 30
0.0
  0
VERTEX
  5
6D9
  8
LAYER_1
 10
-429.6255760287241
 20
61.28315763935107
 30
0.0
  0
VERTEX
  5
6DA
  8
LAYER_1
 10
-429.6254919585795
 20
60.82609122625898
 30
0.0
  0
VERTEX
  5
6DB
  8
LAYER_1
 10
-429.6594366361168
 20
59.20251343897819
 30
0.0
  0
VERTEX
  5
6DC
  8
LAYER_1
 10
-429.7235588008479
 20
56.63491181480028
 30
0.0
  0
VERTEX
  5
6DD
  8
LAYER_1
 10
-429.7994909288828
 20
53.12556968720332
 30
0.0
  0
VERTEX
  5
6DE
  8
LAYER_1
 10
-430.1979881379151
 20
32.18108135835303
 30
0.0
  0
VERTEX
  5
6DF
  8
LAYER_1
 10
-434.5309447576011
 20
35.1148460858534
 30
0.0
  0
VERTEX
  5
6E0
  8
LAYER_1
 10
-438.858926886803
 20
38.05791634030963
 30
0.0
  0
VERTEX
  5
6E1
  8
LAYER_1
 10
-443.1819426070822
 20
41.01032778799592
 30
0.0
  0
VERTEX
  5
6E2
  8
LAYER_1
 10
-447.4999999999999
 20
43.97211609518648
 30
0.0
  0
VERTEX
  5
6E3
  8
LAYER_1
 10
-451.8180573929178
 20
41.01032778799592
 30
0.0
  0
VERTEX
  5
6E4
  8
LAYER_1
 10
-456.141073113197
 20
38.05791634030963
 30
0.0
  0
VERTEX
  5
6E5
  8
LAYER_1
 10
-460.4690552423987
 20
35.1148460858534
 30
0.0
  0
VERTEX
  5
6E6
  8
LAYER_1
 10
-464.8020118620844
 20
32.18108135835303
 30
0.0
  0
VERTEX
  5
6E7
  8
LAYER_1
 10
-465.2005090711168
 20
53.12556968720321
 30
0.0
  0
VERTEX
  5
6E8
  8
LAYER_1
 10
-465.2764411991517
 20
56.63491181480016
 30
0.0
  0
VERTEX
  5
6E9
  8
LAYER_1
 10
-465.3405633638829
 20
59.20251343897816
 30
0.0
  0
VERTEX
  5
6EA
  8
LAYER_1
 10
-465.3745080414202
 20
60.826091226259
 30
0.0
  0
VERTEX
  5
6EB
  8
LAYER_1
 10
-465.3744239712755
 20
61.28315763935106
 30
0.0
  0
VERTEX
  5
6EC
  8
LAYER_1
 10
-465.3691133600121
 20
61.4228853559604
 30
0.0
  0
VERTEX
  5
6ED
  8
LAYER_1
 10
-465.3599077078737
 20
61.50336184316451
 30
0.0
  0
VERTEX
  5
6EE
  8
LAYER_1
 10
-465.3358901138017
 20
61.58893550678954
 30
0.0
  0
VERTEX
  5
6EF
  8
LAYER_1
 10
-465.3038434024236
 20
61.67097774435928
 30
0.0
  0
VERTEX
  5
6F0
  8
LAYER_1
 10
-465.2230766959768
 20
61.82772931730352
 30
0.0
  0
VERTEX
  5
6F1
  8
LAYER_1
 10
-465.1324357249902
 20
61.98013931393842
 30
0.0
  0
VERTEX
  5
6F2
  8
LAYER_1
 10
-465.0467486259205
 20
62.13473048620519
 30
0.0
  0
VERTEX
  5
6F3
  8
LAYER_1
 10
-462.8227315506541
 20
66.63253674571948
 30
0.0
  0
VERTEX
  5
6F4
  8
LAYER_1
 10
-460.6078419006286
 20
71.13610857218814
 30
0.0
  0
VERTEX
  5
6F5
  8
LAYER_1
 10
-458.4018978913703
 20
75.64537832437091
 30
0.0
  0
VERTEX
  5
6F6
  8
LAYER_1
 10
-456.2047177384052
 20
80.16027836102755
 30
0.0
  0
VERTEX
  5
6F7
  8
LAYER_1
 10
-454.0161196572595
 20
84.68074104091781
 30
0.0
  0
VERTEX
  5
6F8
  8
LAYER_1
 10
-451.8359218634594
 20
89.20669872280146
 30
0.0
  0
VERTEX
  5
6F9
  8
LAYER_1
 10
-449.6639425725308
 20
93.73808376543825
 30
0.0
  0
SEQEND
  5
6FA
  8
LAYER_1
  0
POLYLINE
  5
99
  8
LAYER_1
 66
     1
 10
0.0
 20
0.0
 30
0.0
 70
     1
  0
VERTEX
  5
6FB
  8
LAYER_1
 10
-417.0095138068558
 20
48.55338327901052
 30
0.0
  0
VERTEX
  5
6FC
  8
LAYER_1
 10
-413.0702006508699
 20
43.55035676224503
 30
0.0
  0
VERTEX
  5
6FD
  8
LAYER_1
 10
-409.1174344957698
 20
38.56062515789917
 30
0.0
  0
VERTEX
  5
6FE
  8
LAYER_1
 10
-395.6342273420084
 20
42.74195403791055
 30
0.0
  0
VERTEX
  5
6FF
  8
LAYER_1
 10
-399.3516531051054
 20
37.47140060612931
 30
0.0
  0
VERTEX
  5
700
  8
LAYER_1
 10
-403.0764538256509
 20
32.20736652427581
 30
0.0
  0
VERTEX
  5
701
  8
LAYER_1
 10
-402.0146119007136
 20
18.43690460530274
 30
0.0
  0
VERTEX
  5
702
  8
LAYER_1
 10
-410.0865805155642
 20
22.8684999703524
 30
0.0
  0
VERTEX
  5
703
  8
LAYER_1
 10
-418.1475219233452
 20
27.32514004129803
 30
0.0
  0
SEQEND
  5
704
  8
LAYER_1
  0
POLYLINE
  5
9A
  8
LAYER_1
 66
     1
 10
0.0
 20
0.0
 30
0.0
 70
     1
  0
VERTEX
  5
705
  8
LAYER_1
 10
-377.5264827141249
 20
11.49731014727683
 30
0.0
  0
VERTEX
  5
706
  8
LAYER_1
 10
-384.8001793567275
 20
12.27201752890687
 30
0.0
  0
VERTEX
  5
707
  8
LAYER_1
 10
-387.852121910008
 20
21.80846194687878
 30
0.0
  0
VERTEX
  5
708
  8
LAYER_1
 10
-390.8773080799738
 20
31.35556816232634
 30
0.0
  0
VERTEX
  5
709
  8
LAYER_1
 10
-384.1869652584721
 20
38.82540460733316
 30
0.0
  0
VERTEX
  5
70A
  8
LAYER_1
 10
-377.5103901699994
 20
46.31063880109673
 30
0.0
  0
SEQEND
  5
70B
  8
LAYER_1
  0
POLYLINE
  5
9B
  8
LAYER_1
 66
     1
 10
0.0
 20
0.0
 30
0.0
 70
     1
  0
VERTEX
  5
70C
  8
LAYER_1
 10
-517.4896098300006
 20
46.31063880109673
 30
0.0
  0
VERTEX
  5
70D
  8
LAYER_1
 10
-510.8130347415279
 20
38.8254046073331
 30
0.0
  0
VERTEX
  5
70E
  8
LAYER_1
 10
-504.1226919200261
 20
31.35556816232656
 30
0.0
  0
VERTEX
  5
70F
  8
LAYER_1
 10
-507.1478780899917
 20
21.80846194687874
 30
0.0
  0
VERTEX
  5
710
  8
LAYER_1
 10
-510.1998206432725
 20
12.27201752890664
 30
0.0
  0
VERTEX
  5
711
  8
LAYER_1
 10
-517.4735172858749
 20
11.49731014727683
 30
0.0
  0
SEQEND
  5
712
  8
LAYER_1
  0
POLYLINE
  5
9C
  8
LAYER_1
 66
     1
 10
0.0
 20
0.0
 30
0.0
 70
     1
  0
VERTEX
  5
713
  8
LAYER_1
 10
-447.4999999999999
 20
31.96136856095096
 30
0.0
  0
VERTEX
  5
714
  8
LAYER_1
 10
-442.938809270766
 20
29.29405832641803
 30
0.0
  0
VERTEX
  5
715
  8
LAYER_1
 10
-438.3759562005709
 20
26.63538882146885
 30
0.0
  0
VERTEX
  5
716
  8
LAYER_1
 10
-433.8106848744187
 20
23.98533276584526
 30
0.0
  0
VERTEX
  5
717
  8
LAYER_1
 10
-429.2422393773132
 20
21.34386287928908
 30
0.0
  0
VERTEX
  5
718
  8
LAYER_1
 10
-429.4669326663785
 20
9.189045187748654
 30
0.0
  0
VERTEX
  5
719
  8
LAYER_1
 10
-433.952238669359
 20
4.397161317474132
 30
0.0
  0
VERTEX
  5
71A
  8
LAYER_1
 10
-438.4488058169535
 20
-0.3887021806643709
 30
0.0
  0
VERTEX
  5
71B
  8
LAYER_1
 10
-442.9627032226658
 20
-5.168583600949236
 30
0.0
  0
VERTEX
  5
71C
  8
LAYER_1
 10
-447.4999999999999
 20
-9.942521237662845
 30
0.0
  0
VERTEX
  5
71D
  8
LAYER_1
 10
-452.0372967773341
 20
-5.168583600949142
 30
0.0
  0
VERTEX
  5
71E
  8
LAYER_1
 10
-456.5511941830464
 20
-0.3887021806642741
 30
0.0
  0
VERTEX
  5
71F
  8
LAYER_1
 10
-461.0477613306407
 20
4.397161317474211
 30
0.0
  0
VERTEX
  5
720
  8
LAYER_1
 10
-465.533067333621
 20
9.189045187748768
 30
0.0
  0
VERTEX
  5
721
  8
LAYER_1
 10
-465.7577606226863
 20
21.34386287928896
 30
0.0
  0
VERTEX
  5
722
  8
LAYER_1
 10
-461.1893151255811
 20
23.98533276584522
 30
0.0
  0
VERTEX
  5
723
  8
LAYER_1
 10
-456.6240437994288
 20
26.63538882146888
 30
0.0
  0
VERTEX
  5
724
  8
LAYER_1
 10
-452.0611907292338
 20
29.29405832641807
 30
0.0
  0
SEQEND
  5
725
  8
LAYER_1
  0
POLYLINE
  5
9D
  8
LAYER_1
 66
     1
 10
0.0
 20
0.0
 30
0.0
 70
     1
  0
VERTEX
  5
726
  8
LAYER_1
 10
-418.413972142946
 20
16.35028126232828
 30
0.0
  0
VERTEX
  5
727
  8
LAYER_1
 10
-413.4550610756108
 20
13.80639815770671
 30
0.0
  0
VERTEX
  5
728
  8
LAYER_1
 10
-408.4926075186735
 20
11.27115551655134
 30
0.0
  0
VERTEX
  5
729
  8
LAYER_1
 10
-403.5265624269583
 20
8.744729369591212
 30
0.0
  0
VERTEX
  5
72A
  8
LAYER_1
 10
-398.5568767552894
 20
6.227295747555331
 30
0.0
  0
VERTEX
  5
72B
  8
LAYER_1
 10
-396.2718557031837
 20
5.084530016753757
 30
0.0
  0
VERTEX
  5
72C
  8
LAYER_1
 10
-394.5954073621142
 20
4.258043157071805
 30
0.0
  0
VERTEX
  5
72D
  8
LAYER_1
 10
-393.538242637833
 20
3.729632739424703
 30
0.0
  0
VERTEX
  5
72E
  8
LAYER_1
 10
-393.2452387900355
 20
3.57151793727523
 30
0.0
  0
VERTEX
  5
72F
  8
LAYER_1
 10
-393.1582172473807
 20
3.51798769252844
 30
0.0
  0
VERTEX
  5
730
  8
LAYER_1
 10
-393.1110724360919
 20
3.481096334727681
 30
0.0
  0
VERTEX
  5
731
  8
LAYER_1
 10
-393.0581143367984
 20
3.415774253167325
 30
0.0
  0
VERTEX
  5
732
  8
LAYER_1
 10
-393.0137307518285
 20
3.343200812796381
 30
0.0
  0
VERTEX
  5
733
  8
LAYER_1
 10
-392.9427697618412
 20
3.182994832719754
 30
0.0
  0
VERTEX
  5
734
  8
LAYER_1
 10
-392.8823547400933
 20
3.013868348691848
 30
0.0
  0
VERTEX
  5
735
  8
LAYER_1
 10
-392.8166509605484
 20
2.849211314906711
 30
0.0
  0
VERTEX
  5
736
  8
LAYER_1
 10
-389.7876812153236
 20
-3.62494606402919
 30
0.0
  0
VERTEX
  5
737
  8
LAYER_1
 10
-386.7411879333359
 20
-10.08884371455582
 30
0.0
  0
VERTEX
  5
738
  8
LAYER_1
 10
-383.6775446202249
 20
-16.54259328142249
 30
0.0
  0
VERTEX
  5
739
  8
LAYER_1
 10
-380.5971247816298
 20
-22.98630640937848
 30
0.0
  0
VERTEX
  5
73A
  8
LAYER_1
 10
-391.5053098019556
 20
-22.62127496883227
 30
0.0
  0
VERTEX
  5
73B
  8
LAYER_1
 10
-397.2054321490959
 20
-28.5110786429402
 30
0.0
  0
VERTEX
  5
73C
  8
LAYER_1
 10
-402.9131985167858
 20
-34.39162515312621
 30
0.0
  0
VERTEX
  5
73D
  8
LAYER_1
 10
-408.6284993979499
 20
-40.26300811734879
 30
0.0
  0
VERTEX
  5
73E
  8
LAYER_1
 10
-414.3512252855127
 20
-46.12532115356647
 30
0.0
  0
VERTEX
  5
73F
  8
LAYER_1
 10
-418.0928871312412
 20
-42.1719460439764
 30
0.0
  0
VERTEX
  5
740
  8
LAYER_1
 10
-418.296520515862
 20
-23.22514309658903
 30
0.0
  0
VERTEX
  5
741
  8
LAYER_1
 10
-436.7168299198238
 20
-22.61532144830267
 30
0.0
  0
VERTEX
  5
742
  8
LAYER_1
 10
-440.0635014548935
 20
-18.20828034253078
 30
0.0
  0
VERTEX
  5
743
  8
LAYER_1
 10
-434.6780433972746
 20
-12.43469111852615
 30
0.0
  0
VERTEX
  5
744
  8
LAYER_1
 10
-429.300064835888
 20
-6.652371767435458
 30
0.0
  0
VERTEX
  5
745
  8
LAYER_1
 10
-423.9296597910927
 20
-0.8612517126488934
 30
0.0
  0
VERTEX
  5
746
  8
LAYER_1
 10
-418.5669222832475
 20
4.938739622443336
 30
0.0
  0
SEQEND
  5
747
  8
LAYER_1
  0
POLYLINE
  5
9E
  8
LAYER_1
 66
     1
 10
0.0
 20
0.0
 30
0.0
 70
     1
  0
VERTEX
  5
748
  8
LAYER_1
 10
-476.4330777167525
 20
4.938739622443336
 30
0.0
  0
VERTEX
  5
749
  8
LAYER_1
 10
-471.0703402089072
 20
-0.8612517126488934
 30
0.0
  0
VERTEX
  5
74A
  8
LAYER_1
 10
-465.6999351641118
 20
-6.652371767435458
 30
0.0
  0
VERTEX
  5
74B
  8
LAYER_1
 10
-460.3219566027252
 20
-12.43469111852615
 30
0.0
  0
VERTEX
  5
74C
  8
LAYER_1
 10
-454.936498545106
 20
-18.20828034253078
 30
0.0
  0
VERTEX
  5
74D
  8
LAYER_1
 10
-458.2831700801761
 20
-22.61532144830278
 30
0.0
  0
VERTEX
  5
74E
  8
LAYER_1
 10
-476.7034794841376
 20
-23.22514309658891
 30
0.0
  0
VERTEX
  5
74F
  8
LAYER_1
 10
-476.9071128687587
 20
-42.1719460439764
 30
0.0
  0
VERTEX
  5
750
  8
LAYER_1
 10
-480.6487747144872
 20
-46.12532115356647
 30
0.0
  0
VERTEX
  5
751
  8
LAYER_1
 10
-486.3715006020498
 20
-40.26300811734878
 30
0.0
  0
VERTEX
  5
752
  8
LAYER_1
 10
-492.0868014832139
 20
-34.39162515312627
 30
0.0
  0
VERTEX
  5
753
  8
LAYER_1
 10
-497.7945678509038
 20
-28.51107864294037
 30
0.0
  0
VERTEX
  5
754
  8
LAYER_1
 10
-503.4946901980442
 20
-22.6212749688325
 30
0.0
  0
VERTEX
  5
755
  8
LAYER_1
 10
-514.4028752183699
 20
-22.98630640937882
 30
0.0
  0
VERTEX
  5
756
  8
LAYER_1
 10
-511.3224553797749
 20
-16.54259328142264
 30
0.0
  0
VERTEX
  5
757
  8
LAYER_1
 10
-508.2588120666638
 20
-10.08884371455592
 30
0.0
  0
VERTEX
  5
758
  8
LAYER_1
 10
-505.2123187846761
 20
-3.62494606402939
 30
0.0
  0
VERTEX
  5
759
  8
LAYER_1
 10
-502.1833490394512
 20
2.849211314906249
 30
0.0
  0
VERTEX
  5
75A
  8
LAYER_1
 10
-502.1176452599063
 20
3.013868348691666
 30
0.0
  0
VERTEX
  5
75B
  8
LAYER_1
 10
-502.0572302381586
 20
3.182994832719711
 30
0.0
  0
VERTEX
  5
75C
  8
LAYER_1
 10
-501.9862692481713
 20
3.343200812796326
 30
0.0
  0
VERTEX
  5
75D
  8
LAYER_1
 10
-501.9418856632014
 20
3.415774253167204
 30
0.0
  0
VERTEX
  5
75E
  8
LAYER_1
 10
-501.8889275639079
 20
3.481096334727454
 30
0.0
  0
VERTEX
  5
75F
  8
LAYER_1
 10
-501.8417827526192
 20
3.517987692528251
 30
0.0
  0
VERTEX
  5
760
  8
LAYER_1
 10
-501.7547612099644
 20
3.571517937275072
 30
0.0
  0
VERTEX
  5
761
  8
LAYER_1
 10
-501.4617573621668
 20
3.729632739424584
 30
0.0
  0
VERTEX
  5
762
  8
LAYER_1
 10
-500.4045926378857
 20
4.258043157071677
 30
0.0
  0
VERTEX
  5
763
  8
LAYER_1
 10
-498.7281442968161
 20
5.084530016753514
 30
0.0
  0
VERTEX
  5
764
  8
LAYER_1
 10
-496.4431232447104
 20
6.227295747554876
 30
0.0
  0
VERTEX
  5
765
  8
LAYER_1
 10
-491.4734375730415
 20
8.744729369590942
 30
0.0
  0
VERTEX
  5
766
  8
LAYER_1
 10
-486.5073924813263
 20
11.27115551655117
 30
0.0
  0
VERTEX
  5
767
  8
LAYER_1
 10
-481.5449389243889
 20
13.80639815770664
 30
0.0
  0
VERTEX
  5
768
  8
LAYER_1
 10
-476.5860278570536
 20
16.35028126232839
 30
0.0
  0
SEQEND
  5
769
  8
LAYER_1
  0
POLYLINE
  5
9F
  8
LAYER_1
 66
     1
 10
0.0
 20
0.0
 30
0.0
 70
     1
  0
VERTEX
  5
76A
  8
LAYER_1
 10
-377.5594750215712
 20
-34.98179977311566
 30
0.0
  0
VERTEX
  5
76B
  8
LAYER_1
 10
-377.5594750215711
 20
-69.02622900833296
 30
0.0
  0
VERTEX
  5
76C
  8
LAYER_1
 10
-387.3659835777017
 20
-69.32645654359953
 30
0.0
  0
VERTEX
  5
76D
  8
LAYER_1
 10
-395.3278249659538
 20
-60.66540857441258
 30
0.0
  0
VERTEX
  5
76E
  8
LAYER_1
 10
-403.3066353412432
 20
-52.00401439072426
 30
0.0
  0
VERTEX
  5
76F
  8
LAYER_1
 10
-395.3278249659538
 20
-43.34262020703613
 30
0.0
  0
VERTEX
  5
770
  8
LAYER_1
 10
-387.3659835777019
 20
-34.68157223784897
 30
0.0
  0
SEQEND
  5
771
  8
LAYER_1
  0
POLYLINE
  5
A0
  8
LAYER_1
 66
     1
 10
0.0
 20
0.0
 30
0.0
 70
     1
  0
VERTEX
  5
772
  8
LAYER_1
 10
-491.693364658757
 20
-52.00401439072426
 30
0.0
  0
VERTEX
  5
773
  8
LAYER_1
 10
-499.672175034046
 20
-60.66540857441258
 30
0.0
  0
VERTEX
  5
774
  8
LAYER_1
 10
-507.634016422298
 20
-69.32645654359953
 30
0.0
  0
VERTEX
  5
775
  8
LAYER_1
 10
-517.4405249784287
 20
-69.02622900833286
 30
0.0
  0
VERTEX
  5
776
  8
LAYER_1
 10
-517.4405249784286
 20
-34.98179977311566
 30
0.0
  0
VERTEX
  5
777
  8
LAYER_1
 10
-507.634016422298
 20
-34.68157223784909
 30
0.0
  0
VERTEX
  5
778
  8
LAYER_1
 10
-499.6721750340461
 20
-43.34262020703615
 30
0.0
  0
SEQEND
  5
779
  8
LAYER_1
  0
POLYLINE
  5
A1
  8
LAYER_1
 66
     1
 10
0.0
 20
0.0
 30
0.0
 70
     1
  0
VERTEX
  5
77A
  8
LAYER_1
 10
-447.4999999999999
 20
-27.72895928606807
 30
0.0
  0
VERTEX
  5
77B
  8
LAYER_1
 10
-446.4377767744693
 20
-29.67335074570154
 30
0.0
  0
VERTEX
  5
77C
  8
LAYER_1
 10
-445.40301291392
 20
-31.61671447820433
 30
0.0
  0
VERTEX
  5
77D
  8
LAYER_1
 10
-443.3771288427525
 20
-35.50034699302649
 30
0.0
  0
VERTEX
  5
77E
  8
LAYER_1
 10
-429.6504491365623
 20
-35.91243775493684
 30
0.0
  0
VERTEX
  5
77F
  8
LAYER_1
 10
-429.8195084837714
 20
-45.20596061972356
 30
0.0
  0
VERTEX
  5
780
  8
LAYER_1
 10
-426.6777855536866
 20
-48.60834612050763
 30
0.0
  0
VERTEX
  5
781
  8
LAYER_1
 10
-423.5297922908171
 20
-52.00401439072437
 30
0.0
  0
VERTEX
  5
782
  8
LAYER_1
 10
-426.6777855536866
 20
-55.39968266094112
 30
0.0
  0
VERTEX
  5
783
  8
LAYER_1
 10
-429.8195084837711
 20
-58.80206816172495
 30
0.0
  0
VERTEX
  5
784
  8
LAYER_1
 10
-429.6504491365623
 20
-68.09559102651167
 30
0.0
  0
VERTEX
  5
785
  8
LAYER_1
 10
-443.3771288427528
 20
-68.50768178842225
 30
0.0
  0
VERTEX
  5
786
  8
LAYER_1
 10
-444.386024807099
 20
-70.4489812400701
 30
0.0
  0
VERTEX
  5
787
  8
LAYER_1
 10
-445.4030129139201
 20
-72.39131430324437
 30
0.0
  0
VERTEX
  5
788
  8
LAYER_1
 10
-446.4377767744693
 20
-74.33467803574713
 30
0.0
  0
VERTEX
  5
789
  8
LAYER_1
 10
-447.4999999999999
 20
-76.27906949538044
 30
0.0
  0
VERTEX
  5
78A
  8
LAYER_1
 10
-448.5622232255305
 20
-74.33467803574713
 30
0.0
  0
VERTEX
  5
78B
  8
LAYER_1
 10
-449.5969870860799
 20
-72.39131430324439
 30
0.0
  0
VERTEX
  5
78C
  8
LAYER_1
 10
-451.6228711572471
 20
-68.50768178842236
 30
0.0
  0
VERTEX
  5
78D
  8
LAYER_1
 10
-465.3495508634375
 20
-68.09559102651178
 30
0.0
  0
VERTEX
  5
78E
  8
LAYER_1
 10
-465.1804915162287
 20
-58.80206816172495
 30
0.0
  0
VERTEX
  5
78F
  8
LAYER_1
 10
-468.3222144463131
 20
-55.39968266094101
 30
0.0
  0
VERTEX
  5
790
  8
LAYER_1
 10
-471.4702077091827
 20
-52.00401439072449
 30
0.0
  0
VERTEX
  5
791
  8
LAYER_1
 10
-468.3222144463132
 20
-48.60834612050776
 30
0.0
  0
VERTEX
  5
792
  8
LAYER_1
 10
-465.1804915162288
 20
-45.2059606197239
 30
0.0
  0
VERTEX
  5
793
  8
LAYER_1
 10
-465.3495508634375
 20
-35.91243775493673
 30
0.0
  0
VERTEX
  5
794
  8
LAYER_1
 10
-451.6228711572471
 20
-35.50034699302615
 30
0.0
  0
VERTEX
  5
795
  8
LAYER_1
 10
-450.6139751929011
 20
-33.55904754137843
 30
0.0
  0
VERTEX
  5
796
  8
LAYER_1
 10
-449.5969870860799
 20
-31.61671447820424
 30
0.0
  0
VERTEX
  5
797
  8
LAYER_1
 10
-448.5622232255306
 20
-29.67335074570149
 30
0.0
  0
SEQEND
  5
798
  8
LAYER_1
  0
POLYLINE
  5
A2
  8
LAYER_1
 66
     1
 10
0.0
 20
0.0
 30
0.0
 70
     1
  0
VERTEX
  5
799
  8
LAYER_1
 10
-476.9071128687586
 20
-61.83608273747211
 30
0.0
  0
VERTEX
  5
79A
  8
LAYER_1
 10
-476.7034794841377
 20
-80.78288568485983
 30
0.0
  0
VERTEX
  5
79B
  8
LAYER_1
 10
-458.2831700801761
 20
-81.39270733314584
 30
0.0
  0
VERTEX
  5
79C
  8
LAYER_1
 10
-454.936498545106
 20
-85.79974843891819
 30
0.0
  0
VERTEX
  5
79D
  8
LAYER_1
 10
-460.3219566027252
 20
-91.57333766292267
 30
0.0
  0
VERTEX
  5
79E
  8
LAYER_1
 10
-465.6999351641119
 20
-97.35565701401316
 30
0.0
  0
VERTEX
  5
79F
  8
LAYER_1
 10
-471.0703402089072
 20
-103.1467770687996
 30
0.0
  0
VERTEX
  5
7A0
  8
LAYER_1
 10
-476.4330777167523
 20
-108.9467684038917
 30
0.0
  0
VERTEX
  5
7A1
  8
LAYER_1
 10
-476.5860278570536
 20
-120.3583100437767
 30
0.0
  0
VERTEX
  5
7A2
  8
LAYER_1
 10
-481.544938924389
 20
-117.814426939155
 30
0.0
  0
VERTEX
  5
7A3
  8
LAYER_1
 10
-486.5073924813263
 20
-115.2791842979995
 30
0.0
  0
VERTEX
  5
7A4
  8
LAYER_1
 10
-491.4734375730416
 20
-112.7527581510393
 30
0.0
  0
VERTEX
  5
7A5
  8
LAYER_1
 10
-496.4431232447104
 20
-110.2353245290032
 30
0.0
  0
VERTEX
  5
7A6
  8
LAYER_1
 10
-498.7281442968161
 20
-109.0925587982019
 30
0.0
  0
VERTEX
  5
7A7
  8
LAYER_1
 10
-500.4045926378857
 20
-108.26607193852
 30
0.0
  0
VERTEX
  5
7A8
  8
LAYER_1
 10
-501.461757362167
 20
-107.7376615208728
 30
0.0
  0
VERTEX
  5
7A9
  8
LAYER_1
 10
-501.7547612099646
 20
-107.5795467187233
 30
0.0
  0
VERTEX
  5
7AA
  8
LAYER_1
 10
-501.8417827526193
 20
-107.5260164739765
 30
0.0
  0
VERTEX
  5
7AB
  8
LAYER_1
 10
-501.8889275639082
 20
-107.4891251161758
 30
0.0
  0
VERTEX
  5
7AC
  8
LAYER_1
 10
-501.9418856632016
 20
-107.4238030346154
 30
0.0
  0
VERTEX
  5
7AD
  8
LAYER_1
 10
-501.9862692481714
 20
-107.3512295942445
 30
0.0
  0
VERTEX
  5
7AE
  8
LAYER_1
 10
-502.0572302381586
 20
-107.1910236141678
 30
0.0
  0
VERTEX
  5
7AF
  8
LAYER_1
 10
-502.1176452599063
 20
-107.0218971301398
 30
0.0
  0
VERTEX
  5
7B0
  8
LAYER_1
 10
-502.1833490394512
 20
-106.8572400963547
 30
0.0
  0
VERTEX
  5
7B1
  8
LAYER_1
 10
-505.212318784676
 20
-100.383082717419
 30
0.0
  0
VERTEX
  5
7B2
  8
LAYER_1
 10
-508.2588120666637
 20
-93.9191850668926
 30
0.0
  0
VERTEX
  5
7B3
  8
LAYER_1
 10
-511.322455379775
 20
-87.46543550002608
 30
0.0
  0
VERTEX
  5
7B4
  8
LAYER_1
 10
-514.4028752183701
 20
-81.02172237207016
 30
0.0
  0
VERTEX
  5
7B5
  8
LAYER_1
 10
-503.4946901980442
 20
-81.38675381261669
 30
0.0
  0
VERTEX
  5
7B6
  8
LAYER_1
 10
-497.7945678509038
 20
-75.49695013850855
 30
0.0
  0
VERTEX
  5
7B7
  8
LAYER_1
 10
-492.0868014832139
 20
-69.61640362832253
 30
0.0
  0
VERTEX
  5
7B8
  8
LAYER_1
 10
-486.3715006020499
 20
-63.74502066410001
 30
0.0
  0
VERTEX
  5
7B9
  8
LAYER_1
 10
-480.6487747144872
 20
-57.88270762788238
 30
0.0
  0
SEQEND
  5
7BA
  8
LAYER_1
  0
POLYLINE
  5
A3
  8
LAYER_1
 66
     1
 10
0.0
 20
0.0
 30
0.0
 70
     1
  0
VERTEX
  5
7BB
  8
LAYER_1
 10
-414.3512252855127
 20
-57.88270762788228
 30
0.0
  0
VERTEX
  5
7BC
  8
LAYER_1
 10
-408.62849939795
 20
-63.74502066409985
 30
0.0
  0
VERTEX
  5
7BD
  8
LAYER_1
 10
-402.9131985167859
 20
-69.6164036283224
 30
0.0
  0
VERTEX
  5
7BE
  8
LAYER_1
 10
-397.2054321490959
 20
-75.49695013850842
 30
0.0
  0
VERTEX
  5
7BF
  8
LAYER_1
 10
-391.5053098019557
 20
-81.38675381261646
 30
0.0
  0
VERTEX
  5
7C0
  8
LAYER_1
 10
-380.5971247816298
 20
-81.02172237207003
 30
0.0
  0
VERTEX
  5
7C1
  8
LAYER_1
 10
-383.677544620225
 20
-87.46543550002602
 30
0.0
  0
VERTEX
  5
7C2
  8
LAYER_1
 10
-386.7411879333361
 20
-93.91918506689257
 30
0.0
  0
VERTEX
  5
7C3
  8
LAYER_1
 10
-389.7876812153236
 20
-100.383082717419
 30
0.0
  0
VERTEX
  5
7C4
  8
LAYER_1
 10
-392.8166509605484
 20
-106.8572400963545
 30
0.0
  0
VERTEX
  5
7C5
  8
LAYER_1
 10
-392.8823547400933
 20
-107.0218971301397
 30
0.0
  0
VERTEX
  5
7C6
  8
LAYER_1
 10
-392.9427697618411
 20
-107.1910236141678
 30
0.0
  0
VERTEX
  5
7C7
  8
LAYER_1
 10
-393.0137307518285
 20
-107.3512295942445
 30
0.0
  0
VERTEX
  5
7C8
  8
LAYER_1
 10
-393.0581143367983
 20
-107.4238030346154
 30
0.0
  0
VERTEX
  5
7C9
  8
LAYER_1
 10
-393.1110724360918
 20
-107.4891251161757
 30
0.0
  0
VERTEX
  5
7CA
  8
LAYER_1
 10
-393.1582172473806
 20
-107.5260164739765
 30
0.0
  0
VERTEX
  5
7CB
  8
LAYER_1
 10
-393.2452387900354
 20
-107.5795467187233
 30
0.0
  0
VERTEX
  5
7CC
  8
LAYER_1
 10
-393.5382426378329
 20
-107.7376615208728
 30
0.0
  0
VERTEX
  5
7CD
  8
LAYER_1
 10
-394.5954073621141
 20
-108.2660719385199
 30
0.0
  0
VERTEX
  5
7CE
  8
LAYER_1
 10
-396.2718557031836
 20
-109.0925587982018
 30
0.0
  0
VERTEX
  5
7CF
  8
LAYER_1
 10
-398.5568767552894
 20
-110.235324529003
 30
0.0
  0
VERTEX
  5
7D0
  8
LAYER_1
 10
-403.5265624269583
 20
-112.7527581510391
 30
0.0
  0
VERTEX
  5
7D1
  8
LAYER_1
 10
-408.4926075186735
 20
-115.2791842979993
 30
0.0
  0
VERTEX
  5
7D2
  8
LAYER_1
 10
-413.4550610756108
 20
-117.8144269391548
 30
0.0
  0
VERTEX
  5
7D3
  8
LAYER_1
 10
-418.413972142946
 20
-120.3583100437767
 30
0.0
  0
VERTEX
  5
7D4
  8
LAYER_1
 10
-418.5669222832474
 20
-108.9467684038919
 30
0.0
  0
VERTEX
  5
7D5
  8
LAYER_1
 10
-423.9296597910926
 20
-103.1467770687996
 30
0.0
  0
VERTEX
  5
7D6
  8
LAYER_1
 10
-429.300064835888
 20
-97.35565701401305
 30
0.0
  0
VERTEX
  5
7D7
  8
LAYER_1
 10
-434.6780433972746
 20
-91.57333766292248
 30
0.0
  0
VERTEX
  5
7D8
  8
LAYER_1
 10
-440.0635014548938
 20
-85.79974843891807
 30
0.0
  0
VERTEX
  5
7D9
  8
LAYER_1
 10
-436.7168299198237
 20
-81.39270733314584
 30
0.0
  0
VERTEX
  5
7DA
  8
LAYER_1
 10
-418.2965205158619
 20
-80.78288568485983
 30
0.0
  0
VERTEX
  5
7DB
  8
LAYER_1
 10
-418.0928871312411
 20
-61.83608273747211
 30
0.0
  0
SEQEND
  5
7DC
  8
LAYER_1
  0
POLYLINE
  5
A4
  8
LAYER_1
 66
     1
 10
0.0
 20
0.0
 30
0.0
 70
     1
  0
VERTEX
  5
7DD
  8
LAYER_1
 10
-447.4999999999999
 20
-94.06550754378577
 30
0.0
  0
VERTEX
  5
7DE
  8
LAYER_1
 10
-442.9627032226658
 20
-98.83944518049914
 30
0.0
  0
VERTEX
  5
7DF
  8
LAYER_1
 10
-438.4488058169535
 20
-103.6193266007839
 30
0.0
  0
VERTEX
  5
7E0
  8
LAYER_1
 10
-433.952238669359
 20
-108.4051900989225
 30
0.0
  0
VERTEX
  5
7E1
  8
LAYER_1
 10
-429.4669326663785
 20
-113.1970739691971
 30
0.0
  0
VERTEX
  5
7E2
  8
LAYER_1
 10
-429.2422393773132
 20
-125.3518916607371
 30
0.0
  0
VERTEX
  5
7E3
  8
LAYER_1
 10
-433.8106848744186
 20
-127.9933615472933
 30
0.0
  0
VERTEX
  5
7E4
  8
LAYER_1
 10
-438.3759562005709
 20
-130.643417602917
 30
0.0
  0
VERTEX
  5
7E5
  8
LAYER_1
 10
-442.938809270766
 20
-133.3020871078662
 30
0.0
  0
VERTEX
  5
7E6
  8
LAYER_1
 10
-447.4999999999999
 20
-135.9693973423989
 30
0.0
  0
VERTEX
  5
7E7
  8
LAYER_1
 10
-452.0611907292338
 20
-133.3020871078662
 30
0.0
  0
VERTEX
  5
7E8
  8
LAYER_1
 10
-456.6240437994289
 20
-130.6434176029171
 30
0.0
  0
VERTEX
  5
7E9
  8
LAYER_1
 10
-461.1893151255812
 20
-127.9933615472935
 30
0.0
  0
VERTEX
  5
7EA
  8
LAYER_1
 10
-465.7577606226866
 20
-125.3518916607372
 30
0.0
  0
VERTEX
  5
7EB
  8
LAYER_1
 10
-465.533067333621
 20
-113.197073969197
 30
0.0
  0
VERTEX
  5
7EC
  8
LAYER_1
 10
-461.0477613306406
 20
-108.4051900989224
 30
0.0
  0
VERTEX
  5
7ED
  8
LAYER_1
 10
-456.5511941830462
 20
-103.6193266007839
 30
0.0
  0
VERTEX
  5
7EE
  8
LAYER_1
 10
-452.0372967773339
 20
-98.83944518049914
 30
0.0
  0
SEQEND
  5
7EF
  8
LAYER_1
  0
POLYLINE
  5
A5
  8
LAYER_1
 66
     1
 10
0.0
 20
0.0
 30
0.0
 70
     1
  0
VERTEX
  5
7F0
  8
LAYER_1
 10
-403.0764538256509
 20
-136.215395305724
 30
0.0
  0
VERTEX
  5
7F1
  8
LAYER_1
 10
-399.3516531051055
 20
-141.4794293875777
 30
0.0
  0
VERTEX
  5
7F2
  8
LAYER_1
 10
-395.6342273420084
 20
-146.7499828193589
 30
0.0
  0
VERTEX
  5
7F3
  8
LAYER_1
 10
-409.1174344957698
 20
-142.568653939347
 30
0.0
  0
VERTEX
  5
7F4
  8
LAYER_1
 10
-413.0702006508698
 20
-147.5583855436934
 30
0.0
  0
VERTEX
  5
7F5
  8
LAYER_1
 10
-417.0095138068559
 20
-152.5614120604589
 30
0.0
  0
VERTEX
  5
7F6
  8
LAYER_1
 10
-418.1475219233452
 20
-131.3331688227465
 30
0.0
  0
VERTEX
  5
7F7
  8
LAYER_1
 10
-410.0865805155642
 20
-126.8765287518006
 30
0.0
  0
VERTEX
  5
7F8
  8
LAYER_1
 10
-402.0146119007136
 20
-122.4449333867511
 30
0.0
  0
SEQEND
  5
7F9
  8
LAYER_1
  0
POLYLINE
  5
A6
  8
LAYER_1
 66
     1
 10
0.0
 20
0.0
 30
0.0
 70
     1
  0
VERTEX
  5
7FA
  8
LAYER_1
 10
-429.7994909288829
 20
-157.1335984686519
 30
0.0
  0
VERTEX
  5
7FB
  8
LAYER_1
 10
-429.723558800848
 20
-160.6429405962487
 30
0.0
  0
VERTEX
  5
7FC
  8
LAYER_1
 10
-429.6594366361168
 20
-163.2105422204265
 30
0.0
  0
VERTEX
  5
7FD
  8
LAYER_1
 10
-429.6254919585796
 20
-164.8341200077073
 30
0.0
  0
VERTEX
  5
7FE
  8
LAYER_1
 10
-429.6255760287243
 20
-165.2911864207994
 30
0.0
  0
VERTEX
  5
7FF
  8
LAYER_1
 10
-429.6308866399876
 20
-165.4309141374087
 30
0.0
  0
VERTEX
  5
800
  8
LAYER_1
 10
-429.640092292126
 20
-165.5113906246129
 30
0.0
  0
VERTEX
  5
801
  8
LAYER_1
 10
-429.6641098861979
 20
-165.5969642882379
 30
0.0
  0
VERTEX
  5
802
  8
LAYER_1
 10
-429.6961565975762
 20
-165.6790065258076
 30
0.0
  0
VERTEX
  5
803
  8
LAYER_1
 10
-429.7769233040229
 20
-165.8357580987519
 30
0.0
  0
VERTEX
  5
804
  8
LAYER_1
 10
-429.8675642750096
 20
-165.9881680953868
 30
0.0
  0
VERTEX
  5
805
  8
LAYER_1
 10
-429.9532513740792
 20
-166.1427592676533
 30
0.0
  0
VERTEX
  5
806
  8
LAYER_1
 10
-432.1772684493457
 20
-170.6405655271676
 30
0.0
  0
VERTEX
  5
807
  8
LAYER_1
 10
-434.3921580993711
 20
-175.1441373536363
 30
0.0
  0
VERTEX
  5
808
  8
LAYER_1
 10
-436.5981021086294
 20
-179.6534071058192
 30
0.0
  0
VERTEX
  5
809
  8
LAYER_1
 10
-438.7952822615945
 20
-184.1683071424759
 30
0.0
  0
VERTEX
  5
80A
  8
LAYER_1
 10
-440.9838803427402
 20
-188.6887698223663
 30
0.0
  0
VERTEX
  5
80B
  8
LAYER_1
 10
-443.1640781365404
 20
-193.21472750425
 30
0.0
  0
VERTEX
  5
80C
  8
LAYER_1
 10
-445.336057427469
 20
-197.7461125468868
 30
0.0
  0
VERTEX
  5
80D
  8
LAYER_1
 10
-447.4999999999999
 20
-202.2828573090366
 30
0.0
  0
VERTEX
  5
80E
  8
LAYER_1
 10
-449.6639425725308
 20
-197.7461125468868
 30
0.0
  0
VERTEX
  5
80F
  8
LAYER_1
 10
-451.8359218634594
 20
-193.2147275042499
 30
0.0
  0
VERTEX
  5
810
  8
LAYER_1
 10
-454.0161196572595
 20
-188.6887698223661
 30
0.0
  0
VERTEX
  5
811
  8
LAYER_1
 10
-456.2047177384053
 20
-184.1683071424758
 30
0.0
  0
VERTEX
  5
812
  8
LAYER_1
 10
-458.4018978913703
 20
-179.6534071058191
 30
0.0
  0
VERTEX
  5
813
  8
LAYER_1
 10
-460.6078419006286
 20
-175.1441373536363
 30
0.0
  0
VERTEX
  5
814
  8
LAYER_1
 10
-462.822731550654
 20
-170.6405655271676
 30
0.0
  0
VERTEX
  5
815
  8
LAYER_1
 10
-465.0467486259204
 20
-166.1427592676533
 30
0.0
  0
VERTEX
  5
816
  8
LAYER_1
 10
-465.1324357249902
 20
-165.9881680953868
 30
0.0
  0
VERTEX
  5
817
  8
LAYER_1
 10
-465.2230766959769
 20
-165.8357580987519
 30
0.0
  0
VERTEX
  5
818
  8
LAYER_1
 10
-465.3038434024237
 20
-165.6790065258076
 30
0.0
  0
VERTEX
  5
819
  8
LAYER_1
 10
-465.3358901138018
 20
-165.5969642882378
 30
0.0
  0
VERTEX
  5
81A
  8
LAYER_1
 10
-465.3599077078737
 20
-165.5113906246128
 30
0.0
  0
VERTEX
  5
81B
  8
LAYER_1
 10
-465.3691133600122
 20
-165.4309141374087
 30
0.0
  0
VERTEX
  5
81C
  8
LAYER_1
 10
-465.3744239712756
 20
-165.2911864207993
 30
0.0
  0
VERTEX
  5
81D
  8
LAYER_1
 10
-465.3745080414203
 20
-164.8341200077072
 30
0.0
  0
VERTEX
  5
81E
  8
LAYER_1
 10
-465.340563363883
 20
-163.2105422204265
 30
0.0
  0
VERTEX
  5
81F
  8
LAYER_1
 10
-465.2764411991519
 20
-160.6429405962487
 30
0.0
  0
VERTEX
  5
820
  8
LAYER_1
 10
-465.2005090711169
 20
-157.1335984686519
 30
0.0
  0
VERTEX
  5
821
  8
LAYER_1
 10
-464.8020118620844
 20
-136.1891101398014
 30
0.0
  0
VERTEX
  5
822
  8
LAYER_1
 10
-460.4690552423986
 20
-139.1228748673016
 30
0.0
  0
VERTEX
  5
823
  8
LAYER_1
 10
-456.1410731131969
 20
-142.0659451217578
 30
0.0
  0
VERTEX
  5
824
  8
LAYER_1
 10
-451.8180573929177
 20
-145.0183565694441
 30
0.0
  0
VERTEX
  5
825
  8
LAYER_1
 10
-447.4999999999999
 20
-147.9801448766348
 30
0.0
  0
VERTEX
  5
826
  8
LAYER_1
 10
-443.1819426070822
 20
-145.0183565694441
 30
0.0
  0
VERTEX
  5
827
  8
LAYER_1
 10
-438.858926886803
 20
-142.0659451217578
 30
0.0
  0
VERTEX
  5
828
  8
LAYER_1
 10
-434.5309447576011
 20
-139.1228748673016
 30
0.0
  0
VERTEX
  5
829
  8
LAYER_1
 10
-430.1979881379152
 20
-136.1891101398014
 30
0.0
  0
SEQEND
  5
82A
  8
LAYER_1
  0
POLYLINE
  5
A7
  8
LAYER_1
 66
     1
 10
0.0
 20
0.0
 30
0.0
 70
     1
  0
VERTEX
  5
82B
  8
LAYER_1
 10
-377.510390169999
 20
-150.3186675825451
 30
0.0
  0
VERTEX
  5
82C
  8
LAYER_1
 10
-384.1869652584722
 20
-142.8334333887813
 30
0.0
  0
VERTEX
  5
82D
  8
LAYER_1
 10
-390.8773080799739
 20
-135.3635969437747
 30
0.0
  0
VERTEX
  5
82E
  8
LAYER_1
 10
-387.8521219100081
 20
-125.816490728327
 30
0.0
  0
VERTEX
  5
82F
  8
LAYER_1
 10
-384.8001793567274
 20
-116.280046310355
 30
0.0
  0
VERTEX
  5
830
  8
LAYER_1
 10
-377.5264827141249
 20
-115.505338928725
 30
0.0
  0
SEQEND
  5
831
  8
LAYER_1
  0
POLYLINE
  5
A8
  8
LAYER_1
 66
     1
 10
0.0
 20
0.0
 30
0.0
 70
     1
  0
VERTEX
  5
832
  8
LAYER_1
 10
-510.1998206432725
 20
-116.2800463103549
 30
0.0
  0
VERTEX
  5
833
  8
LAYER_1
 10
-507.1478780899918
 20
-125.816490728327
 30
0.0
  0
VERTEX
  5
834
  8
LAYER_1
 10
-504.122691920026
 20
-135.3635969437746
 30
0.0
  0
VERTEX
  5
835
  8
LAYER_1
 10
-510.8130347415279
 20
-142.8334333887813
 30
0.0
  0
VERTEX
  5
836
  8
LAYER_1
 10
-517.4896098300006
 20
-150.318667582545
 30
0.0
  0
VERTEX
  5
837
  8
LAYER_1
 10
-517.4735172858749
 20
-115.5053389287251
 30
0.0
  0
SEQEND
  5
838
  8
LAYER_1
  0
POLYLINE
  5
A9
  8
LAYER_1
 66
     1
 10
0.0
 20
0.0
 30
0.0
 70
     1
  0
VERTEX
  5
839
  8
LAYER_1
 10
-492.9853880992861
 20
-122.4449333867513
 30
0.0
  0
VERTEX
  5
83A
  8
LAYER_1
 10
-484.9134194844355
 20
-126.8765287518006
 30
0.0
  0
VERTEX
  5
83B
  8
LAYER_1
 10
-476.8524780766544
 20
-131.3331688227463
 30
0.0
  0
VERTEX
  5
83C
  8
LAYER_1
 10
-477.9904861931439
 20
-152.5614120604589
 30
0.0
  0
VERTEX
  5
83D
  8
LAYER_1
 10
-481.92979934913
 20
-147.5583855436934
 30
0.0
  0
VERTEX
  5
83E
  8
LAYER_1
 10
-485.8825655042302
 20
-142.5686539393471
 30
0.0
  0
VERTEX
  5
83F
  8
LAYER_1
 10
-499.3657726579915
 20
-146.749982819359
 30
0.0
  0
VERTEX
  5
840
  8
LAYER_1
 10
-495.6483468948944
 20
-141.4794293875777
 30
0.0
  0
VERTEX
  5
841
  8
LAYER_1
 10
-491.9235461743489
 20
-136.215395305724
 30
0.0
  0
SEQEND
  5
842
  8
LAYER_1
  0
POLYLINE
  5
AA
  8
LAYER_1
 66
     1
 10
0.0
 20
0.0
 30
0.0
 70
     1
  0
VERTEX
  5
843
  8
LAYER_1
 10
-405.0579449035569
 20
-155.1760182354261
 30
0.0
  0
VERTEX
  5
844
  8
LAYER_1
 10
-391.2832984743859
 20
-159.5761966211869
 30
0.0
  0
VERTEX
  5
845
  8
LAYER_1
 10
-377.5060973437629
 20
-163.9663553991819
 30
0.0
  0
VERTEX
  5
846
  8
LAYER_1
 10
-377.5
 20
-206.4474167150292
 30
0.0
  0
VERTEX
  5
847
  8
LAYER_1
 10
-383.7055136035798
 20
-208.6853274092293
 30
0.0
  0
VERTEX
  5
848
  8
LAYER_1
 10
-386.2982219520261
 20
-209.6338713186812
 30
0.0
  0
VERTEX
  5
849
  8
LAYER_1
 10
-388.1927139338879
 20
-210.3381842688672
 30
0.0
  0
VERTEX
  5
84A
  8
LAYER_1
 10
-389.3921780156515
 20
-210.7769036776916
 30
0.0
  0
VERTEX
  5
84B
  8
LAYER_1
 10
-389.7322709897734
 20
-210.8899899971883
 30
0.0
  0
VERTEX
  5
84C
  8
LAYER_1
 10
-389.8375820794054
 20
-210.9187965444994
 30
0.0
  0
VERTEX
  5
84D
  8
LAYER_1
 10
-389.8998026638031
 20
-210.9286669630586
 30
0.0
  0
VERTEX
  5
84E
  8
LAYER_1
 10
-389.9766412492808
 20
-210.9230585304028
 30
0.0
  0
VERTEX
  5
84F
  8
LAYER_1
 10
-390.0520632607632
 20
-210.9067659045452
 30
0.0
  0
VERTEX
  5
850
  8
LAYER_1
 10
-390.199965128179
 20
-210.8519902600284
 30
0.0
  0
VERTEX
  5
851
  8
LAYER_1
 10
-390.3461233989224
 20
-210.7840644031164
 30
0.0
  0
VERTEX
  5
852
  8
LAYER_1
 10
-390.4931532058655
 20
-210.7227127074175
 30
0.0
  0
VERTEX
  5
853
  8
LAYER_1
 10
-404.219322254951
 20
-205.9528732476362
 30
0.0
  0
VERTEX
  5
854
  8
LAYER_1
 10
-417.9429017317733
 20
-201.1737186435141
 30
0.0
  0
VERTEX
  5
855
  8
LAYER_1
 10
-418.3631185679708
 20
-170.5007721929995
 30
0.0
  0
VERTEX
  5
856
  8
LAYER_1
 10
-415.0493321060401
 20
-166.6560293239416
 30
0.0
  0
VERTEX
  5
857
  8
LAYER_1
 10
-411.7271744660826
 20
-162.820314837782
 30
0.0
  0
VERTEX
  5
858
  8
LAYER_1
 10
-408.3966954609657
 20
-158.9936405398378
 30
0.0
  0
SEQEND
  5
859
  8
LAYER_1
  0
POLYLINE
  5
AB
  8
LAYER_1
 66
     1
 10
0.0
 20
0.0
 30
0.0
 70
     1
  0
VERTEX
  5
85A
  8
LAYER_1
 10
-489.9420550964427
 20
-155.1760182354258
 30
0.0
  0
VERTEX
  5
85B
  8
LAYER_1
 10
-486.603304539034
 20
-158.9936405398376
 30
0.0
  0
VERTEX
  5
85C
  8
LAYER_1
 10
-483.2728255339173
 20
-162.8203148377819
 30
0.0
  0
VERTEX
  5
85D
  8
LAYER_1
 10
-479.9506678939598
 20
-166.6560293239415
 30
0.0
  0
VERTEX
  5
85E
  8
LAYER_1
 10
-476.6368814320289
 20
-170.5007721929995
 30
0.0
  0
VERTEX
  5
85F
  8
LAYER_1
 10
-477.0570982682265
 20
-201.1737186435145
 30
0.0
  0
VERTEX
  5
860
  8
LAYER_1
 10
-490.7806777450488
 20
-205.9528732476362
 30
0.0
  0
VERTEX
  5
861
  8
LAYER_1
 10
-504.5068467941342
 20
-210.7227127074175
 30
0.0
  0
VERTEX
  5
862
  8
LAYER_1
 10
-504.6538766010775
 20
-210.7840644031164
 30
0.0
  0
VERTEX
  5
863
  8
LAYER_1
 10
-504.800034871821
 20
-210.8519902600283
 30
0.0
  0
VERTEX
  5
864
  8
LAYER_1
 10
-504.9479367392366
 20
-210.9067659045451
 30
0.0
  0
VERTEX
  5
865
  8
LAYER_1
 10
-505.0233587507191
 20
-210.9230585304028
 30
0.0
  0
VERTEX
  5
866
  8
LAYER_1
 10
-505.1001973361966
 20
-210.9286669630586
 30
0.0
  0
VERTEX
  5
867
  8
LAYER_1
 10
-505.1624179205944
 20
-210.9187965444994
 30
0.0
  0
VERTEX
  5
868
  8
LAYER_1
 10
-505.2677290102263
 20
-210.8899899971883
 30
0.0
  0
VERTEX
  5
869
  8
LAYER_1
 10
-505.6078219843483
 20
-210.7769036776916
 30
0.0
  0
VERTEX
  5
86A
  8
LAYER_1
 10
-506.8072860661119
 20
-210.3381842688672
 30
0.0
  0
VERTEX
  5
86B
  8
LAYER_1
 10
-508.7017780479738
 20
-209.6338713186811
 30
0.0
  0
VERTEX
  5
86C
  8
LAYER_1
 10
-511.2944863964203
 20
-208.6853274092292
 30
0.0
  0
VERTEX
  5
86D
  8
LAYER_1
 10
-517.4999999999999
 20
-206.4474167150293
 30
0.0
  0
VERTEX
  5
86E
  8
LAYER_1
 10
-517.4939026562367
 20
-163.9663553991819
 30
0.0
  0
VERTEX
  5
86F
  8
LAYER_1
 10
-503.7167015256138
 20
-159.5761966211869
 30
0.0
  0
SEQEND
  5
870
  8
LAYER_1
  0
POLYLINE
  5
AC
  8
LAYER_1
 66
     1
 10
0.0
 20
0.0
 30
0.0
 70
     1
  0
VERTEX
  5
871
  8
LAYER_1
 10
-515.189393066827
 20
-1.963732315528667
 30
0.0
  0
VERTEX
  5
872
  8
LAYER_1
 10
-517.4660992623901
 20
-0.7512630664216502
 30
0.0
  0
VERTEX
  5
873
  8
LAYER_1
 10
-517.4674150049914
 20
1.315320991542642
 30
0.0
  0
VERTEX
  5
874
  8
LAYER_1
 10
-513.895420697998
 20
1.456093033781485
 30
0.0
  0
SEQEND
  5
875
  8
LAYER_1
  0
POLYLINE
  5
AD
  8
LAYER_1
 66
     1
 10
0.0
 20
0.0
 30
0.0
 70
     1
  0
VERTEX
  5
876
  8
LAYER_1
 10
-377.5325849950083
 20
1.315320991542755
 30
0.0
  0
VERTEX
  5
877
  8
LAYER_1
 10
-377.5339007376099
 20
-0.7512630664216502
 30
0.0
  0
VERTEX
  5
878
  8
LAYER_1
 10
-379.8106069331727
 20
-1.963732315528439
 30
0.0
  0
VERTEX
  5
879
  8
LAYER_1
 10
-381.1045793020018
 20
1.456093033781485
 30
0.0
  0
SEQEND
  5
87A
  8
LAYER_1
  0
POLYLINE
  5
AE
  8
LAYER_1
 66
     1
 10
0.0
 20
0.0
 30
0.0
 70
     1
  0
VERTEX
  5
87B
  8
LAYER_1
 10
-377.5339007376099
 20
-103.2567657150264
 30
0.0
  0
VERTEX
  5
87C
  8
LAYER_1
 10
-377.5325849950083
 20
-105.323349772991
 30
0.0
  0
VERTEX
  5
87D
  8
LAYER_1
 10
-381.1045793020018
 20
-105.4641218152293
 30
0.0
  0
VERTEX
  5
87E
  8
LAYER_1
 10
-379.8106069331726
 20
-102.0442964659195
 30
0.0
  0
SEQEND
  5
87F
  8
LAYER_1
  0
POLYLINE
  5
AF
  8
LAYER_1
 66
     1
 10
0.0
 20
0.0
 30
0.0
 70
     1
  0
VERTEX
  5
880
  8
LAYER_1
 10
-513.8954206979979
 20
-105.4641218152296
 30
0.0
  0
VERTEX
  5
881
  8
LAYER_1
 10
-517.4674150049914
 20
-105.323349772991
 30
0.0
  0
VERTEX
  5
882
  8
LAYER_1
 10
-517.4660992623901
 20
-103.2567657150264
 30
0.0
  0
VERTEX
  5
883
  8
LAYER_1
 10
-515.1893930668272
 20
-102.0442964659196
 30
0.0
  0
SEQEND
  5
884
  8
LAYER_1
  0
POLYLINE
  5
B0
  8
LAYER_1
 66
     1
 10
0.0
 20
0.0
 30
0.0
 70
     1
  0
VERTEX
  5
885
  8
LAYER_1
 10
-403.0764538256508
 20
208.3025898678356
 30
0.0
  0
VERTEX
  5
886
  8
LAYER_1
 10
-399.3516531051052
 20
203.038555785982
 30
0.0
  0
VERTEX
  5
887
  8
LAYER_1
 10
-395.6342273420081
 20
197.7680023542008
 30
0.0
  0
VERTEX
  5
888
  8
LAYER_1
 10
-409.1174344957695
 20
201.9493312342125
 30
0.0
  0
VERTEX
  5
889
  8
LAYER_1
 10
-413.0702006508698
 20
196.9595996298663
 30
0.0
  0
VERTEX
  5
88A
  8
LAYER_1
 10
-417.0095138068559
 20
191.9565731131011
 30
0.0
  0
VERTEX
  5
88B
  8
LAYER_1
 10
-418.1475219233453
 20
213.1848163508132
 30
0.0
  0
VERTEX
  5
88C
  8
LAYER_1
 10
-410.0865805155642
 20
217.6414564217588
 30
0.0
  0
VERTEX
  5
88D
  8
LAYER_1
 10
-402.0146119007132
 20
222.0730517868082
 30
0.0
  0
SEQEND
  5
88E
  8
LAYER_1
  0
POLYLINE
  5
B1
  8
LAYER_1
 66
     1
 10
0.0
 20
0.0
 30
0.0
 70
     1
  0
VERTEX
  5
88F
  8
LAYER_1
 10
-492.9853880992861
 20
222.0730517868083
 30
0.0
  0
VERTEX
  5
890
  8
LAYER_1
 10
-484.9134194844356
 20
217.6414564217588
 30
0.0
  0
VERTEX
  5
891
  8
LAYER_1
 10
-476.8524780766543
 20
213.1848163508132
 30
0.0
  0
VERTEX
  5
892
  8
LAYER_1
 10
-477.990486193144
 20
191.9565731131012
 30
0.0
  0
VERTEX
  5
893
  8
LAYER_1
 10
-481.92979934913
 20
196.9595996298665
 30
0.0
  0
VERTEX
  5
894
  8
LAYER_1
 10
-485.8825655042301
 20
201.9493312342124
 30
0.0
  0
VERTEX
  5
895
  8
LAYER_1
 10
-499.3657726579916
 20
197.7680023542009
 30
0.0
  0
VERTEX
  5
896
  8
LAYER_1
 10
-495.6483468948943
 20
203.038555785982
 30
0.0
  0
VERTEX
  5
897
  8
LAYER_1
 10
-491.9235461743488
 20
208.3025898678356
 30
0.0
  0
SEQEND
  5
898
  8
LAYER_1
  0
POLYLINE
  5
B2
  8
LAYER_1
 66
     1
 10
0.0
 20
0.0
 30
0.0
 70
     1
  0
VERTEX
  5
899
  8
LAYER_1
 10
-497.4404375905266
 20
224.8106069331727
 30
0.0
  0
VERTEX
  5
89A
  8
LAYER_1
 10
-498.6529068396334
 20
222.5339007376101
 30
0.0
  0
VERTEX
  5
89B
  8
LAYER_1
 10
-500.7194908975979
 20
222.5325849950086
 30
0.0
  0
VERTEX
  5
89C
  8
LAYER_1
 10
-500.8602629398365
 20
226.1045793020019
 30
0.0
  0
SEQEND
  5
89D
  8
LAYER_1
  0
POLYLINE
  5
B3
  8
LAYER_1
 66
     1
 10
0.0
 20
0.0
 30
0.0
 70
     1
  0
VERTEX
  5
89E
  8
LAYER_1
 10
-393.9400480908251
 20
226.1045793020019
 30
0.0
  0
VERTEX
  5
89F
  8
LAYER_1
 10
-394.0808201330638
 20
222.5325849950086
 30
0.0
  0
VERTEX
  5
8A0
  8
LAYER_1
 10
-396.1474041910282
 20
222.5339007376101
 30
0.0
  0
VERTEX
  5
8A1
  8
LAYER_1
 10
-397.3598734401351
 20
224.8106069331727
 30
0.0
  0
SEQEND
  5
8A2
  8
LAYER_1
  0
POLYLINE
  5
B4
  8
LAYER_1
 66
     1
 10
0.0
 20
0.0
 30
0.0
 70
     1
  0
VERTEX
  5
8A3
  8
LAYER_1
 10
390.4439330175866
 20
296.1672169046979
 30
0.0
  0
VERTEX
  5
8A4
  8
LAYER_1
 10
396.8460469731804
 20
299.5664587468457
 30
0.0
  0
VERTEX
  5
8A5
  8
LAYER_1
 10
403.2349904818591
 20
302.9859568401799
 30
0.0
  0
VERTEX
  5
8A6
  8
LAYER_1
 10
409.610808767306
 20
306.4256692674982
 30
0.0
  0
VERTEX
  5
8A7
  8
LAYER_1
 10
415.9735470532044
 20
309.8855541115979
 30
0.0
  0
VERTEX
  5
8A8
  8
LAYER_1
 10
404.8732113562104
 20
310.1093340333791
 30
0.0
  0
VERTEX
  5
8A9
  8
LAYER_1
 10
401.2876721640476
 20
320.9121821455932
 30
0.0
  0
VERTEX
  5
8AA
  8
LAYER_1
 10
397.6956886996976
 20
331.7166529123936
 30
0.0
  0
VERTEX
  5
8AB
  8
LAYER_1
 10
394.085146978948
 20
342.5227664582536
 30
0.0
  0
VERTEX
  5
8AC
  8
LAYER_1
 10
392.2691311523571
 20
347.926445562229
 30
0.0
  0
VERTEX
  5
8AD
  8
LAYER_1
 10
390.4439330175866
 20
353.3305429076468
 30
0.0
  0
VERTEX
  5
8AE
  8
LAYER_1
 10
388.6187348828161
 20
347.926445562229
 30
0.0
  0
VERTEX
  5
8AF
  8
LAYER_1
 10
386.802719056225
 20
342.5227664582536
 30
0.0
  0
VERTEX
  5
8B0
  8
LAYER_1
 10
383.1921773354754
 20
331.7166529123936
 30
0.0
  0
VERTEX
  5
8B1
  8
LAYER_1
 10
379.6001938711255
 20
320.9121821455932
 30
0.0
  0
VERTEX
  5
8B2
  8
LAYER_1
 10
376.0146546789628
 20
310.1093340333791
 30
0.0
  0
VERTEX
  5
8B3
  8
LAYER_1
 10
364.9143189819687
 20
309.8855541115979
 30
0.0
  0
VERTEX
  5
8B4
  8
LAYER_1
 10
371.2770572678671
 20
306.4256692674982
 30
0.0
  0
VERTEX
  5
8B5
  8
LAYER_1
 10
377.652875553314
 20
302.9859568401799
 30
0.0
  0
VERTEX
  5
8B6
  8
LAYER_1
 10
384.0418190619927
 20
299.5664587468457
 30
0.0
  0
SEQEND
  5
8B7
  8
LAYER_1
  0
POLYLINE
  5
B5
  8
LAYER_1
 66
     1
 10
0.0
 20
0.0
 30
0.0
 70
     1
  0
VERTEX
  5
8B8
  8
LAYER_1
 10
390.4439330175866
 20
231.6694570923535
 30
0.0
  0
VERTEX
  5
8B9
  8
LAYER_1
 10
392.2691311523571
 20
237.0735544377713
 30
0.0
  0
VERTEX
  5
8BA
  8
LAYER_1
 10
394.085146978948
 20
242.4772335417466
 30
0.0
  0
VERTEX
  5
8BB
  8
LAYER_1
 10
397.6956886996977
 20
253.2833470876066
 30
0.0
  0
VERTEX
  5
8BC
  8
LAYER_1
 10
401.2876721640477
 20
264.0878178544068
 30
0.0
  0
VERTEX
  5
8BD
  8
LAYER_1
 10
404.8732113562106
 20
274.8906659666209
 30
0.0
  0
VERTEX
  5
8BE
  8
LAYER_1
 10
415.9735470532044
 20
275.1144458884021
 30
0.0
  0
VERTEX
  5
8BF
  8
LAYER_1
 10
409.610808767306
 20
278.5743307325019
 30
0.0
  0
VERTEX
  5
8C0
  8
LAYER_1
 10
403.234990481859
 20
282.0140431598202
 30
0.0
  0
VERTEX
  5
8C1
  8
LAYER_1
 10
396.8460469731804
 20
285.4335412531544
 30
0.0
  0
VERTEX
  5
8C2
  8
LAYER_1
 10
390.4439330175866
 20
288.8327830953021
 30
0.0
  0
VERTEX
  5
8C3
  8
LAYER_1
 10
384.0418190619928
 20
285.4335412531544
 30
0.0
  0
VERTEX
  5
8C4
  8
LAYER_1
 10
377.6528755533141
 20
282.0140431598202
 30
0.0
  0
VERTEX
  5
8C5
  8
LAYER_1
 10
371.2770572678671
 20
278.5743307325019
 30
0.0
  0
VERTEX
  5
8C6
  8
LAYER_1
 10
364.9143189819687
 20
275.1144458884021
 30
0.0
  0
VERTEX
  5
8C7
  8
LAYER_1
 10
376.0146546789625
 20
274.8906659666209
 30
0.0
  0
VERTEX
  5
8C8
  8
LAYER_1
 10
379.6001938711253
 20
264.0878178544068
 30
0.0
  0
VERTEX
  5
8C9
  8
LAYER_1
 10
383.1921773354754
 20
253.2833470876066
 30
0.0
  0
VERTEX
  5
8CA
  8
LAYER_1
 10
386.802719056225
 20
242.4772335417466
 30
0.0
  0
VERTEX
  5
8CB
  8
LAYER_1
 10
388.6187348828161
 20
237.0735544377713
 30
0.0
  0
SEQEND
  5
8CC
  8
LAYER_1
  0
POLYLINE
  5
B6
  8
LAYER_1
 66
     1
 10
0.0
 20
0.0
 30
0.0
 70
     1
  0
VERTEX
  5
8CD
  8
LAYER_1
 10
-443.8327830953023
 20
-224.2632831000996
 30
0.0
  0
VERTEX
  5
8CE
  8
LAYER_1
 10
-440.4335412531543
 20
-217.6624469786989
 30
0.0
  0
VERTEX
  5
8CF
  8
LAYER_1
 10
-437.0140431598199
 20
-211.0749460231484
 30
0.0
  0
VERTEX
  5
8D0
  8
LAYER_1
 10
-433.5743307325017
 20
-204.5008153122731
 30
0.0
  0
VERTEX
  5
8D1
  8
LAYER_1
 10
-430.114445888402
 20
-197.9400899248975
 30
0.0
  0
VERTEX
  5
8D2
  8
LAYER_1
 10
-429.8906659666208
 20
-209.3858546430206
 30
0.0
  0
VERTEX
  5
8D3
  8
LAYER_1
 10
-419.0878178544066
 20
-213.0829880554045
 30
0.0
  0
VERTEX
  5
8D4
  8
LAYER_1
 10
-408.2833470876063
 20
-216.7868657413728
 30
0.0
  0
VERTEX
  5
8D5
  8
LAYER_1
 10
-397.4772335417464
 20
-220.5100781211155
 30
0.0
  0
VERTEX
  5
8D6
  8
LAYER_1
 10
-392.0735544377711
 20
-222.3828693274616
 30
0.0
  0
VERTEX
  5
8D7
  8
LAYER_1
 10
-386.6694570923534
 20
-224.2652156148227
 30
0.0
  0
VERTEX
  5
8D8
  8
LAYER_1
 10
-392.0735544377711
 20
-226.2012385874592
 30
0.0
  0
VERTEX
  5
8D9
  8
LAYER_1
 10
-397.4772335417464
 20
-228.1277514679977
 30
0.0
  0
VERTEX
  5
8DA
  8
LAYER_1
 10
-408.2833470876063
 20
-231.9585408488973
 30
0.0
  0
VERTEX
  5
8DB
  8
LAYER_1
 10
-419.0878178544066
 20
-235.7701715497551
 30
0.0
  0
VERTEX
  5
8DC
  8
LAYER_1
 10
-429.8906659666208
 20
-239.5752313628046
 30
0.0
  0
VERTEX
  5
8DD
  8
LAYER_1
 10
-430.114445888402
 20
-251.355310965371
 30
0.0
  0
VERTEX
  5
8DE
  8
LAYER_1
 10
-433.5743307325017
 20
-244.6029563614171
 30
0.0
  0
VERTEX
  5
8DF
  8
LAYER_1
 10
-437.0140431598199
 20
-237.8368076213967
 30
0.0
  0
VERTEX
  5
8E0
  8
LAYER_1
 10
-440.4335412531543
 20
-231.0569035870457
 30
0.0
  0
SEQEND
  5
8E1
  8
LAYER_1
  0
POLYLINE
  5
B7
  8
LAYER_1
 66
     1
 10
0.0
 20
0.0
 30
0.0
 70
     1
  0
VERTEX
  5
8E2
  8
LAYER_1
 10
-508.3305429076464
 20
-224.2652156148227
 30
0.0
  0
VERTEX
  5
8E3
  8
LAYER_1
 10
-502.9264455622287
 20
-222.3828693274615
 30
0.0
  0
VERTEX
  5
8E4
  8
LAYER_1
 10
-497.5227664582533
 20
-220.5100781211154
 30
0.0
  0
VERTEX
  5
8E5
  8
LAYER_1
 10
-486.7166529123933
 20
-216.7868657413727
 30
0.0
  0
VERTEX
  5
8E6
  8
LAYER_1
 10
-475.9121821455931
 20
-213.0829880554045
 30
0.0
  0
VERTEX
  5
8E7
  8
LAYER_1
 10
-465.109334033379
 20
-209.3858546430206
 30
0.0
  0
VERTEX
  5
8E8
  8
LAYER_1
 10
-464.8855541115979
 20
-197.9400899248978
 30
0.0
  0
VERTEX
  5
8E9
  8
LAYER_1
 10
-461.4256692674981
 20
-204.5008153122732
 30
0.0
  0
VERTEX
  5
8EA
  8
LAYER_1
 10
-457.9859568401798
 20
-211.0749460231485
 30
0.0
  0
VERTEX
  5
8EB
  8
LAYER_1
 10
-454.5664587468455
 20
-217.6624469786989
 30
0.0
  0
VERTEX
  5
8EC
  8
LAYER_1
 10
-451.1672169046976
 20
-224.2632831000996
 30
0.0
  0
VERTEX
  5
8ED
  8
LAYER_1
 10
-454.5664587468455
 20
-231.0569035870456
 30
0.0
  0
VERTEX
  5
8EE
  8
LAYER_1
 10
-457.9859568401798
 20
-237.8368076213966
 30
0.0
  0
VERTEX
  5
8EF
  8
LAYER_1
 10
-461.4256692674981
 20
-244.6029563614169
 30
0.0
  0
VERTEX
  5
8F0
  8
LAYER_1
 10
-464.8855541115979
 20
-251.3553109653708
 30
0.0
  0
VERTEX
  5
8F1
  8
LAYER_1
 10
-465.109334033379
 20
-239.5752313628046
 30
0.0
  0
VERTEX
  5
8F2
  8
LAYER_1
 10
-475.9121821455931
 20
-235.770171549755
 30
0.0
  0
VERTEX
  5
8F3
  8
LAYER_1
 10
-486.7166529123933
 20
-231.9585408488973
 30
0.0
  0
VERTEX
  5
8F4
  8
LAYER_1
 10
-497.5227664582533
 20
-228.1277514679978
 30
0.0
  0
VERTEX
  5
8F5
  8
LAYER_1
 10
-502.9264455622287
 20
-226.2012385874593
 30
0.0
  0
SEQEND
  5
8F6
  8
LAYER_1
  0
POLYLINE
  5
B8
  8
LAYER_1
 66
     1
 10
0.0
 20
0.0
 30
0.0
 70
     1
  0
VERTEX
  5
8F7
  8
LAYER_1
 10
-377.5234838702656
 20
362.4764643052669
 30
0.0
  0
VERTEX
  5
8F8
  8
LAYER_1
 10
-349.0855023235101
 20
362.4896098300007
 30
0.0
  0
VERTEX
  5
8F9
  8
LAYER_1
 10
-356.5707365172736
 20
355.8130347415279
 30
0.0
  0
VERTEX
  5
8FA
  8
LAYER_1
 10
-364.0405729622802
 20
349.1226919200262
 30
0.0
  0
VERTEX
  5
8FB
  8
LAYER_1
 10
-373.8806742153966
 20
352.2334355290927
 30
0.0
  0
VERTEX
  5
8FC
  8
LAYER_1
 10
-379.3282751383273
 20
353.9628800372134
 30
0.0
  0
VERTEX
  5
8FD
  8
LAYER_1
 10
-384.4430628799755
 20
355.5939439470295
 30
0.0
  0
VERTEX
  5
8FE
  8
LAYER_1
 10
-386.6275127057214
 20
362.4885574153037
 30
0.0
  0
SEQEND
  5
8FF
  8
LAYER_1
  0
POLYLINE
  5
B9
  8
LAYER_1
 66
     1
 10
0.0
 20
0.0
 30
0.0
 70
     1
  0
VERTEX
  5
900
  8
LAYER_1
 10
-292.2273664209314
 20
310.1093340333791
 30
0.0
  0
VERTEX
  5
901
  8
LAYER_1
 10
-288.6418446202835
 20
320.9121821455932
 30
0.0
  0
VERTEX
  5
902
  8
LAYER_1
 10
-285.0499828965386
 20
331.7166529123936
 30
0.0
  0
VERTEX
  5
903
  8
LAYER_1
 10
-281.4397716145745
 20
342.5227664582536
 30
0.0
  0
VERTEX
  5
904
  8
LAYER_1
 10
-279.6240318782845
 20
347.926445562229
 30
0.0
  0
VERTEX
  5
905
  8
LAYER_1
 10
-277.7992011392691
 20
353.3305429076468
 30
0.0
  0
VERTEX
  5
906
  8
LAYER_1
 10
-275.9743704002537
 20
347.926445562229
 30
0.0
  0
VERTEX
  5
907
  8
LAYER_1
 10
-274.158630663964
 20
342.5227664582536
 30
0.0
  0
VERTEX
  5
908
  8
LAYER_1
 10
-270.5484193820001
 20
331.7166529123936
 30
0.0
  0
VERTEX
  5
909
  8
LAYER_1
 10
-266.9565576582553
 20
320.9121821455932
 30
0.0
  0
VERTEX
  5
90A
  8
LAYER_1
 10
-263.3710358576076
 20
310.1093340333791
 30
0.0
  0
VERTEX
  5
90B
  8
LAYER_1
 10
-252.2707001606135
 20
309.8855541115979
 30
0.0
  0
VERTEX
  5
90C
  8
LAYER_1
 10
-258.6334210549969
 20
306.4256692674982
 30
0.0
  0
VERTEX
  5
90D
  8
LAYER_1
 10
-265.0091175998386
 20
302.9859568401799
 30
0.0
  0
VERTEX
  5
90E
  8
LAYER_1
 10
-271.3977306697317
 20
299.5664587468457
 30
0.0
  0
VERTEX
  5
90F
  8
LAYER_1
 10
-277.7992011392694
 20
296.1672169046979
 30
0.0
  0
VERTEX
  5
910
  8
LAYER_1
 10
-284.2006716088069
 20
299.5664587468457
 30
0.0
  0
VERTEX
  5
911
  8
LAYER_1
 10
-290.5892846786999
 20
302.9859568401799
 30
0.0
  0
VERTEX
  5
912
  8
LAYER_1
 10
-296.9649812235416
 20
306.4256692674982
 30
0.0
  0
VERTEX
  5
913
  8
LAYER_1
 10
-303.3277021179252
 20
309.8855541115979
 30
0.0
  0
SEQEND
  5
914
  8
LAYER_1
  0
POLYLINE
  5
BA
  8
LAYER_1
 66
     1
 10
0.0
 20
0.0
 30
0.0
 70
     1
  0
VERTEX
  5
915
  8
LAYER_1
 10
-303.3277021179252
 20
275.1144458884021
 30
0.0
  0
VERTEX
  5
916
  8
LAYER_1
 10
-296.9649812235417
 20
278.5743307325019
 30
0.0
  0
VERTEX
  5
917
  8
LAYER_1
 10
-290.5892846787
 20
282.0140431598202
 30
0.0
  0
VERTEX
  5
918
  8
LAYER_1
 10
-284.2006716088069
 20
285.4335412531544
 30
0.0
  0
VERTEX
  5
919
  8
LAYER_1
 10
-277.7992011392694
 20
288.8327830953021
 30
0.0
  0
VERTEX
  5
91A
  8
LAYER_1
 10
-271.3977306697317
 20
285.4335412531544
 30
0.0
  0
VERTEX
  5
91B
  8
LAYER_1
 10
-265.0091175998386
 20
282.0140431598202
 30
0.0
  0
VERTEX
  5
91C
  8
LAYER_1
 10
-258.633421054997
 20
278.5743307325019
 30
0.0
  0
VERTEX
  5
91D
  8
LAYER_1
 10
-252.2707001606135
 20
275.1144458884021
 30
0.0
  0
VERTEX
  5
91E
  8
LAYER_1
 10
-263.3710358576074
 20
274.8906659666209
 30
0.0
  0
VERTEX
  5
91F
  8
LAYER_1
 10
-266.9565576582552
 20
264.0878178544068
 30
0.0
  0
VERTEX
  5
920
  8
LAYER_1
 10
-270.5484193820001
 20
253.2833470876066
 30
0.0
  0
VERTEX
  5
921
  8
LAYER_1
 10
-274.1586306639641
 20
242.4772335417466
 30
0.0
  0
VERTEX
  5
922
  8
LAYER_1
 10
-275.974370400254
 20
237.0735544377713
 30
0.0
  0
VERTEX
  5
923
  8
LAYER_1
 10
-277.7992011392694
 20
231.6694570923535
 30
0.0
  0
VERTEX
  5
924
  8
LAYER_1
 10
-279.6240318782848
 20
237.0735544377713
 30
0.0
  0
VERTEX
  5
925
  8
LAYER_1
 10
-281.4397716145746
 20
242.4772335417466
 30
0.0
  0
VERTEX
  5
926
  8
LAYER_1
 10
-285.0499828965386
 20
253.2833470876066
 30
0.0
  0
VERTEX
  5
927
  8
LAYER_1
 10
-288.6418446202833
 20
264.087817854407
 30
0.0
  0
VERTEX
  5
928
  8
LAYER_1
 10
-292.227366420931
 20
274.8906659666211
 30
0.0
  0
SEQEND
  5
929
  8
LAYER_1
  0
POLYLINE
  5
BB
  8
LAYER_1
 66
     1
 10
0.0
 20
0.0
 30
0.0
 70
     1
  0
VERTEX
  5
92A
  8
LAYER_1
 10
-264.8672866623058
 20
350.100197336197
 30
0.0
  0
VERTEX
  5
92B
  8
LAYER_1
 10
-264.8577141293929
 20
350.1624179205947
 30
0.0
  0
VERTEX
  5
92C
  8
LAYER_1
 10
-264.8297769532148
 20
350.2677290102267
 30
0.0
  0
VERTEX
  5
92D
  8
LAYER_1
 10
-264.7201035377581
 20
350.6078219843486
 30
0.0
  0
VERTEX
  5
92E
  8
LAYER_1
 10
-264.2946245213122
 20
351.8072860661122
 30
0.0
  0
VERTEX
  5
92F
  8
LAYER_1
 10
-263.6115674800972
 20
353.701778047974
 30
0.0
  0
VERTEX
  5
930
  8
LAYER_1
 10
-262.6916502812418
 20
356.2944863964203
 30
0.0
  0
VERTEX
  5
931
  8
LAYER_1
 10
-260.5212789187954
 20
362.5
 30
0.0
  0
VERTEX
  5
932
  8
LAYER_1
 10
-219.3222806007676
 20
362.493902656237
 30
0.0
  0
VERTEX
  5
933
  8
LAYER_1
 10
-215.0646152198176
 20
348.7167015256139
 30
0.0
  0
VERTEX
  5
934
  8
LAYER_1
 10
-210.7972326192241
 20
334.942055096443
 30
0.0
  0
VERTEX
  5
935
  8
LAYER_1
 10
-214.4996404693703
 20
331.6033045390343
 30
0.0
  0
VERTEX
  5
936
  8
LAYER_1
 10
-218.2108271271724
 20
328.2728255339174
 30
0.0
  0
VERTEX
  5
937
  8
LAYER_1
 10
-221.9307811435935
 20
324.9506678939599
 30
0.0
  0
VERTEX
  5
938
  8
LAYER_1
 10
-225.6594910695969
 20
321.6368814320292
 30
0.0
  0
VERTEX
  5
939
  8
LAYER_1
 10
-255.4067391392284
 20
322.0570982682266
 30
0.0
  0
VERTEX
  5
93A
  8
LAYER_1
 10
-260.0416605935884
 20
335.7806777450489
 30
0.0
  0
VERTEX
  5
93B
  8
LAYER_1
 10
-264.6675480312803
 20
349.5068467941344
 30
0.0
  0
VERTEX
  5
93C
  8
LAYER_1
 10
-264.7270481550911
 20
349.6538766010776
 30
0.0
  0
VERTEX
  5
93D
  8
LAYER_1
 10
-264.7929240343177
 20
349.8000348718211
 30
0.0
  0
VERTEX
  5
93E
  8
LAYER_1
 10
-264.8460465697819
 20
349.9479367392369
 30
0.0
  0
VERTEX
  5
93F
  8
LAYER_1
 10
-264.8618474901101
 20
350.0233587507194
 30
0.0
  0
SEQEND
  5
940
  8
LAYER_1
  0
POLYLINE
  5
BC
  8
LAYER_1
 66
     1
 10
0.0
 20
0.0
 30
0.0
 70
     1
  0
VERTEX
  5
941
  8
LAYER_1
 10
-264.867286662306
 20
234.8998026638033
 30
0.0
  0
VERTEX
  5
942
  8
LAYER_1
 10
-264.8618474901102
 20
234.9766412492809
 30
0.0
  0
VERTEX
  5
943
  8
LAYER_1
 10
-264.8460465697821
 20
235.0520632607634
 30
0.0
  0
VERTEX
  5
944
  8
LAYER_1
 10
-264.7929240343177
 20
235.1999651281791
 30
0.0
  0
VERTEX
  5
945
  8
LAYER_1
 10
-264.7270481550911
 20
235.3461233989225
 30
0.0
  0
VERTEX
  5
946
  8
LAYER_1
 10
-264.6675480312803
 20
235.4931532058658
 30
0.0
  0
VERTEX
  5
947
  8
LAYER_1
 10
-260.0416605935884
 20
249.2193222549512
 30
0.0
  0
VERTEX
  5
948
  8
LAYER_1
 10
-255.4067391392284
 20
262.9429017317734
 30
0.0
  0
VERTEX
  5
949
  8
LAYER_1
 10
-225.6594910695971
 20
263.3631185679712
 30
0.0
  0
VERTEX
  5
94A
  8
LAYER_1
 10
-221.9307811435936
 20
260.0493321060402
 30
0.0
  0
VERTEX
  5
94B
  8
LAYER_1
 10
-218.2108271271724
 20
256.7271744660827
 30
0.0
  0
VERTEX
  5
94C
  8
LAYER_1
 10
-214.4996404693703
 20
253.3966954609659
 30
0.0
  0
VERTEX
  5
94D
  8
LAYER_1
 10
-210.7972326192241
 20
250.0579449035572
 30
0.0
  0
VERTEX
  5
94E
  8
LAYER_1
 10
-215.0646152198176
 20
236.283298474386
 30
0.0
  0
VERTEX
  5
94F
  8
LAYER_1
 10
-219.3222806007676
 20
222.506097343763
 30
0.0
  0
VERTEX
  5
950
  8
LAYER_1
 10
-260.5212789187954
 20
222.5
 30
0.0
  0
VERTEX
  5
951
  8
LAYER_1
 10
-262.6916502812418
 20
228.7055136035797
 30
0.0
  0
VERTEX
  5
952
  8
LAYER_1
 10
-263.6115674800972
 20
231.298221952026
 30
0.0
  0
VERTEX
  5
953
  8
LAYER_1
 10
-264.2946245213123
 20
233.1927139338879
 30
0.0
  0
VERTEX
  5
954
  8
LAYER_1
 10
-264.7201035377582
 20
234.3921780156516
 30
0.0
  0
VERTEX
  5
955
  8
LAYER_1
 10
-264.8297769532149
 20
234.7322709897736
 30
0.0
  0
VERTEX
  5
956
  8
LAYER_1
 10
-264.8577141293931
 20
234.8375820794055
 30
0.0
  0
SEQEND
  5
957
  8
LAYER_1
  0
POLYLINE
  5
BD
  8
LAYER_1
 66
     1
 10
0.0
 20
0.0
 30
0.0
 70
     1
  0
VERTEX
  5
958
  8
LAYER_1
 10
-187.673951740092
 20
263.1475219233455
 30
0.0
  0
VERTEX
  5
959
  8
LAYER_1
 10
-183.3518114474611
 20
255.0865805155643
 30
0.0
  0
VERTEX
  5
95A
  8
LAYER_1
 10
-179.0539600206006
 20
247.0146119007138
 30
0.0
  0
VERTEX
  5
95B
  8
LAYER_1
 10
-192.4088344014485
 20
248.076453825651
 30
0.0
  0
VERTEX
  5
95C
  8
LAYER_1
 10
-197.5140018470514
 20
244.3516531051055
 30
0.0
  0
VERTEX
  5
95D
  8
LAYER_1
 10
-202.6254918909696
 20
240.6342273420084
 30
0.0
  0
VERTEX
  5
95E
  8
LAYER_1
 10
-198.5703539975464
 20
254.1174344957699
 30
0.0
  0
VERTEX
  5
95F
  8
LAYER_1
 10
-203.4094973147636
 20
258.07020065087
 30
0.0
  0
VERTEX
  5
960
  8
LAYER_1
 10
-208.2615343087727
 20
262.0095138068559
 30
0.0
  0
SEQEND
  5
961
  8
LAYER_1
  0
POLYLINE
  5
BE
  8
LAYER_1
 66
     1
 10
0.0
 20
0.0
 30
0.0
 70
     1
  0
VERTEX
  5
962
  8
LAYER_1
 10
-256.4824044027572
 20
292.5
 30
0.0
  0
VERTEX
  5
963
  8
LAYER_1
 10
-252.082576949402
 20
294.6639425725309
 30
0.0
  0
VERTEX
  5
964
  8
LAYER_1
 10
-247.687947461172
 20
296.8359218634595
 30
0.0
  0
VERTEX
  5
965
  8
LAYER_1
 10
-243.2985815379192
 20
299.0161196572597
 30
0.0
  0
VERTEX
  5
966
  8
LAYER_1
 10
-238.914544779496
 20
301.2047177384054
 30
0.0
  0
VERTEX
  5
967
  8
LAYER_1
 10
-234.5359027857544
 20
303.4018978913705
 30
0.0
  0
VERTEX
  5
968
  8
LAYER_1
 10
-230.1627211565466
 20
305.6078419006288
 30
0.0
  0
VERTEX
  5
969
  8
LAYER_1
 10
-225.7950654917249
 20
307.8227315506542
 30
0.0
  0
VERTEX
  5
96A
  8
LAYER_1
 10
-221.4330013911414
 20
310.0467486259206
 30
0.0
  0
VERTEX
  5
96B
  8
LAYER_1
 10
-221.2830757242931
 20
310.1324357249903
 30
0.0
  0
VERTEX
  5
96C
  8
LAYER_1
 10
-221.1352654059886
 20
310.2230766959769
 30
0.0
  0
VERTEX
  5
96D
  8
LAYER_1
 10
-220.9832445385705
 20
310.3038434024238
 30
0.0
  0
VERTEX
  5
96E
  8
LAYER_1
 10
-220.903678305926
 20
310.3358901138021
 30
0.0
  0
VERTEX
  5
96F
  8
LAYER_1
 10
-220.8206872243816
 20
310.3599077078741
 30
0.0
  0
VERTEX
  5
970
  8
LAYER_1
 10
-220.7426394883254
 20
310.3691133600125
 30
0.0
  0
VERTEX
  5
971
  8
LAYER_1
 10
-220.6071287034425
 20
310.3744239712759
 30
0.0
  0
VERTEX
  5
972
  8
LAYER_1
 10
-220.1638563886526
 20
310.3745080414204
 30
0.0
  0
VERTEX
  5
973
  8
LAYER_1
 10
-218.589277589172
 20
310.3405633638831
 30
0.0
  0
VERTEX
  5
974
  8
LAYER_1
 10
-216.0991652492431
 20
310.2764411991521
 30
0.0
  0
VERTEX
  5
975
  8
LAYER_1
 10
-212.695733792169
 20
310.2005090711173
 30
0.0
  0
VERTEX
  5
976
  8
LAYER_1
 10
-192.3833425122844
 20
309.8020118620848
 30
0.0
  0
VERTEX
  5
977
  8
LAYER_1
 10
-195.2285672860987
 20
305.4690552423989
 30
0.0
  0
VERTEX
  5
978
  8
LAYER_1
 10
-198.082816749446
 20
301.141073113197
 30
0.0
  0
VERTEX
  5
979
  8
LAYER_1
 10
-200.9461254922051
 20
296.8180573929178
 30
0.0
  0
VERTEX
  5
97A
  8
LAYER_1
 10
-203.8185281042552
 20
292.5
 30
0.0
  0
VERTEX
  5
97B
  8
LAYER_1
 10
-200.9461254922051
 20
288.1819426070822
 30
0.0
  0
VERTEX
  5
97C
  8
LAYER_1
 10
-198.082816749446
 20
283.858926886803
 30
0.0
  0
VERTEX
  5
97D
  8
LAYER_1
 10
-195.2285672860987
 20
279.5309447576012
 30
0.0
  0
VERTEX
  5
97E
  8
LAYER_1
 10
-192.3833425122844
 20
275.1979881379154
 30
0.0
  0
VERTEX
  5
97F
  8
LAYER_1
 10
-212.6957337921687
 20
274.7994909288832
 30
0.0
  0
VERTEX
  5
980
  8
LAYER_1
 10
-216.0991652492429
 20
274.7235588008482
 30
0.0
  0
VERTEX
  5
981
  8
LAYER_1
 10
-218.589277589172
 20
274.6594366361171
 30
0.0
  0
VERTEX
  5
982
  8
LAYER_1
 10
-220.1638563886526
 20
274.6254919585797
 30
0.0
  0
VERTEX
  5
983
  8
LAYER_1
 10
-220.6071287034425
 20
274.6255760287244
 30
0.0
  0
VERTEX
  5
984
  8
LAYER_1
 10
-220.7426394883254
 20
274.6308866399877
 30
0.0
  0
VERTEX
  5
985
  8
LAYER_1
 10
-220.8206872243816
 20
274.6400922921262
 30
0.0
  0
VERTEX
  5
986
  8
LAYER_1
 10
-220.903678305926
 20
274.664109886198
 30
0.0
  0
VERTEX
  5
987
  8
LAYER_1
 10
-220.9832445385705
 20
274.6961565975763
 30
0.0
  0
VERTEX
  5
988
  8
LAYER_1
 10
-221.1352654059886
 20
274.7769233040231
 30
0.0
  0
VERTEX
  5
989
  8
LAYER_1
 10
-221.2830757242931
 20
274.8675642750097
 30
0.0
  0
VERTEX
  5
98A
  8
LAYER_1
 10
-221.4330013911414
 20
274.9532513740794
 30
0.0
  0
VERTEX
  5
98B
  8
LAYER_1
 10
-225.7950654917249
 20
277.1772684493458
 30
0.0
  0
VERTEX
  5
98C
  8
LAYER_1
 10
-230.1627211565467
 20
279.3921580993713
 30
0.0
  0
VERTEX
  5
98D
  8
LAYER_1
 10
-234.5359027857545
 20
281.5981021086296
 30
0.0
  0
VERTEX
  5
98E
  8
LAYER_1
 10
-238.9145447794961
 20
283.7952822615947
 30
0.0
  0
VERTEX
  5
98F
  8
LAYER_1
 10
-243.2985815379194
 20
285.9838803427405
 30
0.0
  0
VERTEX
  5
990
  8
LAYER_1
 10
-247.6879474611721
 20
288.1640781365406
 30
0.0
  0
VERTEX
  5
991
  8
LAYER_1
 10
-252.0825769494021
 20
290.3360574274692
 30
0.0
  0
SEQEND
  5
992
  8
LAYER_1
  0
POLYLINE
  5
BF
  8
LAYER_1
 66
     1
 10
0.0
 20
0.0
 30
0.0
 70
     1
  0
VERTEX
  5
993
  8
LAYER_1
 10
-208.2615343087727
 20
322.9904861931441
 30
0.0
  0
VERTEX
  5
994
  8
LAYER_1
 10
-203.4094973147635
 20
326.9297993491301
 30
0.0
  0
VERTEX
  5
995
  8
LAYER_1
 10
-198.5703539975466
 20
330.8825655042301
 30
0.0
  0
VERTEX
  5
996
  8
LAYER_1
 10
-202.6254918909696
 20
344.3657726579916
 30
0.0
  0
VERTEX
  5
997
  8
LAYER_1
 10
-197.5140018470514
 20
340.6483468948945
 30
0.0
  0
VERTEX
  5
998
  8
LAYER_1
 10
-192.4088344014485
 20
336.923546174349
 30
0.0
  0
VERTEX
  5
999
  8
LAYER_1
 10
-179.0539600206006
 20
337.9853880992864
 30
0.0
  0
VERTEX
  5
99A
  8
LAYER_1
 10
-183.351811447461
 20
329.9134194844357
 30
0.0
  0
VERTEX
  5
99B
  8
LAYER_1
 10
-187.6739517400918
 20
321.8524780766547
 30
0.0
  0
SEQEND
  5
99C
  8
LAYER_1
  0
POLYLINE
  5
C0
  8
LAYER_1
 66
     1
 10
0.0
 20
0.0
 30
0.0
 70
     1
  0
VERTEX
  5
99D
  8
LAYER_1
 10
-172.3238000022737
 20
362.473517285875
 30
0.0
  0
VERTEX
  5
99E
  8
LAYER_1
 10
-173.0751269965648
 20
355.1998206432725
 30
0.0
  0
VERTEX
  5
99F
  8
LAYER_1
 10
-182.3237649864408
 20
352.1478780899919
 30
0.0
  0
VERTEX
  5
9A0
  8
LAYER_1
 10
-191.5827430046178
 20
349.1226919200262
 30
0.0
  0
VERTEX
  5
9A1
  8
LAYER_1
 10
-198.827142499387
 20
355.8130347415279
 30
0.0
  0
VERTEX
  5
9A2
  8
LAYER_1
 10
-206.0864750444492
 20
362.4896098300007
 30
0.0
  0
SEQEND
  5
9A3
  8
LAYER_1
  0
POLYLINE
  5
C1
  8
LAYER_1
 66
     1
 10
0.0
 20
0.0
 30
0.0
 70
     1
  0
VERTEX
  5
9A4
  8
LAYER_1
 10
-206.0864750444492
 20
222.5103901699993
 30
0.0
  0
VERTEX
  5
9A5
  8
LAYER_1
 10
-198.8271424993869
 20
229.1869652584721
 30
0.0
  0
VERTEX
  5
9A6
  8
LAYER_1
 10
-191.582743004618
 20
235.8773080799738
 30
0.0
  0
VERTEX
  5
9A7
  8
LAYER_1
 10
-182.3237649864409
 20
232.8521219100082
 30
0.0
  0
VERTEX
  5
9A8
  8
LAYER_1
 10
-173.0751269965648
 20
229.8001793567275
 30
0.0
  0
VERTEX
  5
9A9
  8
LAYER_1
 10
-172.3238000022737
 20
222.526482714125
 30
0.0
  0
SEQEND
  5
9AA
  8
LAYER_1
  0
POLYLINE
  5
C2
  8
LAYER_1
 66
     1
 10
0.0
 20
0.0
 30
0.0
 70
     1
  0
VERTEX
  5
9AB
  8
LAYER_1
 10
-162.4490995803051
 20
362.4674150049916
 30
0.0
  0
VERTEX
  5
9AC
  8
LAYER_1
 10
-160.4448842784531
 20
362.4660992623901
 30
0.0
  0
VERTEX
  5
9AD
  8
LAYER_1
 10
-159.2690069108135
 20
360.1893930668273
 30
0.0
  0
VERTEX
  5
9AE
  8
LAYER_1
 10
-162.5856231734493
 20
358.8954206979981
 30
0.0
  0
SEQEND
  5
9AF
  8
LAYER_1
  0
POLYLINE
  5
C3
  8
LAYER_1
 66
     1
 10
0.0
 20
0.0
 30
0.0
 70
     1
  0
VERTEX
  5
9B0
  8
LAYER_1
 10
-159.2690069108133
 20
224.8106069331727
 30
0.0
  0
VERTEX
  5
9B1
  8
LAYER_1
 10
-160.4448842784531
 20
222.5339007376099
 30
0.0
  0
VERTEX
  5
9B2
  8
LAYER_1
 10
-162.4490995803051
 20
222.5325849950086
 30
0.0
  0
VERTEX
  5
9B3
  8
LAYER_1
 10
-162.5856231734493
 20
226.1045793020019
 30
0.0
  0
SEQEND
  5
9B4
  8
LAYER_1
  0
POLYLINE
  5
C4
  8
LAYER_1
 66
     1
 10
0.0
 20
0.0
 30
0.0
 70
     1
  0
VERTEX
  5
9B5
  8
LAYER_1
 10
-192.1702605672895
 20
292.5
 30
0.0
  0
VERTEX
  5
9B6
  8
LAYER_1
 10
-189.5834487866435
 20
297.0611907292339
 30
0.0
  0
VERTEX
  5
9B7
  8
LAYER_1
 10
-187.0050169615014
 20
301.624043799429
 30
0.0
  0
VERTEX
  5
9B8
  8
LAYER_1
 10
-184.4349386349134
 20
306.1893151255812
 30
0.0
  0
VERTEX
  5
9B9
  8
LAYER_1
 10
-181.8731873499296
 20
310.7577606226866
 30
0.0
  0
VERTEX
  5
9BA
  8
LAYER_1
 10
-170.0851976406682
 20
310.5330673336214
 30
0.0
  0
VERTEX
  5
9BB
  8
LAYER_1
 10
-165.4379310847835
 20
306.0477613306409
 30
0.0
  0
VERTEX
  5
9BC
  8
LAYER_1
 10
-160.7965032083908
 20
301.5511941830464
 30
0.0
  0
VERTEX
  5
9BD
  8
LAYER_1
 10
-156.1608768729154
 20
297.0372967773341
 30
0.0
  0
VERTEX
  5
9BE
  8
LAYER_1
 10
-151.5310149397823
 20
292.5
 30
0.0
  0
VERTEX
  5
9BF
  8
LAYER_1
 10
-156.1608768729155
 20
287.9627032226659
 30
0.0
  0
VERTEX
  5
9C0
  8
LAYER_1
 10
-160.7965032083909
 20
283.4488058169536
 30
0.0
  0
VERTEX
  5
9C1
  8
LAYER_1
 10
-165.4379310847835
 20
278.9522386693592
 30
0.0
  0
VERTEX
  5
9C2
  8
LAYER_1
 10
-170.0851976406682
 20
274.4669326663789
 30
0.0
  0
VERTEX
  5
9C3
  8
LAYER_1
 10
-181.8731873499296
 20
274.2422393773136
 30
0.0
  0
VERTEX
  5
9C4
  8
LAYER_1
 10
-184.4349386349135
 20
278.8106848744188
 30
0.0
  0
VERTEX
  5
9C5
  8
LAYER_1
 10
-187.0050169615015
 20
283.3759562005711
 30
0.0
  0
VERTEX
  5
9C6
  8
LAYER_1
 10
-189.5834487866436
 20
287.9388092707661
 30
0.0
  0
SEQEND
  5
9C7
  8
LAYER_1
  0
POLYLINE
  5
C5
  8
LAYER_1
 66
     1
 10
0.0
 20
0.0
 30
0.0
 70
     1
  0
VERTEX
  5
9C8
  8
LAYER_1
 10
-177.0303102120801
 20
321.586027857054
 30
0.0
  0
VERTEX
  5
9C9
  8
LAYER_1
 10
-174.5632005754037
 20
326.5449389243891
 30
0.0
  0
VERTEX
  5
9CA
  8
LAYER_1
 10
-172.1044706361451
 20
331.5073924813264
 30
0.0
  0
VERTEX
  5
9CB
  8
LAYER_1
 10
-169.6542911124898
 20
336.4734375730416
 30
0.0
  0
VERTEX
  5
9CC
  8
LAYER_1
 10
-167.2128327226234
 20
341.4431232447105
 30
0.0
  0
VERTEX
  5
9CD
  8
LAYER_1
 10
-166.1045552464289
 20
343.7281442968163
 30
0.0
  0
VERTEX
  5
9CE
  8
LAYER_1
 10
-165.3030114599227
 20
345.4045926378858
 30
0.0
  0
VERTEX
  5
9CF
  8
LAYER_1
 10
-164.7905482767171
 20
346.461757362167
 30
0.0
  0
VERTEX
  5
9D0
  8
LAYER_1
 10
-164.6372053218559
 20
346.7547612099645
 30
0.0
  0
VERTEX
  5
9D1
  8
LAYER_1
 10
-164.5852906004489
 20
346.8417827526193
 30
0.0
  0
VERTEX
  5
9D2
  8
LAYER_1
 10
-164.5495126104245
 20
346.8889275639081
 30
0.0
  0
VERTEX
  5
9D3
  8
LAYER_1
 10
-164.4861619255552
 20
346.9418856632016
 30
0.0
  0
VERTEX
  5
9D4
  8
LAYER_1
 10
-164.4157787252498
 20
346.9862692481714
 30
0.0
  0
VERTEX
  5
9D5
  8
LAYER_1
 10
-164.2604077034516
 20
347.0572302381588
 30
0.0
  0
VERTEX
  5
9D6
  8
LAYER_1
 10
-164.0963853952707
 20
347.1176452599066
 30
0.0
  0
VERTEX
  5
9D7
  8
LAYER_1
 10
-163.9366976509479
 20
347.1833490394515
 30
0.0
  0
VERTEX
  5
9D8
  8
LAYER_1
 10
-157.6579279897501
 20
350.2123187846763
 30
0.0
  0
VERTEX
  5
9D9
  8
LAYER_1
 10
-151.3891084220853
 20
353.2588120666639
 30
0.0
  0
VERTEX
  5
9DA
  8
LAYER_1
 10
-145.1301306726023
 20
356.322455379775
 30
0.0
  0
VERTEX
  5
9DB
  8
LAYER_1
 10
-138.8808864659496
 20
359.4028752183701
 30
0.0
  0
VERTEX
  5
9DC
  8
LAYER_1
 10
-139.2349013902303
 20
348.4946901980443
 30
0.0
  0
VERTEX
  5
9DD
  8
LAYER_1
 10
-133.522849851335
 20
342.7945678509041
 30
0.0
  0
VERTEX
  5
9DE
  8
LAYER_1
 10
-127.8197760985176
 20
337.0868014832141
 30
0.0
  0
VERTEX
  5
9DF
  8
LAYER_1
 10
-122.1255893391753
 20
331.37150060205
 30
0.0
  0
VERTEX
  5
9E0
  8
LAYER_1
 10
-116.4401987807058
 20
325.6487747144872
 30
0.0
  0
VERTEX
  5
9E1
  8
LAYER_1
 10
-120.2742624656867
 20
321.9071128687588
 30
0.0
  0
VERTEX
  5
9E2
  8
LAYER_1
 10
-138.6492577831935
 20
321.7034794841379
 30
0.0
  0
VERTEX
  5
9E3
  8
LAYER_1
 10
-139.240675235673
 20
303.2831700801762
 30
0.0
  0
VERTEX
  5
9E4
  8
LAYER_1
 10
-143.5147134418807
 20
299.9364985451064
 30
0.0
  0
VERTEX
  5
9E5
  8
LAYER_1
 10
-149.1140578405579
 20
305.3219566027253
 30
0.0
  0
VERTEX
  5
9E6
  8
LAYER_1
 10
-154.7218688942572
 20
310.699935164112
 30
0.0
  0
VERTEX
  5
9E7
  8
LAYER_1
 10
-160.3382150496119
 20
316.0703402089073
 30
0.0
  0
VERTEX
  5
9E8
  8
LAYER_1
 10
-165.9631647532555
 20
321.4330777167525
 30
0.0
  0
SEQEND
  5
9E9
  8
LAYER_1
  0
POLYLINE
  5
C6
  8
LAYER_1
 66
     1
 10
0.0
 20
0.0
 30
0.0
 70
     1
  0
VERTEX
  5
9EA
  8
LAYER_1
 10
-165.9631647532555
 20
263.5669222832475
 30
0.0
  0
VERTEX
  5
9EB
  8
LAYER_1
 10
-160.3382150496119
 20
268.9296597910928
 30
0.0
  0
VERTEX
  5
9EC
  8
LAYER_1
 10
-154.7218688942572
 20
274.3000648358881
 30
0.0
  0
VERTEX
  5
9ED
  8
LAYER_1
 10
-149.1140578405579
 20
279.6780433972748
 30
0.0
  0
VERTEX
  5
9EE
  8
LAYER_1
 10
-143.5147134418807
 20
285.0635014548939
 30
0.0
  0
VERTEX
  5
9EF
  8
LAYER_1
 10
-139.240675235673
 20
281.7168299198238
 30
0.0
  0
VERTEX
  5
9F0
  8
LAYER_1
 10
-138.6492577831935
 20
263.2965205158623
 30
0.0
  0
VERTEX
  5
9F1
  8
LAYER_1
 10
-120.2742624656867
 20
263.0928871312412
 30
0.0
  0
VERTEX
  5
9F2
  8
LAYER_1
 10
-116.4401987807058
 20
259.3512252855128
 30
0.0
  0
VERTEX
  5
9F3
  8
LAYER_1
 10
-122.1255893391753
 20
253.6284993979502
 30
0.0
  0
VERTEX
  5
9F4
  8
LAYER_1
 10
-127.8197760985175
 20
247.9131985167861
 30
0.0
  0
VERTEX
  5
9F5
  8
LAYER_1
 10
-133.522849851335
 20
242.2054321490961
 30
0.0
  0
VERTEX
  5
9F6
  8
LAYER_1
 10
-139.2349013902302
 20
236.5053098019557
 30
0.0
  0
VERTEX
  5
9F7
  8
LAYER_1
 10
-138.8808864659494
 20
225.5971247816301
 30
0.0
  0
VERTEX
  5
9F8
  8
LAYER_1
 10
-145.1301306726021
 20
228.6775446202251
 30
0.0
  0
VERTEX
  5
9F9
  8
LAYER_1
 10
-151.3891084220853
 20
231.7411879333362
 30
0.0
  0
VERTEX
  5
9FA
  8
LAYER_1
 10
-157.65792798975
 20
234.7876812153239
 30
0.0
  0
VERTEX
  5
9FB
  8
LAYER_1
 10
-163.9366976509477
 20
237.8166509605487
 30
0.0
  0
VERTEX
  5
9FC
  8
LAYER_1
 10
-164.0963853952706
 20
237.8823547400935
 30
0.0
  0
VERTEX
  5
9FD
  8
LAYER_1
 10
-164.2604077034516
 20
237.9427697618413
 30
0.0
  0
VERTEX
  5
9FE
  8
LAYER_1
 10
-164.4157787252498
 20
238.0137307518285
 30
0.0
  0
VERTEX
  5
9FF
  8
LAYER_1
 10
-164.4861619255551
 20
238.0581143367984
 30
0.0
  0
VERTEX
  5
A00
  8
LAYER_1
 10
-164.5495126104243
 20
238.1110724360919
 30
0.0
  0
VERTEX
  5
A01
  8
LAYER_1
 10
-164.5852906004487
 20
238.1582172473808
 30
0.0
  0
VERTEX
  5
A02
  8
LAYER_1
 10
-164.6372053218558
 20
238.2452387900354
 30
0.0
  0
VERTEX
  5
A03
  8
LAYER_1
 10
-164.790548276717
 20
238.538242637833
 30
0.0
  0
VERTEX
  5
A04
  8
LAYER_1
 10
-165.3030114599226
 20
239.5954073621142
 30
0.0
  0
VERTEX
  5
A05
  8
LAYER_1
 10
-166.1045552464288
 20
241.2718557031837
 30
0.0
  0
VERTEX
  5
A06
  8
LAYER_1
 10
-167.2128327226232
 20
243.5568767552895
 30
0.0
  0
VERTEX
  5
A07
  8
LAYER_1
 10
-169.6542911124897
 20
248.5265624269584
 30
0.0
  0
VERTEX
  5
A08
  8
LAYER_1
 10
-172.1044706361449
 20
253.4926075186736
 30
0.0
  0
VERTEX
  5
A09
  8
LAYER_1
 10
-174.5632005754036
 20
258.455061075611
 30
0.0
  0
VERTEX
  5
A0A
  8
LAYER_1
 10
-177.0303102120801
 20
263.4139721429462
 30
0.0
  0
SEQEND
  5
A0B
  8
LAYER_1
  0
POLYLINE
  5
C7
  8
LAYER_1
 66
     1
 10
0.0
 20
0.0
 30
0.0
 70
     1
  0
VERTEX
  5
A0C
  8
LAYER_1
 10
-127.2474127341582
 20
362.4405249784288
 30
0.0
  0
VERTEX
  5
A0D
  8
LAYER_1
 10
-94.23043200546087
 20
362.4405249784288
 30
0.0
  0
VERTEX
  5
A0E
  8
LAYER_1
 10
-93.93926522814093
 20
352.6340164222981
 30
0.0
  0
VERTEX
  5
A0F
  8
LAYER_1
 10
-102.3389259160386
 20
344.6721750340462
 30
0.0
  0
VERTEX
  5
A10
  8
LAYER_1
 10
-110.7389223698097
 20
336.6933646587568
 30
0.0
  0
VERTEX
  5
A11
  8
LAYER_1
 10
-119.1389188235807
 20
344.6721750340462
 30
0.0
  0
VERTEX
  5
A12
  8
LAYER_1
 10
-127.5385795114785
 20
352.6340164222981
 30
0.0
  0
SEQEND
  5
A13
  8
LAYER_1
  0
POLYLINE
  5
C8
  8
LAYER_1
 66
     1
 10
0.0
 20
0.0
 30
0.0
 70
     1
  0
VERTEX
  5
A14
  8
LAYER_1
 10
-110.7389223698097
 20
248.306635341243
 30
0.0
  0
VERTEX
  5
A15
  8
LAYER_1
 10
-102.3389259160386
 20
240.3278249659539
 30
0.0
  0
VERTEX
  5
A16
  8
LAYER_1
 10
-93.93926522814093
 20
232.3659835777019
 30
0.0
  0
VERTEX
  5
A17
  8
LAYER_1
 10
-94.23043200546113
 20
222.5594750215712
 30
0.0
  0
VERTEX
  5
A18
  8
LAYER_1
 10
-127.2474127341582
 20
222.5594750215714
 30
0.0
  0
VERTEX
  5
A19
  8
LAYER_1
 10
-127.5385795114785
 20
232.3659835777019
 30
0.0
  0
VERTEX
  5
A1A
  8
LAYER_1
 10
-119.1389188235807
 20
240.3278249659539
 30
0.0
  0
SEQEND
  5
A1B
  8
LAYER_1
  0
POLYLINE
  5
C9
  8
LAYER_1
 66
     1
 10
0.0
 20
0.0
 30
0.0
 70
     1
  0
VERTEX
  5
A1C
  8
LAYER_1
 10
-134.2813651301483
 20
292.5
 30
0.0
  0
VERTEX
  5
A1D
  8
LAYER_1
 10
-132.3956546984001
 20
293.5622232255307
 30
0.0
  0
VERTEX
  5
A1E
  8
LAYER_1
 10
-130.5109409773511
 20
294.5969870860799
 30
0.0
  0
VERTEX
  5
A1F
  8
LAYER_1
 10
-126.7445150809645
 20
296.6228711572473
 30
0.0
  0
VERTEX
  5
A20
  8
LAYER_1
 10
-126.3448610685426
 20
310.3495508634376
 30
0.0
  0
VERTEX
  5
A21
  8
LAYER_1
 10
-117.3318133476263
 20
310.1804915162286
 30
0.0
  0
VERTEX
  5
A22
  8
LAYER_1
 10
-114.0321106052234
 20
313.3222144463133
 30
0.0
  0
VERTEX
  5
A23
  8
LAYER_1
 10
-110.7389223698097
 20
316.4702077091829
 30
0.0
  0
VERTEX
  5
A24
  8
LAYER_1
 10
-107.4457341343959
 20
313.3222144463133
 30
0.0
  0
VERTEX
  5
A25
  8
LAYER_1
 10
-104.1460313919932
 20
310.1804915162288
 30
0.0
  0
VERTEX
  5
A26
  8
LAYER_1
 10
-95.13298367107677
 20
310.3495508634376
 30
0.0
  0
VERTEX
  5
A27
  8
LAYER_1
 10
-94.73332965865487
 20
296.6228711572471
 30
0.0
  0
VERTEX
  5
A28
  8
LAYER_1
 10
-92.85061791921453
 20
295.613975192901
 30
0.0
  0
VERTEX
  5
A29
  8
LAYER_1
 10
-90.96690376226816
 20
294.5969870860798
 30
0.0
  0
VERTEX
  5
A2A
  8
LAYER_1
 10
-89.0821900412192
 20
293.5622232255306
 30
0.0
  0
VERTEX
  5
A2B
  8
LAYER_1
 10
-87.19647960947111
 20
292.5
 30
0.0
  0
VERTEX
  5
A2C
  8
LAYER_1
 10
-89.0821900412192
 20
291.4377767744694
 30
0.0
  0
VERTEX
  5
A2D
  8
LAYER_1
 10
-90.96690376226813
 20
290.4030129139201
 30
0.0
  0
VERTEX
  5
A2E
  8
LAYER_1
 10
-94.73332965865461
 20
288.3771288427529
 30
0.0
  0
VERTEX
  5
A2F
  8
LAYER_1
 10
-95.13298367107677
 20
274.6504491365624
 30
0.0
  0
VERTEX
  5
A30
  8
LAYER_1
 10
-104.1460313919932
 20
274.8195084837712
 30
0.0
  0
VERTEX
  5
A31
  8
LAYER_1
 10
-107.4457341343959
 20
271.6777855536868
 30
0.0
  0
VERTEX
  5
A32
  8
LAYER_1
 10
-110.7389223698095
 20
268.5297922908173
 30
0.0
  0
VERTEX
  5
A33
  8
LAYER_1
 10
-114.0321106052234
 20
271.6777855536867
 30
0.0
  0
VERTEX
  5
A34
  8
LAYER_1
 10
-117.331813347626
 20
274.8195084837712
 30
0.0
  0
VERTEX
  5
A35
  8
LAYER_1
 10
-126.3448610685426
 20
274.6504491365624
 30
0.0
  0
VERTEX
  5
A36
  8
LAYER_1
 10
-126.7445150809647
 20
288.3771288427529
 30
0.0
  0
VERTEX
  5
A37
  8
LAYER_1
 10
-128.6272268204049
 20
289.3860248070989
 30
0.0
  0
VERTEX
  5
A38
  8
LAYER_1
 10
-130.5109409773512
 20
290.4030129139201
 30
0.0
  0
VERTEX
  5
A39
  8
LAYER_1
 10
-132.3956546984001
 20
291.4377767744694
 30
0.0
  0
SEQEND
  5
A3A
  8
LAYER_1
  0
POLYLINE
  5
CA
  8
LAYER_1
 66
     1
 10
0.0
 20
0.0
 30
0.0
 70
     1
  0
VERTEX
  5
A3B
  8
LAYER_1
 10
-101.2035822739328
 20
263.0928871312412
 30
0.0
  0
VERTEX
  5
A3C
  8
LAYER_1
 10
-82.82858695642567
 20
263.2965205158623
 30
0.0
  0
VERTEX
  5
A3D
  8
LAYER_1
 10
-82.2371695039464
 20
281.7168299198238
 30
0.0
  0
VERTEX
  5
A3E
  8
LAYER_1
 10
-77.96313129773849
 20
285.0635014548939
 30
0.0
  0
VERTEX
  5
A3F
  8
LAYER_1
 10
-72.36378689906138
 20
279.6780433972748
 30
0.0
  0
VERTEX
  5
A40
  8
LAYER_1
 10
-66.75597584536212
 20
274.3000648358881
 30
0.0
  0
VERTEX
  5
A41
  8
LAYER_1
 10
-61.13962969000737
 20
268.9296597910928
 30
0.0
  0
VERTEX
  5
A42
  8
LAYER_1
 10
-55.51467998636379
 20
263.5669222832475
 30
0.0
  0
VERTEX
  5
A43
  8
LAYER_1
 10
-44.44753452753928
 20
263.4139721429462
 30
0.0
  0
VERTEX
  5
A44
  8
LAYER_1
 10
-46.91464416421573
 20
258.4550610756108
 30
0.0
  0
VERTEX
  5
A45
  8
LAYER_1
 10
-49.37337410347432
 20
253.4926075186735
 30
0.0
  0
VERTEX
  5
A46
  8
LAYER_1
 10
-51.82355362712959
 20
248.5265624269584
 30
0.0
  0
VERTEX
  5
A47
  8
LAYER_1
 10
-54.2650120169961
 20
243.5568767552895
 30
0.0
  0
VERTEX
  5
A48
  8
LAYER_1
 10
-55.37328949319051
 20
241.2718557031837
 30
0.0
  0
VERTEX
  5
A49
  8
LAYER_1
 10
-56.17483327969676
 20
239.5954073621142
 30
0.0
  0
VERTEX
  5
A4A
  8
LAYER_1
 10
-56.6872964629024
 20
238.5382426378329
 30
0.0
  0
VERTEX
  5
A4B
  8
LAYER_1
 10
-56.84063941776361
 20
238.2452387900353
 30
0.0
  0
VERTEX
  5
A4C
  8
LAYER_1
 10
-56.89255413917063
 20
238.1582172473806
 30
0.0
  0
VERTEX
  5
A4D
  8
LAYER_1
 10
-56.92833212919501
 20
238.1110724360917
 30
0.0
  0
VERTEX
  5
A4E
  8
LAYER_1
 10
-56.99168281406433
 20
238.0581143367983
 30
0.0
  0
VERTEX
  5
A4F
  8
LAYER_1
 10
-57.06206601436968
 20
238.0137307518285
 30
0.0
  0
VERTEX
  5
A50
  8
LAYER_1
 10
-57.21743703616796
 20
237.9427697618412
 30
0.0
  0
VERTEX
  5
A51
  8
LAYER_1
 10
-57.38145934434894
 20
237.8823547400935
 30
0.0
  0
VERTEX
  5
A52
  8
LAYER_1
 10
-57.54114708867166
 20
237.8166509605487
 30
0.0
  0
VERTEX
  5
A53
  8
LAYER_1
 10
-63.81991674986934
 20
234.7876812153239
 30
0.0
  0
VERTEX
  5
A54
  8
LAYER_1
 10
-70.08873631753409
 20
231.7411879333362
 30
0.0
  0
VERTEX
  5
A55
  8
LAYER_1
 10
-76.34771406701714
 20
228.677544620225
 30
0.0
  0
VERTEX
  5
A56
  8
LAYER_1
 10
-82.59695827366977
 20
225.5971247816299
 30
0.0
  0
VERTEX
  5
A57
  8
LAYER_1
 10
-82.2429433493888
 20
236.5053098019557
 30
0.0
  0
VERTEX
  5
A58
  8
LAYER_1
 10
-87.95499488828422
 20
242.2054321490961
 30
0.0
  0
VERTEX
  5
A59
  8
LAYER_1
 10
-93.65806864110169
 20
247.9131985167861
 30
0.0
  0
VERTEX
  5
A5A
  8
LAYER_1
 10
-99.35225540044388
 20
253.6284993979502
 30
0.0
  0
VERTEX
  5
A5B
  8
LAYER_1
 10
-105.0376459589134
 20
259.3512252855128
 30
0.0
  0
SEQEND
  5
A5C
  8
LAYER_1
  0
POLYLINE
  5
CB
  8
LAYER_1
 66
     1
 10
0.0
 20
0.0
 30
0.0
 70
     1
  0
VERTEX
  5
A5D
  8
LAYER_1
 10
-61.03296046116643
 20
362.4660992623901
 30
0.0
  0
VERTEX
  5
A5E
  8
LAYER_1
 10
-59.02874515931397
 20
362.4674150049916
 30
0.0
  0
VERTEX
  5
A5F
  8
LAYER_1
 10
-58.89222156617019
 20
358.8954206979981
 30
0.0
  0
VERTEX
  5
A60
  8
LAYER_1
 10
-62.20883782880595
 20
360.1893930668273
 30
0.0
  0
SEQEND
  5
A61
  8
LAYER_1
  0
POLYLINE
  5
CC
  8
LAYER_1
 66
     1
 10
0.0
 20
0.0
 30
0.0
 70
     1
  0
VERTEX
  5
A62
  8
LAYER_1
 10
-58.89222156616999
 20
226.1045793020019
 30
0.0
  0
VERTEX
  5
A63
  8
LAYER_1
 10
-59.0287451593142
 20
222.5325849950086
 30
0.0
  0
VERTEX
  5
A64
  8
LAYER_1
 10
-61.03296046116643
 20
222.5339007376099
 30
0.0
  0
VERTEX
  5
A65
  8
LAYER_1
 10
-62.20883782880595
 20
224.8106069331727
 30
0.0
  0
SEQEND
  5
A66
  8
LAYER_1
  0
POLYLINE
  5
CD
  8
LAYER_1
 66
     1
 10
0.0
 20
0.0
 30
0.0
 70
     1
  0
VERTEX
  5
A67
  8
LAYER_1
 10
-105.0376459589137
 20
325.6487747144872
 30
0.0
  0
VERTEX
  5
A68
  8
LAYER_1
 10
-99.35225540044408
 20
331.3715006020499
 30
0.0
  0
VERTEX
  5
A69
  8
LAYER_1
 10
-93.65806864110183
 20
337.086801483214
 30
0.0
  0
VERTEX
  5
A6A
  8
LAYER_1
 10
-87.95499488828435
 20
342.7945678509041
 30
0.0
  0
VERTEX
  5
A6B
  8
LAYER_1
 10
-82.24294334938904
 20
348.4946901980443
 30
0.0
  0
VERTEX
  5
A6C
  8
LAYER_1
 10
-82.59695827366977
 20
359.4028752183701
 30
0.0
  0
VERTEX
  5
A6D
  8
LAYER_1
 10
-76.34771406701714
 20
356.3224553797749
 30
0.0
  0
VERTEX
  5
A6E
  8
LAYER_1
 10
-70.08873631753409
 20
353.2588120666638
 30
0.0
  0
VERTEX
  5
A6F
  8
LAYER_1
 10
-63.81991674986934
 20
350.2123187846763
 30
0.0
  0
VERTEX
  5
A70
  8
LAYER_1
 10
-57.54114708867166
 20
347.1833490394515
 30
0.0
  0
VERTEX
  5
A71
  8
LAYER_1
 10
-57.38145934434891
 20
347.1176452599066
 30
0.0
  0
VERTEX
  5
A72
  8
LAYER_1
 10
-57.21743703616788
 20
347.0572302381588
 30
0.0
  0
VERTEX
  5
A73
  8
LAYER_1
 10
-57.06206601436958
 20
346.9862692481714
 30
0.0
  0
VERTEX
  5
A74
  8
LAYER_1
 10
-56.99168281406426
 20
346.9418856632016
 30
0.0
  0
VERTEX
  5
A75
  8
LAYER_1
 10
-56.92833212919501
 20
346.8889275639081
 30
0.0
  0
VERTEX
  5
A76
  8
LAYER_1
 10
-56.89255413917063
 20
346.8417827526193
 30
0.0
  0
VERTEX
  5
A77
  8
LAYER_1
 10
-56.84063941776361
 20
346.7547612099645
 30
0.0
  0
VERTEX
  5
A78
  8
LAYER_1
 10
-56.6872964629024
 20
346.461757362167
 30
0.0
  0
VERTEX
  5
A79
  8
LAYER_1
 10
-56.17483327969678
 20
345.4045926378858
 30
0.0
  0
VERTEX
  5
A7A
  8
LAYER_1
 10
-55.37328949319061
 20
343.7281442968163
 30
0.0
  0
VERTEX
  5
A7B
  8
LAYER_1
 10
-54.26501201699634
 20
341.4431232447105
 30
0.0
  0
VERTEX
  5
A7C
  8
LAYER_1
 10
-51.82355362712981
 20
336.4734375730416
 30
0.0
  0
VERTEX
  5
A7D
  8
LAYER_1
 10
-49.37337410347452
 20
331.5073924813264
 30
0.0
  0
VERTEX
  5
A7E
  8
LAYER_1
 10
-46.91464416421586
 20
326.5449389243891
 30
0.0
  0
VERTEX
  5
A7F
  8
LAYER_1
 10
-44.44753452753928
 20
321.586027857054
 30
0.0
  0
VERTEX
  5
A80
  8
LAYER_1
 10
-55.51467998636362
 20
321.4330777167525
 30
0.0
  0
VERTEX
  5
A81
  8
LAYER_1
 10
-61.13962969000732
 20
316.0703402089073
 30
0.0
  0
VERTEX
  5
A82
  8
LAYER_1
 10
-66.75597584536217
 20
310.6999351641119
 30
0.0
  0
VERTEX
  5
A83
  8
LAYER_1
 10
-72.36378689906145
 20
305.3219566027253
 30
0.0
  0
VERTEX
  5
A84
  8
LAYER_1
 10
-77.96313129773849
 20
299.9364985451061
 30
0.0
  0
VERTEX
  5
A85
  8
LAYER_1
 10
-82.2371695039464
 20
303.2831700801762
 30
0.0
  0
VERTEX
  5
A86
  8
LAYER_1
 10
-82.82858695642567
 20
321.7034794841381
 30
0.0
  0
VERTEX
  5
A87
  8
LAYER_1
 10
-101.2035822739328
 20
321.9071128687588
 30
0.0
  0
SEQEND
  5
A88
  8
LAYER_1
  0
POLYLINE
  5
CE
  8
LAYER_1
 66
     1
 10
0.0
 20
0.0
 30
0.0
 70
     1
  0
VERTEX
  5
A89
  8
LAYER_1
 10
-69.94682979983718
 20
292.5
 30
0.0
  0
VERTEX
  5
A8A
  8
LAYER_1
 10
-65.316967866704
 20
297.0372967773341
 30
0.0
  0
VERTEX
  5
A8B
  8
LAYER_1
 10
-60.68134153122851
 20
301.5511941830464
 30
0.0
  0
VERTEX
  5
A8C
  8
LAYER_1
 10
-56.03991365483582
 20
306.0477613306409
 30
0.0
  0
VERTEX
  5
A8D
  8
LAYER_1
 10
-51.39264709895107
 20
310.5330673336214
 30
0.0
  0
VERTEX
  5
A8E
  8
LAYER_1
 10
-39.60465738969
 20
310.7577606226866
 30
0.0
  0
VERTEX
  5
A8F
  8
LAYER_1
 10
-37.04290610470611
 20
306.1893151255812
 30
0.0
  0
VERTEX
  5
A90
  8
LAYER_1
 10
-34.47282777811802
 20
301.624043799429
 30
0.0
  0
VERTEX
  5
A91
  8
LAYER_1
 10
-31.89439595297596
 20
297.0611907292339
 30
0.0
  0
VERTEX
  5
A92
  8
LAYER_1
 10
-29.30758417233015
 20
292.5
 30
0.0
  0
VERTEX
  5
A93
  8
LAYER_1
 10
-31.89439595297603
 20
287.9388092707661
 30
0.0
  0
VERTEX
  5
A94
  8
LAYER_1
 10
-34.47282777811803
 20
283.375956200571
 30
0.0
  0
VERTEX
  5
A95
  8
LAYER_1
 10
-37.04290610470606
 20
278.8106848744188
 30
0.0
  0
VERTEX
  5
A96
  8
LAYER_1
 10
-39.60465738969
 20
274.2422393773134
 30
0.0
  0
VERTEX
  5
A97
  8
LAYER_1
 10
-51.39264709895107
 20
274.4669326663789
 30
0.0
  0
VERTEX
  5
A98
  8
LAYER_1
 10
-56.03991365483582
 20
278.9522386693593
 30
0.0
  0
VERTEX
  5
A99
  8
LAYER_1
 10
-60.68134153122851
 20
283.4488058169537
 30
0.0
  0
VERTEX
  5
A9A
  8
LAYER_1
 10
-65.316967866704
 20
287.9627032226659
 30
0.0
  0
SEQEND
  5
A9B
  8
LAYER_1
  0
POLYLINE
  5
CF
  8
LAYER_1
 66
     1
 10
0.0
 20
0.0
 30
0.0
 70
     1
  0
VERTEX
  5
A9C
  8
LAYER_1
 10
-29.0690103381712
 20
336.923546174349
 30
0.0
  0
VERTEX
  5
A9D
  8
LAYER_1
 10
-23.96384289256805
 20
340.6483468948945
 30
0.0
  0
VERTEX
  5
A9E
  8
LAYER_1
 10
-18.85235284864987
 20
344.3657726579916
 30
0.0
  0
VERTEX
  5
A9F
  8
LAYER_1
 10
-22.90749074207302
 20
330.8825655042301
 30
0.0
  0
VERTEX
  5
AA0
  8
LAYER_1
 10
-18.06834742485603
 20
326.9297993491301
 30
0.0
  0
VERTEX
  5
AA1
  8
LAYER_1
 10
-13.21631043084673
 20
322.9904861931441
 30
0.0
  0
VERTEX
  5
AA2
  8
LAYER_1
 10
-33.80389299952742
 20
321.8524780766547
 30
0.0
  0
VERTEX
  5
AA3
  8
LAYER_1
 10
-38.12603329215847
 20
329.9134194844358
 30
0.0
  0
VERTEX
  5
AA4
  8
LAYER_1
 10
-42.42388471901874
 20
337.9853880992864
 30
0.0
  0
SEQEND
  5
AA5
  8
LAYER_1
  0
POLYLINE
  5
D0
  8
LAYER_1
 66
     1
 10
0.0
 20
0.0
 30
0.0
 70
     1
  0
VERTEX
  5
AA6
  8
LAYER_1
 10
-8.78211094745054
 20
310.200509071117
 30
0.0
  0
VERTEX
  5
AA7
  8
LAYER_1
 10
-5.378679490376529
 20
310.276441199152
 30
0.0
  0
VERTEX
  5
AA8
  8
LAYER_1
 10
-2.888567150447619
 20
310.3405633638831
 30
0.0
  0
VERTEX
  5
AA9
  8
LAYER_1
 10
-1.313988350967072
 20
310.3745080414203
 30
0.0
  0
VERTEX
  5
AAA
  8
LAYER_1
 10
-0.8707160361772031
 20
310.3744239712757
 30
0.0
  0
VERTEX
  5
AAB
  8
LAYER_1
 10
-0.7352052512942667
 20
310.3691133600123
 30
0.0
  0
VERTEX
  5
AAC
  8
LAYER_1
 10
-0.657157515238147
 20
310.3599077078738
 30
0.0
  0
VERTEX
  5
AAD
  8
LAYER_1
 10
-0.5741664336938189
 20
310.335890113802
 30
0.0
  0
VERTEX
  5
AAE
  8
LAYER_1
 10
-0.4946002010492849
 20
310.3038434024237
 30
0.0
  0
VERTEX
  5
AAF
  8
LAYER_1
 10
-0.3425793336310718
 20
310.2230766959769
 30
0.0
  0
VERTEX
  5
AB0
  8
LAYER_1
 10
-0.194769015326453
 20
310.1324357249903
 30
0.0
  0
VERTEX
  5
AB1
  8
LAYER_1
 10
-0.0448433484783735
 20
310.0467486259206
 30
0.0
  0
VERTEX
  5
AB2
  8
LAYER_1
 10
4.317220752105158
 20
307.8227315506542
 30
0.0
  0
VERTEX
  5
AB3
  8
LAYER_1
 10
8.684876416926915
 20
305.6078419006288
 30
0.0
  0
VERTEX
  5
AB4
  8
LAYER_1
 10
13.05805804613471
 20
303.4018978913705
 30
0.0
  0
VERTEX
  5
AB5
  8
LAYER_1
 10
17.43670003987636
 20
301.2047177384054
 30
0.0
  0
VERTEX
  5
AB6
  8
LAYER_1
 10
21.82073679829966
 20
299.0161196572597
 30
0.0
  0
VERTEX
  5
AB7
  8
LAYER_1
 10
26.21010272155243
 20
296.8359218634595
 30
0.0
  0
VERTEX
  5
AB8
  8
LAYER_1
 10
30.60473220978248
 20
294.6639425725309
 30
0.0
  0
VERTEX
  5
AB9
  8
LAYER_1
 10
35.00455966313761
 20
292.5
 30
0.0
  0
VERTEX
  5
ABA
  8
LAYER_1
 10
30.60473220978241
 20
290.3360574274691
 30
0.0
  0
VERTEX
  5
ABB
  8
LAYER_1
 10
26.21010272155233
 20
288.1640781365405
 30
0.0
  0
VERTEX
  5
ABC
  8
LAYER_1
 10
21.82073679829956
 20
285.9838803427403
 30
0.0
  0
VERTEX
  5
ABD
  8
LAYER_1
 10
17.43670003987627
 20
283.7952822615946
 30
0.0
  0
VERTEX
  5
ABE
  8
LAYER_1
 10
13.05805804613465
 20
281.5981021086295
 30
0.0
  0
VERTEX
  5
ABF
  8
LAYER_1
 10
8.684876416926883
 20
279.3921580993712
 30
0.0
  0
VERTEX
  5
AC0
  8
LAYER_1
 10
4.317220752105148
 20
277.1772684493458
 30
0.0
  0
VERTEX
  5
AC1
  8
LAYER_1
 10
-0.0448433484783735
 20
274.9532513740794
 30
0.0
  0
VERTEX
  5
AC2
  8
LAYER_1
 10
-0.1947690153265119
 20
274.8675642750097
 30
0.0
  0
VERTEX
  5
AC3
  8
LAYER_1
 10
-0.3425793336310639
 20
274.776923304023
 30
0.0
  0
VERTEX
  5
AC4
  8
LAYER_1
 10
-0.494600201049214
 20
274.6961565975762
 30
0.0
  0
VERTEX
  5
AC5
  8
LAYER_1
 10
-0.5741664336937586
 20
274.664109886198
 30
0.0
  0
VERTEX
  5
AC6
  8
LAYER_1
 10
-0.657157515238147
 20
274.6400922921262
 30
0.0
  0
VERTEX
  5
AC7
  8
LAYER_1
 10
-0.7352052512942667
 20
274.6308866399877
 30
0.0
  0
VERTEX
  5
AC8
  8
LAYER_1
 10
-0.8707160361772031
 20
274.6255760287243
 30
0.0
  0
VERTEX
  5
AC9
  8
LAYER_1
 10
-1.313988350967072
 20
274.6254919585797
 30
0.0
  0
VERTEX
  5
ACA
  8
LAYER_1
 10
-2.888567150447619
 20
274.6594366361169
 30
0.0
  0
VERTEX
  5
ACB
  8
LAYER_1
 10
-5.378679490376529
 20
274.723558800848
 30
0.0
  0
VERTEX
  5
ACC
  8
LAYER_1
 10
-8.78211094745054
 20
274.799490928883
 30
0.0
  0
VERTEX
  5
ACD
  8
LAYER_1
 10
-29.0945022273351
 20
275.1979881379154
 30
0.0
  0
VERTEX
  5
ACE
  8
LAYER_1
 10
-26.24927745352086
 20
279.5309447576013
 30
0.0
  0
VERTEX
  5
ACF
  8
LAYER_1
 10
-23.39502799017367
 20
283.8589268868031
 30
0.0
  0
VERTEX
  5
AD0
  8
LAYER_1
 10
-20.53171924741453
 20
288.1819426070822
 30
0.0
  0
VERTEX
  5
AD1
  8
LAYER_1
 10
-17.65931663536445
 20
292.5
 30
0.0
  0
VERTEX
  5
AD2
  8
LAYER_1
 10
-20.53171924741453
 20
296.8180573929177
 30
0.0
  0
VERTEX
  5
AD3
  8
LAYER_1
 10
-23.39502799017367
 20
301.141073113197
 30
0.0
  0
VERTEX
  5
AD4
  8
LAYER_1
 10
-26.24927745352086
 20
305.4690552423989
 30
0.0
  0
VERTEX
  5
AD5
  8
LAYER_1
 10
-29.0945022273351
 20
309.8020118620848
 30
0.0
  0
SEQEND
  5
AD6
  8
LAYER_1
  0
POLYLINE
  5
D1
  8
LAYER_1
 66
     1
 10
0.0
 20
0.0
 30
0.0
 70
     1
  0
VERTEX
  5
AD7
  8
LAYER_1
 10
-15.39136969517031
 20
362.489609830001
 30
0.0
  0
VERTEX
  5
AD8
  8
LAYER_1
 10
-22.65070224023263
 20
355.8130347415278
 30
0.0
  0
VERTEX
  5
AD9
  8
LAYER_1
 10
-29.89510173500162
 20
349.122691920026
 30
0.0
  0
VERTEX
  5
ADA
  8
LAYER_1
 10
-39.15407975317856
 20
352.1478780899918
 30
0.0
  0
VERTEX
  5
ADB
  8
LAYER_1
 10
-48.4027177430545
 20
355.1998206432725
 30
0.0
  0
VERTEX
  5
ADC
  8
LAYER_1
 10
-49.15404473734569
 20
362.473517285875
 30
0.0
  0
SEQEND
  5
ADD
  8
LAYER_1
  0
POLYLINE
  5
D2
  8
LAYER_1
 66
     1
 10
0.0
 20
0.0
 30
0.0
 70
     1
  0
VERTEX
  5
ADE
  8
LAYER_1
 10
-48.4027177430545
 20
229.8001793567275
 30
0.0
  0
VERTEX
  5
ADF
  8
LAYER_1
 10
-39.15407975317856
 20
232.8521219100082
 30
0.0
  0
VERTEX
  5
AE0
  8
LAYER_1
 10
-29.89510173500162
 20
235.8773080799738
 30
0.0
  0
VERTEX
  5
AE1
  8
LAYER_1
 10
-22.65070224023266
 20
229.1869652584721
 30
0.0
  0
VERTEX
  5
AE2
  8
LAYER_1
 10
-15.39136969517055
 20
222.5103901699993
 30
0.0
  0
VERTEX
  5
AE3
  8
LAYER_1
 10
-49.15404473734569
 20
222.526482714125
 30
0.0
  0
SEQEND
  5
AE4
  8
LAYER_1
  0
POLYLINE
  5
D3
  8
LAYER_1
 66
     1
 10
0.0
 20
0.0
 30
0.0
 70
     1
  0
VERTEX
  5
AE5
  8
LAYER_1
 10
-42.42388471901852
 20
247.0146119007138
 30
0.0
  0
VERTEX
  5
AE6
  8
LAYER_1
 10
-38.12603329215847
 20
255.0865805155643
 30
0.0
  0
VERTEX
  5
AE7
  8
LAYER_1
 10
-33.80389299952763
 20
263.1475219233455
 30
0.0
  0
VERTEX
  5
AE8
  8
LAYER_1
 10
-13.21631043084673
 20
262.0095138068559
 30
0.0
  0
VERTEX
  5
AE9
  8
LAYER_1
 10
-18.06834742485602
 20
258.0702006508699
 30
0.0
  0
VERTEX
  5
AEA
  8
LAYER_1
 10
-22.90749074207302
 20
254.1174344957697
 30
0.0
  0
VERTEX
  5
AEB
  8
LAYER_1
 10
-18.85235284864987
 20
240.6342273420084
 30
0.0
  0
VERTEX
  5
AEC
  8
LAYER_1
 10
-23.96384289256805
 20
244.3516531051055
 30
0.0
  0
VERTEX
  5
AED
  8
LAYER_1
 10
-29.0690103381712
 20
248.076453825651
 30
0.0
  0
SEQEND
  5
AEE
  8
LAYER_1
  0
POLYLINE
  5
D4
  8
LAYER_1
 66
     1
 10
0.0
 20
0.0
 30
0.0
 70
     1
  0
VERTEX
  5
AEF
  8
LAYER_1
 10
-10.68061212039534
 20
334.942055096443
 30
0.0
  0
VERTEX
  5
AF0
  8
LAYER_1
 10
-6.413229519802052
 20
348.7167015256139
 30
0.0
  0
VERTEX
  5
AF1
  8
LAYER_1
 10
-2.155564138852192
 20
362.493902656237
 30
0.0
  0
VERTEX
  5
AF2
  8
LAYER_1
 10
39.04343417917559
 20
362.5
 30
0.0
  0
VERTEX
  5
AF3
  8
LAYER_1
 10
41.2138055416218
 20
356.2944863964201
 30
0.0
  0
VERTEX
  5
AF4
  8
LAYER_1
 10
42.13372274047735
 20
353.7017780479739
 30
0.0
  0
VERTEX
  5
AF5
  8
LAYER_1
 10
42.81677978169245
 20
351.8072860661121
 30
0.0
  0
VERTEX
  5
AF6
  8
LAYER_1
 10
43.24225879813831
 20
350.6078219843484
 30
0.0
  0
VERTEX
  5
AF7
  8
LAYER_1
 10
43.35193221359502
 20
350.2677290102264
 30
0.0
  0
VERTEX
  5
AF8
  8
LAYER_1
 10
43.37986938977321
 20
350.1624179205945
 30
0.0
  0
VERTEX
  5
AF9
  8
LAYER_1
 10
43.38944192268611
 20
350.1001973361967
 30
0.0
  0
VERTEX
  5
AFA
  8
LAYER_1
 10
43.38400275049042
 20
350.0233587507191
 30
0.0
  0
VERTEX
  5
AFB
  8
LAYER_1
 10
43.36820183016231
 20
349.9479367392366
 30
0.0
  0
VERTEX
  5
AFC
  8
LAYER_1
 10
43.31507929469792
 20
349.8000348718209
 30
0.0
  0
VERTEX
  5
AFD
  8
LAYER_1
 10
43.24920341547121
 20
349.6538766010775
 30
0.0
  0
VERTEX
  5
AFE
  8
LAYER_1
 10
43.18970329166044
 20
349.5068467941344
 30
0.0
  0
VERTEX
  5
AFF
  8
LAYER_1
 10
38.5638158539686
 20
335.7806777450489
 30
0.0
  0
VERTEX
  5
B00
  8
LAYER_1
 10
33.92889439960834
 20
322.0570982682266
 30
0.0
  0
VERTEX
  5
B01
  8
LAYER_1
 10
4.181646329977568
 20
321.636881432029
 30
0.0
  0
VERTEX
  5
B02
  8
LAYER_1
 10
0.4529364039739817
 20
324.9506678939598
 30
0.0
  0
VERTEX
  5
B03
  8
LAYER_1
 10
-3.267017612447279
 20
328.2728255339173
 30
0.0
  0
VERTEX
  5
B04
  8
LAYER_1
 10
-6.978204270249343
 20
331.6033045390342
 30
0.0
  0
SEQEND
  5
B05
  8
LAYER_1
  0
POLYLINE
  5
D5
  8
LAYER_1
 66
     1
 10
0.0
 20
0.0
 30
0.0
 70
     1
  0
VERTEX
  5
B06
  8
LAYER_1
 10
-10.68061212039556
 20
250.0579449035572
 30
0.0
  0
VERTEX
  5
B07
  8
LAYER_1
 10
-6.978204270249531
 20
253.3966954609659
 30
0.0
  0
VERTEX
  5
B08
  8
LAYER_1
 10
-3.267017612447392
 20
256.7271744660826
 30
0.0
  0
VERTEX
  5
B09
  8
LAYER_1
 10
0.4529364039739463
 20
260.0493321060401
 30
0.0
  0
VERTEX
  5
B0A
  8
LAYER_1
 10
4.181646329977568
 20
263.363118567971
 30
0.0
  0
VERTEX
  5
B0B
  8
LAYER_1
 10
33.92889439960856
 20
262.9429017317734
 30
0.0
  0
VERTEX
  5
B0C
  8
LAYER_1
 10
38.56381585396863
 20
249.2193222549511
 30
0.0
  0
VERTEX
  5
B0D
  8
LAYER_1
 10
43.18970329166044
 20
235.4931532058658
 30
0.0
  0
VERTEX
  5
B0E
  8
LAYER_1
 10
43.24920341547117
 20
235.3461233989224
 30
0.0
  0
VERTEX
  5
B0F
  8
LAYER_1
 10
43.31507929469784
 20
235.1999651281789
 30
0.0
  0
VERTEX
  5
B10
  8
LAYER_1
 10
43.36820183016222
 20
235.0520632607632
 30
0.0
  0
VERTEX
  5
B11
  8
LAYER_1
 10
43.38400275049037
 20
234.9766412492808
 30
0.0
  0
VERTEX
  5
B12
  8
LAYER_1
 10
43.38944192268611
 20
234.8998026638033
 30
0.0
  0
VERTEX
  5
B13
  8
LAYER_1
 10
43.37986938977321
 20
234.8375820794055
 30
0.0
  0
VERTEX
  5
B14
  8
LAYER_1
 10
43.35193221359502
 20
234.7322709897736
 30
0.0
  0
VERTEX
  5
B15
  8
LAYER_1
 10
43.24225879813831
 20
234.3921780156516
 30
0.0
  0
VERTEX
  5
B16
  8
LAYER_1
 10
42.81677978169245
 20
233.1927139338879
 30
0.0
  0
VERTEX
  5
B17
  8
LAYER_1
 10
42.13372274047735
 20
231.298221952026
 30
0.0
  0
VERTEX
  5
B18
  8
LAYER_1
 10
41.2138055416218
 20
228.7055136035797
 30
0.0
  0
VERTEX
  5
B19
  8
LAYER_1
 10
39.04343417917559
 20
222.5
 30
0.0
  0
VERTEX
  5
B1A
  8
LAYER_1
 10
-2.155564138852192
 20
222.506097343763
 30
0.0
  0
VERTEX
  5
B1B
  8
LAYER_1
 10
-6.413229519802
 20
236.2832984743861
 30
0.0
  0
SEQEND
  5
B1C
  8
LAYER_1
  0
POLYLINE
  5
D6
  8
LAYER_1
 66
     1
 10
0.0
 20
0.0
 30
0.0
 70
     1
  0
VERTEX
  5
B1D
  8
LAYER_1
 10
-342.9026684863692
 20
310.200509071117
 30
0.0
  0
VERTEX
  5
B1E
  8
LAYER_1
 10
-339.4992370292951
 20
310.276441199152
 30
0.0
  0
VERTEX
  5
B1F
  8
LAYER_1
 10
-337.0091246893662
 20
310.3405633638831
 30
0.0
  0
VERTEX
  5
B20
  8
LAYER_1
 10
-335.4345458898855
 20
310.3745080414204
 30
0.0
  0
VERTEX
  5
B21
  8
LAYER_1
 10
-334.9912735750956
 20
310.3744239712759
 30
0.0
  0
VERTEX
  5
B22
  8
LAYER_1
 10
-334.8557627902127
 20
310.3691133600125
 30
0.0
  0
VERTEX
  5
B23
  8
LAYER_1
 10
-334.7777150541565
 20
310.3599077078741
 30
0.0
  0
VERTEX
  5
B24
  8
LAYER_1
 10
-334.6947239726122
 20
310.3358901138021
 30
0.0
  0
VERTEX
  5
B25
  8
LAYER_1
 10
-334.6151577399678
 20
310.3038434024238
 30
0.0
  0
VERTEX
  5
B26
  8
LAYER_1
 10
-334.4631368725497
 20
310.2230766959769
 30
0.0
  0
VERTEX
  5
B27
  8
LAYER_1
 10
-334.3153265542451
 20
310.1324357249903
 30
0.0
  0
VERTEX
  5
B28
  8
LAYER_1
 10
-334.1654008873969
 20
310.0467486259208
 30
0.0
  0
VERTEX
  5
B29
  8
LAYER_1
 10
-329.8033367868134
 20
307.8227315506543
 30
0.0
  0
VERTEX
  5
B2A
  8
LAYER_1
 10
-325.4356811219917
 20
305.6078419006288
 30
0.0
  0
VERTEX
  5
B2B
  8
LAYER_1
 10
-321.062499492784
 20
303.4018978913705
 30
0.0
  0
VERTEX
  5
B2C
  8
LAYER_1
 10
-316.6838574990423
 20
301.2047177384054
 30
0.0
  0
VERTEX
  5
B2D
  8
LAYER_1
 10
-312.2998207406191
 20
299.0161196572597
 30
0.0
  0
VERTEX
  5
B2E
  8
LAYER_1
 10
-307.9104548173663
 20
296.8359218634595
 30
0.0
  0
VERTEX
  5
B2F
  8
LAYER_1
 10
-303.5158253291363
 20
294.6639425725309
 30
0.0
  0
VERTEX
  5
B30
  8
LAYER_1
 10
-299.1159978757813
 20
292.5
 30
0.0
  0
VERTEX
  5
B31
  8
LAYER_1
 10
-303.5158253291365
 20
290.3360574274692
 30
0.0
  0
VERTEX
  5
B32
  8
LAYER_1
 10
-307.9104548173665
 20
288.1640781365406
 30
0.0
  0
VERTEX
  5
B33
  8
LAYER_1
 10
-312.2998207406193
 20
285.9838803427405
 30
0.0
  0
VERTEX
  5
B34
  8
LAYER_1
 10
-316.6838574990426
 20
283.7952822615947
 30
0.0
  0
VERTEX
  5
B35
  8
LAYER_1
 10
-321.0624994927842
 20
281.5981021086296
 30
0.0
  0
VERTEX
  5
B36
  8
LAYER_1
 10
-325.4356811219919
 20
279.3921580993713
 30
0.0
  0
VERTEX
  5
B37
  8
LAYER_1
 10
-329.8033367868136
 20
277.177268449346
 30
0.0
  0
VERTEX
  5
B38
  8
LAYER_1
 10
-334.1654008873971
 20
274.9532513740796
 30
0.0
  0
VERTEX
  5
B39
  8
LAYER_1
 10
-334.3153265542452
 20
274.8675642750099
 30
0.0
  0
VERTEX
  5
B3A
  8
LAYER_1
 10
-334.4631368725497
 20
274.7769233040232
 30
0.0
  0
VERTEX
  5
B3B
  8
LAYER_1
 10
-334.6151577399679
 20
274.6961565975763
 30
0.0
  0
VERTEX
  5
B3C
  8
LAYER_1
 10
-334.6947239726124
 20
274.6641098861981
 30
0.0
  0
VERTEX
  5
B3D
  8
LAYER_1
 10
-334.7777150541568
 20
274.6400922921262
 30
0.0
  0
VERTEX
  5
B3E
  8
LAYER_1
 10
-334.8557627902129
 20
274.6308866399877
 30
0.0
  0
VERTEX
  5
B3F
  8
LAYER_1
 10
-334.9912735750958
 20
274.6255760287244
 30
0.0
  0
VERTEX
  5
B40
  8
LAYER_1
 10
-335.4345458898856
 20
274.6254919585797
 30
0.0
  0
VERTEX
  5
B41
  8
LAYER_1
 10
-337.0091246893661
 20
274.659436636117
 30
0.0
  0
VERTEX
  5
B42
  8
LAYER_1
 10
-339.499237029295
 20
274.7235588008481
 30
0.0
  0
VERTEX
  5
B43
  8
LAYER_1
 10
-342.9026684863692
 20
274.799490928883
 30
0.0
  0
VERTEX
  5
B44
  8
LAYER_1
 10
-363.2150597662534
 20
275.1979881379154
 30
0.0
  0
VERTEX
  5
B45
  8
LAYER_1
 10
-360.3698349924392
 20
279.5309447576013
 30
0.0
  0
VERTEX
  5
B46
  8
LAYER_1
 10
-357.515585529092
 20
283.8589268868031
 30
0.0
  0
VERTEX
  5
B47
  8
LAYER_1
 10
-354.6522767863328
 20
288.1819426070823
 30
0.0
  0
VERTEX
  5
B48
  8
LAYER_1
 10
-351.7798741742828
 20
292.5
 30
0.0
  0
VERTEX
  5
B49
  8
LAYER_1
 10
-354.6522767863328
 20
296.8180573929178
 30
0.0
  0
VERTEX
  5
B4A
  8
LAYER_1
 10
-357.515585529092
 20
301.141073113197
 30
0.0
  0
VERTEX
  5
B4B
  8
LAYER_1
 10
-360.3698349924392
 20
305.4690552423989
 30
0.0
  0
VERTEX
  5
B4C
  8
LAYER_1
 10
-363.2150597662534
 20
309.8020118620848
 30
0.0
  0
SEQEND
  5
B4D
  8
LAYER_1
  0
POLYLINE
  5
D7
  8
LAYER_1
 66
     1
 10
0.0
 20
0.0
 30
0.0
 70
     1
  0
VERTEX
  5
B4E
  8
LAYER_1
 10
-344.8011696593139
 20
334.9420550964428
 30
0.0
  0
VERTEX
  5
B4F
  8
LAYER_1
 10
-340.5337870587205
 20
348.716701525614
 30
0.0
  0
VERTEX
  5
B50
  8
LAYER_1
 10
-336.2761216777706
 20
362.493902656237
 30
0.0
  0
VERTEX
  5
B51
  8
LAYER_1
 10
-295.0771233597432
 20
362.5
 30
0.0
  0
VERTEX
  5
B52
  8
LAYER_1
 10
-292.906751997297
 20
356.2944863964203
 30
0.0
  0
VERTEX
  5
B53
  8
LAYER_1
 10
-291.9868347984415
 20
353.701778047974
 30
0.0
  0
VERTEX
  5
B54
  8
LAYER_1
 10
-291.3037777572264
 20
351.8072860661121
 30
0.0
  0
VERTEX
  5
B55
  8
LAYER_1
 10
-290.8782987407805
 20
350.6078219843484
 30
0.0
  0
VERTEX
  5
B56
  8
LAYER_1
 10
-290.7686253253237
 20
350.2677290102266
 30
0.0
  0
VERTEX
  5
B57
  8
LAYER_1
 10
-290.7406881491456
 20
350.1624179205947
 30
0.0
  0
VERTEX
  5
B58
  8
LAYER_1
 10
-290.7311156162327
 20
350.100197336197
 30
0.0
  0
VERTEX
  5
B59
  8
LAYER_1
 10
-290.7365547884284
 20
350.0233587507194
 30
0.0
  0
VERTEX
  5
B5A
  8
LAYER_1
 10
-290.7523557087566
 20
349.9479367392369
 30
0.0
  0
VERTEX
  5
B5B
  8
LAYER_1
 10
-290.8054782442209
 20
349.8000348718211
 30
0.0
  0
VERTEX
  5
B5C
  8
LAYER_1
 10
-290.8713541234476
 20
349.6538766010776
 30
0.0
  0
VERTEX
  5
B5D
  8
LAYER_1
 10
-290.9308542472584
 20
349.5068467941344
 30
0.0
  0
VERTEX
  5
B5E
  8
LAYER_1
 10
-295.5567416849503
 20
335.7806777450488
 30
0.0
  0
VERTEX
  5
B5F
  8
LAYER_1
 10
-300.1916631393103
 20
322.0570982682266
 30
0.0
  0
VERTEX
  5
B60
  8
LAYER_1
 10
-329.9389112089412
 20
321.636881432029
 30
0.0
  0
VERTEX
  5
B61
  8
LAYER_1
 10
-333.6676211349447
 20
324.9506678939598
 30
0.0
  0
VERTEX
  5
B62
  8
LAYER_1
 10
-337.3875751513658
 20
328.2728255339174
 30
0.0
  0
VERTEX
  5
B63
  8
LAYER_1
 10
-341.0987618091679
 20
331.6033045390342
 30
0.0
  0
SEQEND
  5
B64
  8
LAYER_1
  0
POLYLINE
  5
D8
  8
LAYER_1
 66
     1
 10
0.0
 20
0.0
 30
0.0
 70
     1
  0
VERTEX
  5
B65
  8
LAYER_1
 10
-344.8011696593139
 20
250.0579449035572
 30
0.0
  0
VERTEX
  5
B66
  8
LAYER_1
 10
-341.098761809168
 20
253.3966954609659
 30
0.0
  0
VERTEX
  5
B67
  8
LAYER_1
 10
-337.3875751513659
 20
256.7271744660827
 30
0.0
  0
VERTEX
  5
B68
  8
LAYER_1
 10
-333.6676211349447
 20
260.0493321060402
 30
0.0
  0
VERTEX
  5
B69
  8
LAYER_1
 10
-329.9389112089412
 20
263.363118567971
 30
0.0
  0
VERTEX
  5
B6A
  8
LAYER_1
 10
-300.1916631393103
 20
262.9429017317734
 30
0.0
  0
VERTEX
  5
B6B
  8
LAYER_1
 10
-295.5567416849503
 20
249.2193222549512
 30
0.0
  0
VERTEX
  5
B6C
  8
LAYER_1
 10
-290.9308542472584
 20
235.4931532058658
 30
0.0
  0
VERTEX
  5
B6D
  8
LAYER_1
 10
-290.8713541234476
 20
235.3461233989225
 30
0.0
  0
VERTEX
  5
B6E
  8
LAYER_1
 10
-290.8054782442209
 20
235.1999651281791
 30
0.0
  0
VERTEX
  5
B6F
  8
LAYER_1
 10
-290.7523557087566
 20
235.0520632607634
 30
0.0
  0
VERTEX
  5
B70
  8
LAYER_1
 10
-290.7365547884286
 20
234.9766412492809
 30
0.0
  0
VERTEX
  5
B71
  8
LAYER_1
 10
-290.7311156162329
 20
234.8998026638033
 30
0.0
  0
VERTEX
  5
B72
  8
LAYER_1
 10
-290.7406881491458
 20
234.8375820794055
 30
0.0
  0
VERTEX
  5
B73
  8
LAYER_1
 10
-290.768625325324
 20
234.7322709897736
 30
0.0
  0
VERTEX
  5
B74
  8
LAYER_1
 10
-290.8782987407807
 20
234.3921780156516
 30
0.0
  0
VERTEX
  5
B75
  8
LAYER_1
 10
-291.3037777572265
 20
233.192713933888
 30
0.0
  0
VERTEX
  5
B76
  8
LAYER_1
 10
-291.9868347984415
 20
231.2982219520262
 30
0.0
  0
VERTEX
  5
B77
  8
LAYER_1
 10
-292.906751997297
 20
228.7055136035799
 30
0.0
  0
VERTEX
  5
B78
  8
LAYER_1
 10
-295.0771233597432
 20
222.5
 30
0.0
  0
VERTEX
  5
B79
  8
LAYER_1
 10
-336.2761216777706
 20
222.506097343763
 30
0.0
  0
VERTEX
  5
B7A
  8
LAYER_1
 10
-340.5337870587205
 20
236.2832984743862
 30
0.0
  0
SEQEND
  5
B7B
  8
LAYER_1
  0
POLYLINE
  5
D9
  8
LAYER_1
 66
     1
 10
0.0
 20
0.0
 30
0.0
 70
     1
  0
VERTEX
  5
B7C
  8
LAYER_1
 10
56.32180941067756
 20
288.8327830953021
 30
0.0
  0
VERTEX
  5
B7D
  8
LAYER_1
 10
62.72354177721567
 20
285.4335412531543
 30
0.0
  0
VERTEX
  5
B7E
  8
LAYER_1
 10
69.11228933475766
 20
282.0140431598201
 30
0.0
  0
VERTEX
  5
B7F
  8
LAYER_1
 10
75.48803542768053
 20
278.5743307325018
 30
0.0
  0
VERTEX
  5
B80
  8
LAYER_1
 10
81.85076340036125
 20
275.1144458884019
 30
0.0
  0
VERTEX
  5
B81
  8
LAYER_1
 10
70.75042770336748
 20
274.8906659666209
 30
0.0
  0
VERTEX
  5
B82
  8
LAYER_1
 10
67.16489882442232
 20
264.0878178544068
 30
0.0
  0
VERTEX
  5
B83
  8
LAYER_1
 10
63.57298755259634
 20
253.2833470876066
 30
0.0
  0
VERTEX
  5
B84
  8
LAYER_1
 10
59.96264178298344
 20
242.4772335417466
 30
0.0
  0
VERTEX
  5
B85
  8
LAYER_1
 10
58.14678967872375
 20
237.0735544377713
 30
0.0
  0
VERTEX
  5
B86
  8
LAYER_1
 10
56.32180941067756
 20
231.6694570923535
 30
0.0
  0
VERTEX
  5
B87
  8
LAYER_1
 10
54.49682914263136
 20
237.0735544377713
 30
0.0
  0
VERTEX
  5
B88
  8
LAYER_1
 10
52.68097703837167
 20
242.4772335417466
 30
0.0
  0
VERTEX
  5
B89
  8
LAYER_1
 10
49.07063126875877
 20
253.2833470876066
 30
0.0
  0
VERTEX
  5
B8A
  8
LAYER_1
 10
45.4787199969328
 20
264.0878178544068
 30
0.0
  0
VERTEX
  5
B8B
  8
LAYER_1
 10
41.89319111798763
 20
274.8906659666209
 30
0.0
  0
VERTEX
  5
B8C
  8
LAYER_1
 10
30.79285542099388
 20
275.1144458884019
 30
0.0
  0
VERTEX
  5
B8D
  8
LAYER_1
 10
37.1555833936746
 20
278.5743307325018
 30
0.0
  0
VERTEX
  5
B8E
  8
LAYER_1
 10
43.53132948659746
 20
282.0140431598201
 30
0.0
  0
VERTEX
  5
B8F
  8
LAYER_1
 10
49.92007704413945
 20
285.4335412531543
 30
0.0
  0
SEQEND
  5
B90
  8
LAYER_1
  0
POLYLINE
  5
DA
  8
LAYER_1
 66
     1
 10
0.0
 20
0.0
 30
0.0
 70
     1
  0
VERTEX
  5
B91
  8
LAYER_1
 10
56.32180941067756
 20
353.3305429076465
 30
0.0
  0
VERTEX
  5
B92
  8
LAYER_1
 10
58.1467896787237
 20
347.9264455622288
 30
0.0
  0
VERTEX
  5
B93
  8
LAYER_1
 10
59.96264178298338
 20
342.5227664582535
 30
0.0
  0
VERTEX
  5
B94
  8
LAYER_1
 10
63.57298755259633
 20
331.7166529123936
 30
0.0
  0
VERTEX
  5
B95
  8
LAYER_1
 10
67.16489882442237
 20
320.9121821455932
 30
0.0
  0
VERTEX
  5
B96
  8
LAYER_1
 10
70.75042770336748
 20
310.1093340333791
 30
0.0
  0
VERTEX
  5
B97
  8
LAYER_1
 10
81.85076340036144
 20
309.8855541115979
 30
0.0
  0
VERTEX
  5
B98
  8
LAYER_1
 10
75.48803542768061
 20
306.4256692674982
 30
0.0
  0
VERTEX
  5
B99
  8
LAYER_1
 10
69.11228933475769
 20
302.9859568401799
 30
0.0
  0
VERTEX
  5
B9A
  8
LAYER_1
 10
62.72354177721567
 20
299.5664587468456
 30
0.0
  0
VERTEX
  5
B9B
  8
LAYER_1
 10
56.32180941067756
 20
296.1672169046976
 30
0.0
  0
VERTEX
  5
B9C
  8
LAYER_1
 10
49.92007704413945
 20
299.5664587468456
 30
0.0
  0
VERTEX
  5
B9D
  8
LAYER_1
 10
43.53132948659743
 20
302.9859568401799
 30
0.0
  0
VERTEX
  5
B9E
  8
LAYER_1
 10
37.1555833936745
 20
306.4256692674982
 30
0.0
  0
VERTEX
  5
B9F
  8
LAYER_1
 10
30.79285542099365
 20
309.8855541115979
 30
0.0
  0
VERTEX
  5
BA0
  8
LAYER_1
 10
41.89319111798763
 20
310.1093340333791
 30
0.0
  0
VERTEX
  5
BA1
  8
LAYER_1
 10
45.47871999693274
 20
320.9121821455932
 30
0.0
  0
VERTEX
  5
BA2
  8
LAYER_1
 10
49.07063126875878
 20
331.7166529123936
 30
0.0
  0
VERTEX
  5
BA3
  8
LAYER_1
 10
52.68097703837174
 20
342.5227664582535
 30
0.0
  0
VERTEX
  5
BA4
  8
LAYER_1
 10
54.49682914263141
 20
347.9264455622288
 30
0.0
  0
SEQEND
  5
BA5
  8
LAYER_1
  0
ENDSEC
  0
EOF
