  0
SECTION
  2
HEADER
  9
$ACADVER
  1
AC1009
  9
$EXTMIN
 10
25.00055480
 20
25.05976905
 30
0.0
  9
$EXTMAX
 10
524.99944520
 20
524.94023095
 30
0.0
  0
ENDSEC
  0
SECTION
  2
ENTITIES
  0
POLYLINE
  8
0
 66
   1
 70
    1
  0
VERTEX
  8
0
 10
34.46196540
 20
206.67929257
 42
0.40483590
  0
VERTEX
  8
0
 10
335.48101577
 20
32.34628214
 42
0.40483590
  0
VERTEX
  8
0
 10
519.39210257
 20
327.61087427
 42
-0.20816946
  0
VERTEX
  8
0
 10
491.77346440
 20
322.05505270
 42
-0.20816946
  0
VERTEX
  8
0
 10
468.88497553
 20
338.47983290
  0
VERTEX
  8
0
 10
443.31823890
 20
246.49718167
  0
VERTEX
  8
0
 10
477.80298903
 20
254.03946036
 42
0.29030992
  0
VERTEX
  8
0
 10
510.87608273
 20
281.99025783
 42
-0.21994318
  0
VERTEX
  8
0
 10
502.63883838
 20
251.62663068
 42
-0.21994318
  0
VERTEX
  8
0
 10
474.17301533
 20
238.22890825
 42
0.37149592
  0
VERTEX
  8
0
 10
428.15402378
 20
197.15353754
 42
-0.17712393
  0
VERTEX
  8
0
 10
478.82240665
 20
214.79924302
 42
0.21578777
  0
VERTEX
  8
0
 10
491.47710392
 20
220.61286003
 42
0.21578777
  0
VERTEX
  8
0
 10
495.45978610
 20
233.95743753
  0
VERTEX
  8
0
 10
503.77847582
 20
240.76363822
  0
VERTEX
  8
0
 10
503.27431281
 20
225.38666630
 42
-0.38449108
  0
VERTEX
  8
0
 10
473.07494829
 20
195.99396261
 42
0.34686201
  0
VERTEX
  8
0
 10
416.00369515
 20
152.23261303
  0
VERTEX
  8
0
 10
404.91210885
 20
145.17433084
  0
VERTEX
  8
0
 10
462.35912099
 20
351.49989314
 42
-0.27913550
  0
VERTEX
  8
0
 10
494.96265211
 20
393.76117231
 42
0.34984392
  0
VERTEX
  8
0
 10
208.14952353
 20
515.85776443
 42
0.34984392
  0
VERTEX
  8
0
 10
25.22815649
 20
263.45110444
 42
-0.15138240
  0
VERTEX
  8
0
 10
69.43057776
 20
254.71859472
  0
VERTEX
  8
0
 10
109.05463961
 20
402.26505167
 42
0.25088886
  0
VERTEX
  8
0
 10
127.96075262
 20
352.47895408
 42
0.03094379
  0
VERTEX
  8
0
 10
147.81217128
 20
339.24467497
 42
-0.29929358
  0
VERTEX
  8
0
 10
159.88843309
 20
314.01294767
 42
-0.29929358
  0
VERTEX
  8
0
 10
141.51013361
 20
292.92469810
 42
0.39165452
  0
VERTEX
  8
0
 10
140.24972608
 20
327.90100717
 42
-0.11900699
  0
VERTEX
  8
0
 10
104.95831513
 20
357.20548233
  0
VERTEX
  8
0
 10
77.50033700
 20
243.94841234
 42
-0.20260079
  0
VERTEX
  8
0
 10
63.85510708
 20
216.22100988
 42
-0.20260079
  0
VERTEX
  8
0
 10
34.46196540
 20
206.67929257
  0
SEQEND
  0
POLYLINE
  8
0
 66
   1
 70
    1
  0
VERTEX
  8
0
 10
182.82780845
 20
112.64146106
  0
VERTEX
  8
0
 10
182.82780845
 20
266.41118022
  0
VERTEX
  8
0
 10
197.32249510
 20
266.41118022
  0
VERTEX
  8
0
 10
197.32249510
 20
127.13614771
  0
VERTEX
  8
0
 10
222.21554389
 20
127.13614771
  0
VERTEX
  8
0
 10
222.21554389
 20
112.64146106
  0
VERTEX
  8
0
 10
182.82780845
 20
112.64146106
  0
SEQEND
  0
POLYLINE
  8
0
 66
   1
 70
    1
  0
VERTEX
  8
0
 10
133.67191463
 20
112.64146106
  0
VERTEX
  8
0
 10
147.85149938
 20
112.64146106
  0
VERTEX
  8
0
 10
147.85149938
 20
212.93337905
  0
VERTEX
  8
0
 10
149.25820065
 20
212.93337905
 42
0.20205001
  0
VERTEX
  8
0
 10
166.58513580
 20
219.99496108
 42
0.20205001
  0
VERTEX
  8
0
 10
173.63523863
 20
237.32657015
  0
VERTEX
  8
0
 10
159.97644267
 20
237.32657015
 42
-0.40529845
  0
VERTEX
  8
0
 10
147.70842679
 20
230.22795492
  0
VERTEX
  8
0
 10
147.70842679
 20
237.32657015
  0
VERTEX
  8
0
 10
133.67191463
 20
237.32657015
  0
VERTEX
  8
0
 10
133.67191463
 20
112.64146106
  0
SEQEND
  0
POLYLINE
  8
0
 66
   1
 70
    1
  0
VERTEX
  8
0
 10
231.83928124
 20
112.64146106
  0
VERTEX
  8
0
 10
231.83928124
 20
266.41118022
  0
VERTEX
  8
0
 10
269.96660915
 20
266.41118022
  0
VERTEX
  8
0
 10
269.96660915
 20
250.80913103
  0
VERTEX
  8
0
 10
246.33396788
 20
250.80913103
  0
VERTEX
  8
0
 10
246.33396788
 20
231.58791613
  0
VERTEX
  8
0
 10
257.36253381
 20
231.58791613
  0
VERTEX
  8
0
 10
257.36253381
 20
213.94221065
  0
VERTEX
  8
0
 10
246.33396788
 20
213.94221065
  0
VERTEX
  8
0
 10
246.33396788
 20
129.49490587
  0
VERTEX
  8
0
 10
270.68768830
 20
129.49490587
  0
VERTEX
  8
0
 10
270.68768830
 20
112.64146106
  0
VERTEX
  8
0
 10
231.83928124
 20
112.64146106
  0
SEQEND
  0
POLYLINE
  8
0
 66
   1
 70
    1
  0
VERTEX
  8
0
 10
133.67191463
 20
242.48919941
  0
VERTEX
  8
0
 10
133.67191463
 20
266.94312222
  0
VERTEX
  8
0
 10
148.46274561
 20
267.09444579
 42
-0.20443856
  0
VERTEX
  8
0
 10
166.27309514
 20
260.15160930
 42
-0.20443856
  0
VERTEX
  8
0
 10
173.58410094
 20
242.48919941
  0
VERTEX
  8
0
 10
160.07797287
 20
242.48919941
 42
0.41679160
  0
VERTEX
  8
0
 10
147.70842679
 20
249.97501183
  0
VERTEX
  8
0
 10
147.70842679
 20
242.48919941
  0
VERTEX
  8
0
 10
133.67191463
 20
242.48919941
  0
SEQEND
  0
POLYLINE
  8
0
 66
   1
 70
    0
  0
VERTEX
  8
0
 10
374.23165166
 20
112.64146106
  0
VERTEX
  8
0
 10
414.50521827
 20
112.64146106
  0
VERTEX
  8
0
 10
414.50521827
 20
129.49490587
  0
VERTEX
  8
0
 10
389.37859920
 20
129.49490587
  0
VERTEX
  8
0
 10
389.37859920
 20
213.94221065
  0
VERTEX
  8
0
 10
401.43723318
 20
213.94221065
  0
VERTEX
  8
0
 10
401.43723318
 20
231.58791613
  0
VERTEX
  8
0
 10
389.37859920
 20
231.58791613
  0
VERTEX
  8
0
 10
389.37859920
 20
250.80913103
  0
VERTEX
  8
0
 10
414.50521827
 20
250.80913103
  0
VERTEX
  8
0
 10
414.50521827
 20
266.41118022
  0
VERTEX
  8
0
 10
374.23165166
 20
266.41118022
  0
VERTEX
  8
0
 10
374.23165166
 20
112.56862032
  0
SEQEND
  0
POLYLINE
  8
0
 66
   1
 70
    1
  0
VERTEX
  8
0
 10
326.22751466
 20
138.50018240
  0
VERTEX
  8
0
 10
339.33575302
 20
138.50018240
 42
0.41799263
  0
VERTEX
  8
0
 10
343.99563301
 20
130.63067238
 42
0.41799263
  0
VERTEX
  8
0
 10
351.80444748
 20
135.39156367
 42
0.11337533
  0
VERTEX
  8
0
 10
345.60874008
 20
171.56083630
 42
-0.04580034
  0
VERTEX
  8
0
 10
326.18714818
 20
242.49038328
 42
-0.28436637
  0
VERTEX
  8
0
 10
335.16717511
 20
262.43703963
 42
-0.28436637
  0
VERTEX
  8
0
 10
357.02492945
 20
263.30223248
 42
-0.25583248
  0
VERTEX
  8
0
 10
366.77482503
 20
241.10995974
  0
VERTEX
  8
0
 10
353.26325627
 20
241.10995974
 42
0.33003382
  0
VERTEX
  8
0
 10
351.14876069
 20
248.67521450
 42
0.33003382
  0
VERTEX
  8
0
 10
343.29566309
 20
248.85695382
 42
0.32444072
  0
VERTEX
  8
0
 10
339.90768764
 20
238.54581186
 42
0.04562846
  0
VERTEX
  8
0
 10
347.18809196
 20
209.36974702
 42
-0.04846455
  0
VERTEX
  8
0
 10
366.51013945
 20
138.72390473
 42
-0.22060814
  0
VERTEX
  8
0
 10
361.76557567
 20
121.06511616
 42
-0.22060814
  0
VERTEX
  8
0
 10
345.22052614
 20
113.28019259
 42
-0.20307422
  0
VERTEX
  8
0
 10
330.38219849
 20
121.86729590
 42
-0.20307422
  0
VERTEX
  8
0
 10
326.22751466
 20
138.50018240
  0
SEQEND
  0
POLYLINE
  8
0
 66
   1
 70
    1
  0
VERTEX
  8
0
 10
268.44120752
 20
317.30040354
  0
VERTEX
  8
0
 10
281.54944588
 20
317.30040354
 42
0.41799263
  0
VERTEX
  8
0
 10
286.20932587
 20
309.43089353
 42
0.41799263
  0
VERTEX
  8
0
 10
294.01814034
 20
314.19178482
 42
0.11337533
  0
VERTEX
  8
0
 10
287.82243294
 20
350.36105744
 42
-0.04580034
  0
VERTEX
  8
0
 10
268.40084104
 20
421.29060443
 42
-0.28436637
  0
VERTEX
  8
0
 10
277.38086797
 20
441.23726077
 42
-0.28436637
  0
VERTEX
  8
0
 10
299.23862231
 20
442.10245363
 42
-0.25583248
  0
VERTEX
  8
0
 10
308.98851789
 20
419.91018089
  0
VERTEX
  8
0
 10
295.47694913
 20
419.91018089
 42
0.33003382
  0
VERTEX
  8
0
 10
293.36245355
 20
427.47543565
 42
0.33003382
  0
VERTEX
  8
0
 10
285.50935595
 20
427.65717496
 42
0.32444072
  0
VERTEX
  8
0
 10
282.12138050
 20
417.34603301
 42
0.04562846
  0
VERTEX
  8
0
 10
289.40178482
 20
388.16996816
 42
-0.04846455
  0
VERTEX
  8
0
 10
308.72383231
 20
317.52412588
 42
-0.22060814
  0
VERTEX
  8
0
 10
303.97926853
 20
299.86533731
 42
-0.22060814
  0
VERTEX
  8
0
 10
287.43421900
 20
292.08041373
 42
-0.20307422
  0
VERTEX
  8
0
 10
272.59589135
 20
300.66751705
 42
-0.20307422
  0
VERTEX
  8
0
 10
268.44120752
 20
317.30040354
  0
SEQEND
  0
POLYLINE
  8
0
 66
   1
 70
    1
  0
VERTEX
  8
0
 10
171.64009931
 20
290.85031572
  0
VERTEX
  8
0
 10
184.83499069
 20
290.85031572
  0
VERTEX
  8
0
 10
184.83499069
 20
416.86379815
  0
VERTEX
  8
0
 10
190.46964257
 20
405.78987221
  0
VERTEX
  8
0
 10
197.45875989
 20
417.52740251
  0
VERTEX
  8
0
 10
197.45875989
 20
290.85031572
  0
VERTEX
  8
0
 10
209.98405976
 20
290.85031572
  0
VERTEX
  8
0
 10
209.98405976
 20
445.93952401
  0
VERTEX
  8
0
 10
197.45875989
 20
445.93952401
  0
VERTEX
  8
0
 10
197.45875989
 20
436.47559649
  0
VERTEX
  8
0
 10
190.46964257
 20
424.82706761
  0
VERTEX
  8
0
 10
184.83499069
 20
435.50325012
  0
VERTEX
  8
0
 10
184.83499069
 20
445.93952401
  0
VERTEX
  8
0
 10
171.64009931
 20
445.93952401
  0
VERTEX
  8
0
 10
171.64009931
 20
290.85031572
  0
SEQEND
  0
POLYLINE
  8
0
 66
   1
 70
    1
  0
VERTEX
  8
0
 10
222.90755606
 20
290.85031572
  0
VERTEX
  8
0
 10
260.32590473
 20
290.85031572
  0
VERTEX
  8
0
 10
260.32590473
 20
445.93952401
  0
VERTEX
  8
0
 10
248.01723741
 20
445.93952401
  0
VERTEX
  8
0
 10
248.01723741
 20
303.57615909
  0
VERTEX
  8
0
 10
235.21622339
 20
303.57615909
  0
VERTEX
  8
0
 10
235.21622339
 20
445.93952401
  0
VERTEX
  8
0
 10
222.90755606
 20
445.93952401
  0
VERTEX
  8
0
 10
222.90755606
 20
290.85031572
  0
SEQEND
  0
POLYLINE
  8
0
 66
   1
 70
    1
  0
VERTEX
  8
0
 10
319.69031183
 20
290.85031572
  0
VERTEX
  8
0
 10
319.69031183
 20
445.93952401
  0
VERTEX
  8
0
 10
331.45626027
 20
445.93952401
  0
VERTEX
  8
0
 10
331.45626027
 20
290.85031572
  0
VERTEX
  8
0
 10
319.69031183
 20
290.85031572
  0
SEQEND
  0
POLYLINE
  8
0
 66
   1
 70
    1
  0
VERTEX
  8
0
 10
372.34272600
 20
290.85031572
 42
-0.40797935
  0
VERTEX
  8
0
 10
372.08136260
 20
445.93952401
  0
VERTEX
  8
0
 10
380.91550762
 20
431.57073392
 42
0.41052367
  0
VERTEX
  8
0
 10
380.42798676
 20
304.79961175
  0
VERTEX
  8
0
 10
372.34272600
 20
290.85031572
  0
SEQEND
  0
POLYLINE
  8
0
 66
   1
 70
    1
  0
VERTEX
  8
0
 10
314.13356321
 20
164.25097276
  0
VERTEX
  8
0
 10
301.13061821
 20
164.25097276
  0
VERTEX
  8
0
 10
299.33965148
 20
187.34165091
  0
VERTEX
  8
0
 10
297.18622720
 20
164.25097276
  0
VERTEX
  8
0
 10
283.56003216
 20
164.25097276
  0
VERTEX
  8
0
 10
292.62467590
 20
266.41118022
  0
VERTEX
  8
0
 10
305.35752540
 20
266.41118022
  0
VERTEX
  8
0
 10
314.13356321
 20
164.25097276
  0
SEQEND
  0
POLYLINE
  8
0
 66
   1
 70
    1
  0
VERTEX
  8
0
 10
283.03783894
 20
158.36575875
  0
VERTEX
  8
0
 10
278.98073609
 20
112.64146106
  0
VERTEX
  8
0
 10
292.90044719
 20
112.64146106
  0
VERTEX
  8
0
 10
293.81381512
 20
123.72642638
  0
VERTEX
  8
0
 10
303.99038992
 20
123.72642638
  0
VERTEX
  8
0
 10
304.79228103
 20
112.64146106
  0
VERTEX
  8
0
 10
318.56706073
 20
112.64146106
  0
VERTEX
  8
0
 10
314.63913052
 20
158.36575875
  0
VERTEX
  8
0
 10
301.58708910
 20
158.36575875
  0
VERTEX
  8
0
 10
302.80893834
 20
142.61263100
  0
VERTEX
  8
0
 10
295.16824704
 20
142.61263100
  0
VERTEX
  8
0
 10
296.63737530
 20
158.36575875
  0
VERTEX
  8
0
 10
283.03783894
 20
158.36575875
  0
SEQEND
  0
ENDSEC
  0
EOF
