  0
SECTION
  2
HEADER
  9
$ACADVER
  1
AC1015
  9
$ACADMAINTVER
 70
     6
  9
$DWGCODEPAGE
  3
ANSI_1252
  9
$INSBASE
 10
0.0
 20
0.0
 30
0.0
  9
$EXTMIN
 10
-17.21137
 20
-7.60485
 30
0.0
  9
$EXTMAX
 10
11.98955
 20
5.72256
 30
0.0
  9
$LIMMIN
 10
0.0
 20
0.0
  9
$LIMMAX
 10
12.0
 20
9.0
  9
$ORTHOMODE
 70
     0
  9
$REGENMODE
 70
     1
  9
$FILLMODE
 70
     1
  9
$QTEXTMODE
 70
     0
  9
$MIRRTEXT
 70
     1
  9
$LTSCALE
 40
1.0
  9
$ATTMODE
 70
     1
  9
$TEXTSIZE
 40
0.2
  9
$TRACEWID
 40
0.05
  9
$TEXTSTYLE
  7
Standard
  9
$CLAYER
  8
0
  9
$CELTYPE
  6
ByLayer
  9
$CECOLOR
 62
   256
  9
$CELTSCALE
 40
1.0
  9
$DISPSILH
 70
     0
  9
$DIMSCALE
 40
1.0
  9
$DIMASZ
 40
0.18
  9
$DIMEXO
 40
0.0625
  9
$DIMDLI
 40
0.38
  9
$DIMRND
 40
0.0
  9
$DIMDLE
 40
0.0
  9
$DIMEXE
 40
0.18
  9
$DIMTP
 40
0.0
  9
$DIMTM
 40
0.0
  9
$DIMTXT
 40
0.18
  9
$DIMCEN
 40
0.09
  9
$DIMTSZ
 40
0.0
  9
$DIMTOL
 70
     0
  9
$DIMLIM
 70
     0
  9
$DIMTIH
 70
     1
  9
$DIMTOH
 70
     1
  9
$DIMSE1
 70
     0
  9
$DIMSE2
 70
     0
  9
$DIMTAD
 70
     0
  9
$DIMZIN
 70
     0
  9
$DIMBLK
  1

  9
$DIMASO
 70
     1
  9
$DIMSHO
 70
     1
  9
$DIMPOST
  1

  9
$DIMAPOST
  1

  9
$DIMALT
 70
     0
  9
$DIMALTD
 70
     2
  9
$DIMALTF
 40
25.4
  9
$DIMLFAC
 40
1.0
  9
$DIMTOFL
 70
     0
  9
$DIMTVP
 40
0.0
  9
$DIMTIX
 70
     0
  9
$DIMSOXD
 70
     0
  9
$DIMSAH
 70
     0
  9
$DIMBLK1
  1

  9
$DIMBLK2
  1

  9
$DIMSTYLE
  2
Standard
  9
$DIMCLRD
 70
     0
  9
$DIMCLRE
 70
     0
  9
$DIMCLRT
 70
     0
  9
$DIMTFAC
 40
1.0
  9
$DIMGAP
 40
0.09
  9
$DIMJUST
 70
     0
  9
$DIMSD1
 70
     0
  9
$DIMSD2
 70
     0
  9
$DIMTOLJ
 70
     1
  9
$DIMTZIN
 70
     0
  9
$DIMALTZ
 70
     0
  9
$DIMALTTZ
 70
     0
  9
$DIMUPT
 70
     0
  9
$DIMDEC
 70
     4
  9
$DIMTDEC
 70
     4
  9
$DIMALTU
 70
     2
  9
$DIMALTTD
 70
     2
  9
$DIMTXSTY
  7
Standard
  9
$DIMAUNIT
 70
     0
  9
$DIMADEC
 70
     0
  9
$DIMALTRND
 40
0.0
  9
$DIMAZIN
 70
     0
  9
$DIMDSEP
 70
    46
  9
$DIMATFIT
 70
     3
  9
$DIMFRAC
 70
     0
  9
$DIMLDRBLK
  1

  9
$DIMLUNIT
 70
     2
  9
$DIMLWD
 70
    -2
  9
$DIMLWE
 70
    -2
  9
$DIMTMOVE
 70
     0
  9
$LUNITS
 70
     2
  9
$LUPREC
 70
     4
  9
$SKETCHINC
 40
0.1
  9
$FILLETRAD
 40
0.5
  9
$AUNITS
 70
     0
  9
$AUPREC
 70
     0
  9
$MENU
  1
.
  9
$ELEVATION
 40
0.0
  9
$PELEVATION
 40
0.0
  9
$THICKNESS
 40
0.0
  9
$LIMCHECK
 70
     0
  9
$CHAMFERA
 40
0.5
  9
$CHAMFERB
 40
0.5
  9
$CHAMFERC
 40
1.0
  9
$CHAMFERD
 40
0.0
  9
$SKPOLY
 70
     0
  9
$TDCREATE
 40
2458031.518326042
  9
$TDUCREATE
 40
2458031.289159375
  9
$TDUPDATE
 40
2458031.518326227
  9
$TDUUPDATE
 40
2458031.28915956
  9
$TDINDWG
 40
0.0000000116
  9
$TDUSRTIMER
 40
0.0000000116
  9
$USRTIMER
 70
     1
  9
$ANGBASE
 50
0.0
  9
$ANGDIR
 70
     0
  9
$PDMODE
 70
     0
  9
$PDSIZE
 40
0.0
  9
$PLINEWID
 40
0.0
  9
$SPLFRAME
 70
     0
  9
$SPLINETYPE
 70
     6
  9
$SPLINESEGS
 70
     8
  9
$HANDSEED
  5
1A0
  9
$SURFTAB1
 70
     6
  9
$SURFTAB2
 70
     6
  9
$SURFTYPE
 70
     6
  9
$SURFU
 70
     6
  9
$SURFV
 70
     6
  9
$UCSBASE
  2

  9
$UCSNAME
  2

  9
$UCSORG
 10
0.0
 20
0.0
 30
0.0
  9
$UCSXDIR
 10
1.0
 20
0.0
 30
0.0
  9
$UCSYDIR
 10
0.0
 20
1.0
 30
0.0
  9
$UCSORTHOREF
  2

  9
$UCSORTHOVIEW
 70
     0
  9
$UCSORGTOP
 10
0.0
 20
0.0
 30
0.0
  9
$UCSORGBOTTOM
 10
0.0
 20
0.0
 30
0.0
  9
$UCSORGLEFT
 10
0.0
 20
0.0
 30
0.0
  9
$UCSORGRIGHT
 10
0.0
 20
0.0
 30
0.0
  9
$UCSORGFRONT
 10
0.0
 20
0.0
 30
0.0
  9
$UCSORGBACK
 10
0.0
 20
0.0
 30
0.0
  9
$PUCSBASE
  2

  9
$PUCSNAME
  2

  9
$PUCSORG
 10
0.0
 20
0.0
 30
0.0
  9
$PUCSXDIR
 10
1.0
 20
0.0
 30
0.0
  9
$PUCSYDIR
 10
0.0
 20
1.0
 30
0.0
  9
$PUCSORTHOREF
  2

  9
$PUCSORTHOVIEW
 70
     0
  9
$PUCSORGTOP
 10
0.0
 20
0.0
 30
0.0
  9
$PUCSORGBOTTOM
 10
0.0
 20
0.0
 30
0.0
  9
$PUCSORGLEFT
 10
0.0
 20
0.0
 30
0.0
  9
$PUCSORGRIGHT
 10
0.0
 20
0.0
 30
0.0
  9
$PUCSORGFRONT
 10
0.0
 20
0.0
 30
0.0
  9
$PUCSORGBACK
 10
0.0
 20
0.0
 30
0.0
  9
$USERI1
 70
     0
  9
$USERI2
 70
     0
  9
$USERI3
 70
     0
  9
$USERI4
 70
     0
  9
$USERI5
 70
     0
  9
$USERR1
 40
0.0
  9
$USERR2
 40
0.0
  9
$USERR3
 40
0.0
  9
$USERR4
 40
0.0
  9
$USERR5
 40
0.0
  9
$WORLDVIEW
 70
     1
  9
$SHADEDGE
 70
     3
  9
$SHADEDIF
 70
    70
  9
$TILEMODE
 70
     1
  9
$MAXACTVP
 70
    64
  9
$PINSBASE
 10
0.0
 20
0.0
 30
0.0
  9
$PLIMCHECK
 70
     0
  9
$PEXTMIN
 10
1.000000000000000E+20
 20
1.000000000000000E+20
 30
1.000000000000000E+20
  9
$PEXTMAX
 10
-1.000000000000000E+20
 20
-1.000000000000000E+20
 30
-1.000000000000000E+20
  9
$PLIMMIN
 10
0.0
 20
0.0
  9
$PLIMMAX
 10
12.0
 20
9.0
  9
$UNITMODE
 70
     0
  9
$VISRETAIN
 70
     1
  9
$PLINEGEN
 70
     0
  9
$PSLTSCALE
 70
     1
  9
$TREEDEPTH
 70
  3020
  9
$CMLSTYLE
  2
Standard
  9
$CMLJUST
 70
     0
  9
$CMLSCALE
 40
1.0
  9
$PROXYGRAPHICS
 70
     1
  9
$MEASUREMENT
 70
     0
  9
$CELWEIGHT
370
    -1
  9
$ENDCAPS
280
     0
  9
$JOINSTYLE
280
     0
  9
$LWDISPLAY
290
     0
  9
$INSUNITS
 70
     5
  9
$HYPERLINKBASE
  1

  9
$STYLESHEET
  1

  9
$XEDIT
290
     1
  9
$CEPSNTYPE
380
     0
  9
$PSTYLEMODE
290
     1
  9
$FINGERPRINTGUID
  2
{CA3DF105-07BA-4D47-B2A8-AF0EA5DFD4F9}
  9
$VERSIONGUID
  2
{FAEB1C32-E019-11D5-929B-00C0DF256EC4}
  9
$EXTNAMES
290
     1
  9
$PSVPSCALE
 40
0.0
  9
$OLESTARTUP
290
     0
  0
ENDSEC
  0
SECTION
  2
CLASSES
  0
CLASS
  1
ACDBDICTIONARYWDFLT
  2
AcDbDictionaryWithDefault
  3
ObjectDBX Classes
 90
        0
280
     0
281
     0
  0
CLASS
  1
VISUALSTYLE
  2
AcDbVisualStyle
  3
ObjectDBX Classes
 90
     4095
280
     0
281
     0
  0
CLASS
  1
MATERIAL
  2
AcDbMaterial
  3
ObjectDBX Classes
 90
     1153
280
     0
281
     0
  0
CLASS
  1
DICTIONARYVAR
  2
AcDbDictionaryVar
  3
ObjectDBX Classes
 90
        0
280
     0
281
     0
  0
CLASS
  1
ACDBPLACEHOLDER
  2
AcDbPlaceHolder
  3
ObjectDBX Classes
 90
        0
280
     0
281
     0
  0
CLASS
  1
LAYOUT
  2
AcDbLayout
  3
ObjectDBX Classes
 90
        0
280
     0
281
     0
  0
ENDSEC
  0
SECTION
  2
TABLES
  0
TABLE
  2
VPORT
  5
8
330
0
100
AcDbSymbolTable
 70
     1
  0
VPORT
  5
29
330
8
100
AcDbSymbolTableRecord
100
AcDbViewportTableRecord
  2
*Active
 70
     0
 10
0.0
 20
0.0
 11
1.0
 21
1.0
 12
10.42990654205607
 22
4.5
 13
0.0
 23
0.0
 14
0.5
 24
0.5
 15
0.5
 25
0.5
 16
0.0
 26
0.0
 36
1.0
 17
0.0
 27
0.0
 37
0.0
 40
9.0
 41
1.972972972850329
 42
50.0
 43
0.0
 44
0.0
 50
0.0
 51
0.0
 71
     0
 72
   100
 73
     1
 74
     3
 75
     0
 76
     0
 77
     0
 78
     0
281
     0
 65
     1
110
0.0
120
0.0
130
0.0
111
1.0
121
0.0
131
0.0
112
0.0
122
1.0
132
0.0
 79
     0
146
0.0
  0
ENDTAB
  0
TABLE
  2
LTYPE
  5
5
330
0
100
AcDbSymbolTable
 70
     1
  0
LTYPE
  5
14
330
5
100
AcDbSymbolTableRecord
100
AcDbLinetypeTableRecord
  2
ByBlock
 70
     0
  3

 72
    65
 73
     0
 40
0.0
  0
LTYPE
  5
15
330
5
100
AcDbSymbolTableRecord
100
AcDbLinetypeTableRecord
  2
ByLayer
 70
     0
  3

 72
    65
 73
     0
 40
0.0
  0
LTYPE
  5
16
330
5
100
AcDbSymbolTableRecord
100
AcDbLinetypeTableRecord
  2
Continuous
 70
     0
  3
Solid line
 72
    65
 73
     0
 40
0.0
  0
ENDTAB
  0
TABLE
  2
LAYER
  5
2
330
0
100
AcDbSymbolTable
 70
     2
  0
LAYER
  5
10
330
2
100
AcDbSymbolTableRecord
100
AcDbLayerTableRecord
  2
0
 70
     0
 62
     7
  6
Continuous
370
    -3
390
F
  0
LAYER
  5
40
330
2
100
AcDbSymbolTableRecord
100
AcDbLayerTableRecord
  2
Layer 1
 70
     0
 62
     7
  6
Continuous
370
    -3
390
F
  0
ENDTAB
  0
TABLE
  2
STYLE
  5
3
330
0
100
AcDbSymbolTable
 70
     1
  0
STYLE
  5
11
330
3
100
AcDbSymbolTableRecord
100
AcDbTextStyleTableRecord
  2
Standard
 70
     0
 40
0.0
 41
1.0
 50
0.0
 71
     0
 42
0.2
  3
txt
  4

  0
ENDTAB
  0
TABLE
  2
VIEW
  5
6
330
0
100
AcDbSymbolTable
 70
     0
  0
ENDTAB
  0
TABLE
  2
UCS
  5
7
330
0
100
AcDbSymbolTable
 70
     0
  0
ENDTAB
  0
TABLE
  2
APPID
  5
9
330
0
100
AcDbSymbolTable
 70
     2
  0
APPID
  5
12
330
9
100
AcDbSymbolTableRecord
100
AcDbRegAppTableRecord
  2
ACAD
 70
     0
  0
APPID
  5
3F
330
9
100
AcDbSymbolTableRecord
100
AcDbRegAppTableRecord
  2
ODA
 70
     0
  0
ENDTAB
  0
TABLE
  2
DIMSTYLE
  5
A
330
0
100
AcDbSymbolTable
 70
     1
100
AcDbDimStyleTable
  0
DIMSTYLE
105
27
330
A
100
AcDbSymbolTableRecord
100
AcDbDimStyleTableRecord
  2
Standard
 70
     0
178
     0
340
11
  0
ENDTAB
  0
TABLE
  2
BLOCK_RECORD
  5
1
330
0
100
AcDbSymbolTable
 70
     1
  0
BLOCK_RECORD
  5
1F
330
1
100
AcDbSymbolTableRecord
100
AcDbBlockTableRecord
  2
*Model_Space
340
22
  0
BLOCK_RECORD
  5
1B
330
1
100
AcDbSymbolTableRecord
100
AcDbBlockTableRecord
  2
*Paper_Space
340
1E
  0
BLOCK_RECORD
  5
23
330
1
100
AcDbSymbolTableRecord
100
AcDbBlockTableRecord
  2
*Paper_Space0
340
26
  0
ENDTAB
  0
ENDSEC
  0
SECTION
  2
BLOCKS
  0
BLOCK
  5
20
330
1F
100
AcDbEntity
  8
0
100
AcDbBlockBegin
  2
*Model_Space
 70
     0
 10
0.0
 20
0.0
 30
0.0
  3
*Model_Space
  1

  0
ENDBLK
  5
21
330
1F
100
AcDbEntity
  8
0
100
AcDbBlockEnd
  0
BLOCK
  5
1C
330
1B
100
AcDbEntity
 67
     1
  8
0
100
AcDbBlockBegin
  2
*Paper_Space
 70
     0
 10
0.0
 20
0.0
 30
0.0
  3
*Paper_Space
  1

  0
ENDBLK
  5
1D
330
1B
100
AcDbEntity
 67
     1
  8
0
100
AcDbBlockEnd
  0
BLOCK
  5
24
330
23
100
AcDbEntity
  8
0
100
AcDbBlockBegin
  2
*Paper_Space0
 70
     0
 10
0.0
 20
0.0
 30
0.0
  3
*Paper_Space0
  1

  0
ENDBLK
  5
25
330
23
100
AcDbEntity
  8
0
100
AcDbBlockEnd
  0
ENDSEC
  0
SECTION
  2
ENTITIES
  0
SPLINE
  5
41
330
1F
100
AcDbEntity
  8
Layer 1
 62
   242
370
     9
100
AcDbSpline
210
0.0
220
0.0
230
1.0
 70
    11
 71
     3
 72
    16
 73
    12
 74
     0
 42
0.0000000001
 43
0.0000000001
 12
1.0
 22
0.0
 32
0.0
 13
1.0
 23
0.0
 33
0.0
 40
0.0
 40
0.0
 40
0.0
 40
0.0
 40
0.25
 40
0.25
 40
0.25
 40
0.25
 40
0.5
 40
0.5
 40
0.5
 40
0.5
 40
1.0
 40
1.0
 40
1.0
 40
1.0
 10
-15.32234
 20
-5.86664
 30
0.0
 10
-15.32234
 20
-5.86664
 30
0.0
 10
-14.12334
 20
-6.48499
 30
0.0
 10
-14.12334
 20
-6.48499
 30
0.0
 10
-14.12334
 20
-6.48499
 30
0.0
 10
-14.12334
 20
-6.48499
 30
0.0
 10
-15.32234
 20
-7.11089
 30
0.0
 10
-15.32234
 20
-7.11089
 30
0.0
 10
-15.32234
 20
-7.11089
 30
0.0
 10
-15.32234
 20
-7.11089
 30
0.0
 10
-15.32234
 20
-5.86664
 30
0.0
 10
-15.32234
 20
-5.86664
 30
0.0
  0
SPLINE
  5
42
330
1F
100
AcDbEntity
  8
Layer 1
 62
   242
370
     9
100
AcDbSpline
210
0.0
220
0.0
230
1.0
 70
    11
 71
     3
 72
    16
 73
    12
 74
     0
 42
0.0000000001
 43
0.0000000001
 12
1.0
 22
0.0
 32
0.0
 13
1.0
 23
0.0
 33
0.0
 40
0.0
 40
0.0
 40
0.0
 40
0.0
 40
0.25
 40
0.25
 40
0.25
 40
0.25
 40
0.5
 40
0.5
 40
0.5
 40
0.5
 40
1.0
 40
1.0
 40
1.0
 40
1.0
 10
-15.54102
 20
-5.86664
 30
0.0
 10
-15.54102
 20
-5.86664
 30
0.0
 10
-16.74757
 20
-6.48499
 30
0.0
 10
-16.74757
 20
-6.48499
 30
0.0
 10
-16.74757
 20
-6.48499
 30
0.0
 10
-16.74757
 20
-6.48499
 30
0.0
 10
-15.54102
 20
-7.11089
 30
0.0
 10
-15.54102
 20
-7.11089
 30
0.0
 10
-15.54102
 20
-7.11089
 30
0.0
 10
-15.54102
 20
-7.11089
 30
0.0
 10
-15.54102
 20
-5.86664
 30
0.0
 10
-15.54102
 20
-5.86664
 30
0.0
  0
SPLINE
  5
43
330
1F
100
AcDbEntity
  8
Layer 1
 62
   242
370
     9
100
AcDbSpline
210
0.0
220
0.0
230
1.0
 70
    11
 71
     3
 72
    16
 73
    12
 74
     0
 42
0.0000000001
 43
0.0000000001
 12
1.0
 22
0.0
 32
0.0
 13
1.0
 23
0.0
 33
0.0
 40
0.0
 40
0.0
 40
0.0
 40
0.0
 40
0.25
 40
0.25
 40
0.25
 40
0.25
 40
0.5
 40
0.5
 40
0.5
 40
0.5
 40
1.0
 40
1.0
 40
1.0
 40
1.0
 10
-12.2532
 20
-5.86664
 30
0.0
 10
-12.2532
 20
-5.86664
 30
0.0
 10
-11.04666
 20
-6.48499
 30
0.0
 10
-11.04666
 20
-6.48499
 30
0.0
 10
-11.04666
 20
-6.48499
 30
0.0
 10
-11.04666
 20
-6.48499
 30
0.0
 10
-12.2532
 20
-7.11089
 30
0.0
 10
-12.2532
 20
-7.11089
 30
0.0
 10
-12.2532
 20
-7.11089
 30
0.0
 10
-12.2532
 20
-7.11089
 30
0.0
 10
-12.2532
 20
-5.86664
 30
0.0
 10
-12.2532
 20
-5.86664
 30
0.0
  0
SPLINE
  5
44
330
1F
100
AcDbEntity
  8
Layer 1
 62
   242
370
     9
100
AcDbSpline
210
0.0
220
0.0
230
1.0
 70
    11
 71
     3
 72
    16
 73
    12
 74
     0
 42
0.0000000001
 43
0.0000000001
 12
1.0
 22
0.0
 32
0.0
 13
1.0
 23
0.0
 33
0.0
 40
0.0
 40
0.0
 40
0.0
 40
0.0
 40
0.25
 40
0.25
 40
0.25
 40
0.25
 40
0.5
 40
0.5
 40
0.5
 40
0.5
 40
1.0
 40
1.0
 40
1.0
 40
1.0
 10
-12.47189
 20
-5.86664
 30
0.0
 10
-12.47189
 20
-5.86664
 30
0.0
 10
-13.67843
 20
-6.48499
 30
0.0
 10
-13.67843
 20
-6.48499
 30
0.0
 10
-13.67843
 20
-6.48499
 30
0.0
 10
-13.67843
 20
-6.48499
 30
0.0
 10
-12.47189
 20
-7.11089
 30
0.0
 10
-12.47189
 20
-7.11089
 30
0.0
 10
-12.47189
 20
-7.11089
 30
0.0
 10
-12.47189
 20
-7.11089
 30
0.0
 10
-12.47189
 20
-5.86664
 30
0.0
 10
-12.47189
 20
-5.86664
 30
0.0
  0
SPLINE
  5
45
330
1F
100
AcDbEntity
  8
Layer 1
 62
   242
370
     9
100
AcDbSpline
210
0.0
220
0.0
230
1.0
 70
    11
 71
     3
 72
    16
 73
    12
 74
     0
 42
0.0000000001
 43
0.0000000001
 12
1.0
 22
0.0
 32
0.0
 13
1.0
 23
0.0
 33
0.0
 40
0.0
 40
0.0
 40
0.0
 40
0.0
 40
0.25
 40
0.25
 40
0.25
 40
0.25
 40
0.5
 40
0.5
 40
0.5
 40
0.5
 40
1.0
 40
1.0
 40
1.0
 40
1.0
 10
-15.65414
 20
-5.70074
 30
0.0
 10
-15.65414
 20
-5.70074
 30
0.0
 10
-16.85314
 20
-6.31909
 30
0.0
 10
-16.85314
 20
-6.31909
 30
0.0
 10
-16.85314
 20
-6.31909
 30
0.0
 10
-16.85314
 20
-6.31909
 30
0.0
 10
-16.85314
 20
-5.07485
 30
0.0
 10
-16.85314
 20
-5.07485
 30
0.0
 10
-16.85314
 20
-5.07485
 30
0.0
 10
-16.85314
 20
-5.07485
 30
0.0
 10
-15.65414
 20
-5.70074
 30
0.0
 10
-15.65414
 20
-5.70074
 30
0.0
  0
SPLINE
  5
46
330
1F
100
AcDbEntity
  8
Layer 1
 62
   242
370
     9
100
AcDbSpline
210
0.0
220
0.0
230
1.0
 70
    11
 71
     3
 72
    16
 73
    12
 74
     0
 42
0.0000000001
 43
0.0000000001
 12
1.0
 22
0.0
 32
0.0
 13
1.0
 23
0.0
 33
0.0
 40
0.0
 40
0.0
 40
0.0
 40
0.0
 40
0.25
 40
0.25
 40
0.25
 40
0.25
 40
0.5
 40
0.5
 40
0.5
 40
0.5
 40
1.0
 40
1.0
 40
1.0
 40
1.0
 10
-15.54102
 20
-5.5273
 30
0.0
 10
-15.54102
 20
-5.5273
 30
0.0
 10
-15.54102
 20
-4.2906
 30
0.0
 10
-15.54102
 20
-4.2906
 30
0.0
 10
-15.54102
 20
-4.2906
 30
0.0
 10
-15.54102
 20
-4.2906
 30
0.0
 10
-16.74757
 20
-4.90895
 30
0.0
 10
-16.74757
 20
-4.90895
 30
0.0
 10
-16.74757
 20
-4.90895
 30
0.0
 10
-16.74757
 20
-4.90895
 30
0.0
 10
-15.54102
 20
-5.5273
 30
0.0
 10
-15.54102
 20
-5.5273
 30
0.0
  0
SPLINE
  5
47
330
1F
100
AcDbEntity
  8
Layer 1
 62
   242
370
     9
100
AcDbSpline
210
0.0
220
0.0
230
1.0
 70
    11
 71
     3
 72
    16
 73
    12
 74
     0
 42
0.0000000001
 43
0.0000000001
 12
1.0
 22
0.0
 32
0.0
 13
1.0
 23
0.0
 33
0.0
 40
0.0
 40
0.0
 40
0.0
 40
0.0
 40
0.25
 40
0.25
 40
0.25
 40
0.25
 40
0.5
 40
0.5
 40
0.5
 40
0.5
 40
1.0
 40
1.0
 40
1.0
 40
1.0
 10
-16.85314
 20
-3.4988
 30
0.0
 10
-16.85314
 20
-3.4988
 30
0.0
 10
-15.65414
 20
-4.11716
 30
0.0
 10
-15.65414
 20
-4.11716
 30
0.0
 10
-15.65414
 20
-4.11716
 30
0.0
 10
-15.65414
 20
-4.11716
 30
0.0
 10
-16.85314
 20
-4.74305
 30
0.0
 10
-16.85314
 20
-4.74305
 30
0.0
 10
-16.85314
 20
-4.74305
 30
0.0
 10
-16.85314
 20
-4.74305
 30
0.0
 10
-16.85314
 20
-3.4988
 30
0.0
 10
-16.85314
 20
-3.4988
 30
0.0
  0
SPLINE
  5
48
330
1F
100
AcDbEntity
  8
Layer 1
 62
   242
370
     9
100
AcDbSpline
210
0.0
220
0.0
230
1.0
 70
    11
 71
     3
 72
    16
 73
    12
 74
     0
 42
0.0000000001
 43
0.0000000001
 12
1.0
 22
0.0
 32
0.0
 13
1.0
 23
0.0
 33
0.0
 40
0.0
 40
0.0
 40
0.0
 40
0.0
 40
0.25
 40
0.25
 40
0.25
 40
0.25
 40
0.5
 40
0.5
 40
0.5
 40
0.5
 40
1.0
 40
1.0
 40
1.0
 40
1.0
 10
-12.585
 20
-5.70074
 30
0.0
 10
-12.585
 20
-5.70074
 30
0.0
 10
-13.79154
 20
-6.31909
 30
0.0
 10
-13.79154
 20
-6.31909
 30
0.0
 10
-13.79154
 20
-6.31909
 30
0.0
 10
-13.79154
 20
-6.31909
 30
0.0
 10
-13.79154
 20
-5.07485
 30
0.0
 10
-13.79154
 20
-5.07485
 30
0.0
 10
-13.79154
 20
-5.07485
 30
0.0
 10
-13.79154
 20
-5.07485
 30
0.0
 10
-12.585
 20
-5.70074
 30
0.0
 10
-12.585
 20
-5.70074
 30
0.0
  0
SPLINE
  5
49
330
1F
100
AcDbEntity
  8
Layer 1
 62
   242
370
     9
100
AcDbSpline
210
0.0
220
0.0
230
1.0
 70
    11
 71
     3
 72
    16
 73
    12
 74
     0
 42
0.0000000001
 43
0.0000000001
 12
1.0
 22
0.0
 32
0.0
 13
1.0
 23
0.0
 33
0.0
 40
0.0
 40
0.0
 40
0.0
 40
0.0
 40
0.25
 40
0.25
 40
0.25
 40
0.25
 40
0.5
 40
0.5
 40
0.5
 40
0.5
 40
1.0
 40
1.0
 40
1.0
 40
1.0
 10
-15.20923
 20
-5.70074
 30
0.0
 10
-15.20923
 20
-5.70074
 30
0.0
 10
-14.01023
 20
-6.31909
 30
0.0
 10
-14.01023
 20
-6.31909
 30
0.0
 10
-14.01023
 20
-6.31909
 30
0.0
 10
-14.01023
 20
-6.31909
 30
0.0
 10
-14.01023
 20
-5.07485
 30
0.0
 10
-14.01023
 20
-5.07485
 30
0.0
 10
-14.01023
 20
-5.07485
 30
0.0
 10
-14.01023
 20
-5.07485
 30
0.0
 10
-15.20923
 20
-5.70074
 30
0.0
 10
-15.20923
 20
-5.70074
 30
0.0
  0
SPLINE
  5
4A
330
1F
100
AcDbEntity
  8
Layer 1
 62
   242
370
     9
100
AcDbSpline
210
0.0
220
0.0
230
1.0
 70
    11
 71
     3
 72
    16
 73
    12
 74
     0
 42
0.0000000001
 43
0.0000000001
 12
1.0
 22
0.0
 32
0.0
 13
1.0
 23
0.0
 33
0.0
 40
0.0
 40
0.0
 40
0.0
 40
0.0
 40
0.25
 40
0.25
 40
0.25
 40
0.25
 40
0.5
 40
0.5
 40
0.5
 40
0.5
 40
1.0
 40
1.0
 40
1.0
 40
1.0
 10
-12.47189
 20
-5.5273
 30
0.0
 10
-12.47189
 20
-5.5273
 30
0.0
 10
-12.47189
 20
-4.2906
 30
0.0
 10
-12.47189
 20
-4.2906
 30
0.0
 10
-12.47189
 20
-4.2906
 30
0.0
 10
-12.47189
 20
-4.2906
 30
0.0
 10
-13.67843
 20
-4.90895
 30
0.0
 10
-13.67843
 20
-4.90895
 30
0.0
 10
-13.67843
 20
-4.90895
 30
0.0
 10
-13.67843
 20
-4.90895
 30
0.0
 10
-12.47189
 20
-5.5273
 30
0.0
 10
-12.47189
 20
-5.5273
 30
0.0
  0
SPLINE
  5
4B
330
1F
100
AcDbEntity
  8
Layer 1
 62
   242
370
     9
100
AcDbSpline
210
0.0
220
0.0
230
1.0
 70
    11
 71
     3
 72
    16
 73
    12
 74
     0
 42
0.0000000001
 43
0.0000000001
 12
1.0
 22
0.0
 32
0.0
 13
1.0
 23
0.0
 33
0.0
 40
0.0
 40
0.0
 40
0.0
 40
0.0
 40
0.25
 40
0.25
 40
0.25
 40
0.25
 40
0.5
 40
0.5
 40
0.5
 40
0.5
 40
1.0
 40
1.0
 40
1.0
 40
1.0
 10
-13.79154
 20
-3.4988
 30
0.0
 10
-13.79154
 20
-3.4988
 30
0.0
 10
-12.585
 20
-4.11716
 30
0.0
 10
-12.585
 20
-4.11716
 30
0.0
 10
-12.585
 20
-4.11716
 30
0.0
 10
-12.585
 20
-4.11716
 30
0.0
 10
-13.79154
 20
-4.74305
 30
0.0
 10
-13.79154
 20
-4.74305
 30
0.0
 10
-13.79154
 20
-4.74305
 30
0.0
 10
-13.79154
 20
-4.74305
 30
0.0
 10
-13.79154
 20
-3.4988
 30
0.0
 10
-13.79154
 20
-3.4988
 30
0.0
  0
SPLINE
  5
4C
330
1F
100
AcDbEntity
  8
Layer 1
 62
   242
370
     9
100
AcDbSpline
210
0.0
220
0.0
230
1.0
 70
    11
 71
     3
 72
    16
 73
    12
 74
     0
 42
0.0000000001
 43
0.0000000001
 12
1.0
 22
0.0
 32
0.0
 13
1.0
 23
0.0
 33
0.0
 40
0.0
 40
0.0
 40
0.0
 40
0.0
 40
0.25
 40
0.25
 40
0.25
 40
0.25
 40
0.5
 40
0.5
 40
0.5
 40
0.5
 40
1.0
 40
1.0
 40
1.0
 40
1.0
 10
-14.01023
 20
-3.4988
 30
0.0
 10
-14.01023
 20
-3.4988
 30
0.0
 10
-15.20923
 20
-4.11716
 30
0.0
 10
-15.20923
 20
-4.11716
 30
0.0
 10
-15.20923
 20
-4.11716
 30
0.0
 10
-15.20923
 20
-4.11716
 30
0.0
 10
-14.01023
 20
-4.74305
 30
0.0
 10
-14.01023
 20
-4.74305
 30
0.0
 10
-14.01023
 20
-4.74305
 30
0.0
 10
-14.01023
 20
-4.74305
 30
0.0
 10
-14.01023
 20
-3.4988
 30
0.0
 10
-14.01023
 20
-3.4988
 30
0.0
  0
SPLINE
  5
4D
330
1F
100
AcDbEntity
  8
Layer 1
 62
   242
370
     9
100
AcDbSpline
210
0.0
220
0.0
230
1.0
 70
    11
 71
     3
 72
    16
 73
    12
 74
     0
 42
0.0000000001
 43
0.0000000001
 12
1.0
 22
0.0
 32
0.0
 13
1.0
 23
0.0
 33
0.0
 40
0.0
 40
0.0
 40
0.0
 40
0.0
 40
0.25
 40
0.25
 40
0.25
 40
0.25
 40
0.5
 40
0.5
 40
0.5
 40
0.5
 40
1.0
 40
1.0
 40
1.0
 40
1.0
 10
-15.32234
 20
-5.5273
 30
0.0
 10
-15.32234
 20
-5.5273
 30
0.0
 10
-15.32234
 20
-4.2906
 30
0.0
 10
-15.32234
 20
-4.2906
 30
0.0
 10
-15.32234
 20
-4.2906
 30
0.0
 10
-15.32234
 20
-4.2906
 30
0.0
 10
-14.12334
 20
-4.90895
 30
0.0
 10
-14.12334
 20
-4.90895
 30
0.0
 10
-14.12334
 20
-4.90895
 30
0.0
 10
-14.12334
 20
-4.90895
 30
0.0
 10
-15.32234
 20
-5.5273
 30
0.0
 10
-15.32234
 20
-5.5273
 30
0.0
  0
SPLINE
  5
4E
330
1F
100
AcDbEntity
  8
Layer 1
 62
   242
370
     9
100
AcDbSpline
210
0.0
220
0.0
230
1.0
 70
    11
 71
     3
 72
    16
 73
    12
 74
     0
 42
0.0000000001
 43
0.0000000001
 12
1.0
 22
0.0
 32
0.0
 13
1.0
 23
0.0
 33
0.0
 40
0.0
 40
0.0
 40
0.0
 40
0.0
 40
0.25
 40
0.25
 40
0.25
 40
0.25
 40
0.5
 40
0.5
 40
0.5
 40
0.5
 40
1.0
 40
1.0
 40
1.0
 40
1.0
 10
-9.51587
 20
-5.70074
 30
0.0
 10
-9.51587
 20
-5.70074
 30
0.0
 10
-10.72241
 20
-6.31909
 30
0.0
 10
-10.72241
 20
-6.31909
 30
0.0
 10
-10.72241
 20
-6.31909
 30
0.0
 10
-10.72241
 20
-6.31909
 30
0.0
 10
-10.72241
 20
-5.07485
 30
0.0
 10
-10.72241
 20
-5.07485
 30
0.0
 10
-10.72241
 20
-5.07485
 30
0.0
 10
-10.72241
 20
-5.07485
 30
0.0
 10
-9.51587
 20
-5.70074
 30
0.0
 10
-9.51587
 20
-5.70074
 30
0.0
  0
SPLINE
  5
4F
330
1F
100
AcDbEntity
  8
Layer 1
 62
   242
370
     9
100
AcDbSpline
210
0.0
220
0.0
230
1.0
 70
    11
 71
     3
 72
    16
 73
    12
 74
     0
 42
0.0000000001
 43
0.0000000001
 12
1.0
 22
0.0
 32
0.0
 13
1.0
 23
0.0
 33
0.0
 40
0.0
 40
0.0
 40
0.0
 40
0.0
 40
0.25
 40
0.25
 40
0.25
 40
0.25
 40
0.5
 40
0.5
 40
0.5
 40
0.5
 40
1.0
 40
1.0
 40
1.0
 40
1.0
 10
-12.14763
 20
-5.70074
 30
0.0
 10
-12.14763
 20
-5.70074
 30
0.0
 10
-10.94109
 20
-6.31909
 30
0.0
 10
-10.94109
 20
-6.31909
 30
0.0
 10
-10.94109
 20
-6.31909
 30
0.0
 10
-10.94109
 20
-6.31909
 30
0.0
 10
-10.94109
 20
-5.07485
 30
0.0
 10
-10.94109
 20
-5.07485
 30
0.0
 10
-10.94109
 20
-5.07485
 30
0.0
 10
-10.94109
 20
-5.07485
 30
0.0
 10
-12.14763
 20
-5.70074
 30
0.0
 10
-12.14763
 20
-5.70074
 30
0.0
  0
SPLINE
  5
50
330
1F
100
AcDbEntity
  8
Layer 1
 62
   242
370
     9
100
AcDbSpline
210
0.0
220
0.0
230
1.0
 70
    11
 71
     3
 72
    16
 73
    12
 74
     0
 42
0.0000000001
 43
0.0000000001
 12
1.0
 22
0.0
 32
0.0
 13
1.0
 23
0.0
 33
0.0
 40
0.0
 40
0.0
 40
0.0
 40
0.0
 40
0.25
 40
0.25
 40
0.25
 40
0.25
 40
0.5
 40
0.5
 40
0.5
 40
0.5
 40
1.0
 40
1.0
 40
1.0
 40
1.0
 10
-9.4103
 20
-5.5273
 30
0.0
 10
-9.4103
 20
-5.5273
 30
0.0
 10
-9.4103
 20
-4.2906
 30
0.0
 10
-9.4103
 20
-4.2906
 30
0.0
 10
-9.4103
 20
-4.2906
 30
0.0
 10
-9.4103
 20
-4.2906
 30
0.0
 10
-10.6093
 20
-4.90895
 30
0.0
 10
-10.6093
 20
-4.90895
 30
0.0
 10
-10.6093
 20
-4.90895
 30
0.0
 10
-10.6093
 20
-4.90895
 30
0.0
 10
-9.4103
 20
-5.5273
 30
0.0
 10
-9.4103
 20
-5.5273
 30
0.0
  0
SPLINE
  5
51
330
1F
100
AcDbEntity
  8
Layer 1
 62
   242
370
     9
100
AcDbSpline
210
0.0
220
0.0
230
1.0
 70
    11
 71
     3
 72
    16
 73
    12
 74
     0
 42
0.0000000001
 43
0.0000000001
 12
1.0
 22
0.0
 32
0.0
 13
1.0
 23
0.0
 33
0.0
 40
0.0
 40
0.0
 40
0.0
 40
0.0
 40
0.25
 40
0.25
 40
0.25
 40
0.25
 40
0.5
 40
0.5
 40
0.5
 40
0.5
 40
1.0
 40
1.0
 40
1.0
 40
1.0
 10
-10.72241
 20
-3.4988
 30
0.0
 10
-10.72241
 20
-3.4988
 30
0.0
 10
-9.51587
 20
-4.11716
 30
0.0
 10
-9.51587
 20
-4.11716
 30
0.0
 10
-9.51587
 20
-4.11716
 30
0.0
 10
-9.51587
 20
-4.11716
 30
0.0
 10
-10.72241
 20
-4.74305
 30
0.0
 10
-10.72241
 20
-4.74305
 30
0.0
 10
-10.72241
 20
-4.74305
 30
0.0
 10
-10.72241
 20
-4.74305
 30
0.0
 10
-10.72241
 20
-3.4988
 30
0.0
 10
-10.72241
 20
-3.4988
 30
0.0
  0
SPLINE
  5
52
330
1F
100
AcDbEntity
  8
Layer 1
 62
   242
370
     9
100
AcDbSpline
210
0.0
220
0.0
230
1.0
 70
    11
 71
     3
 72
    16
 73
    12
 74
     0
 42
0.0000000001
 43
0.0000000001
 12
1.0
 22
0.0
 32
0.0
 13
1.0
 23
0.0
 33
0.0
 40
0.0
 40
0.0
 40
0.0
 40
0.0
 40
0.25
 40
0.25
 40
0.25
 40
0.25
 40
0.5
 40
0.5
 40
0.5
 40
0.5
 40
1.0
 40
1.0
 40
1.0
 40
1.0
 10
-10.94109
 20
-3.4988
 30
0.0
 10
-10.94109
 20
-3.4988
 30
0.0
 10
-12.14763
 20
-4.11716
 30
0.0
 10
-12.14763
 20
-4.11716
 30
0.0
 10
-12.14763
 20
-4.11716
 30
0.0
 10
-12.14763
 20
-4.11716
 30
0.0
 10
-10.94109
 20
-4.74305
 30
0.0
 10
-10.94109
 20
-4.74305
 30
0.0
 10
-10.94109
 20
-4.74305
 30
0.0
 10
-10.94109
 20
-4.74305
 30
0.0
 10
-10.94109
 20
-3.4988
 30
0.0
 10
-10.94109
 20
-3.4988
 30
0.0
  0
SPLINE
  5
53
330
1F
100
AcDbEntity
  8
Layer 1
 62
   242
370
     9
100
AcDbSpline
210
0.0
220
0.0
230
1.0
 70
    11
 71
     3
 72
    16
 73
    12
 74
     0
 42
0.0000000001
 43
0.0000000001
 12
1.0
 22
0.0
 32
0.0
 13
1.0
 23
0.0
 33
0.0
 40
0.0
 40
0.0
 40
0.0
 40
0.0
 40
0.25
 40
0.25
 40
0.25
 40
0.25
 40
0.5
 40
0.5
 40
0.5
 40
0.5
 40
1.0
 40
1.0
 40
1.0
 40
1.0
 10
-12.2532
 20
-5.5273
 30
0.0
 10
-12.2532
 20
-5.5273
 30
0.0
 10
-12.2532
 20
-4.2906
 30
0.0
 10
-12.2532
 20
-4.2906
 30
0.0
 10
-12.2532
 20
-4.2906
 30
0.0
 10
-12.2532
 20
-4.2906
 30
0.0
 10
-11.04666
 20
-4.90895
 30
0.0
 10
-11.04666
 20
-4.90895
 30
0.0
 10
-11.04666
 20
-4.90895
 30
0.0
 10
-11.04666
 20
-4.90895
 30
0.0
 10
-12.2532
 20
-5.5273
 30
0.0
 10
-12.2532
 20
-5.5273
 30
0.0
  0
SPLINE
  5
54
330
1F
100
AcDbEntity
  8
Layer 1
 62
   242
370
     9
100
AcDbSpline
210
0.0
220
0.0
230
1.0
 70
    11
 71
     3
 72
    16
 73
    12
 74
     0
 42
0.0000000001
 43
0.0000000001
 12
1.0
 22
0.0
 32
0.0
 13
1.0
 23
0.0
 33
0.0
 40
0.0
 40
0.0
 40
0.0
 40
0.0
 40
0.25
 40
0.25
 40
0.25
 40
0.25
 40
0.5
 40
0.5
 40
0.5
 40
0.5
 40
1.0
 40
1.0
 40
1.0
 40
1.0
 10
-14.12334
 20
-3.3329
 30
0.0
 10
-14.12334
 20
-3.3329
 30
0.0
 10
-15.32234
 20
-3.95126
 30
0.0
 10
-15.32234
 20
-3.95126
 30
0.0
 10
-15.32234
 20
-3.95126
 30
0.0
 10
-15.32234
 20
-3.95126
 30
0.0
 10
-15.32234
 20
-2.71455
 30
0.0
 10
-15.32234
 20
-2.71455
 30
0.0
 10
-15.32234
 20
-2.71455
 30
0.0
 10
-15.32234
 20
-2.71455
 30
0.0
 10
-14.12334
 20
-3.3329
 30
0.0
 10
-14.12334
 20
-3.3329
 30
0.0
  0
SPLINE
  5
55
330
1F
100
AcDbEntity
  8
Layer 1
 62
   242
370
     9
100
AcDbSpline
210
0.0
220
0.0
230
1.0
 70
    11
 71
     3
 72
    16
 73
    12
 74
     0
 42
0.0000000001
 43
0.0000000001
 12
1.0
 22
0.0
 32
0.0
 13
1.0
 23
0.0
 33
0.0
 40
0.0
 40
0.0
 40
0.0
 40
0.0
 40
0.25
 40
0.25
 40
0.25
 40
0.25
 40
0.5
 40
0.5
 40
0.5
 40
0.5
 40
1.0
 40
1.0
 40
1.0
 40
1.0
 10
-16.74757
 20
-3.3329
 30
0.0
 10
-16.74757
 20
-3.3329
 30
0.0
 10
-15.54102
 20
-3.95126
 30
0.0
 10
-15.54102
 20
-3.95126
 30
0.0
 10
-15.54102
 20
-3.95126
 30
0.0
 10
-15.54102
 20
-3.95126
 30
0.0
 10
-15.54102
 20
-2.71455
 30
0.0
 10
-15.54102
 20
-2.71455
 30
0.0
 10
-15.54102
 20
-2.71455
 30
0.0
 10
-15.54102
 20
-2.71455
 30
0.0
 10
-16.74757
 20
-3.3329
 30
0.0
 10
-16.74757
 20
-3.3329
 30
0.0
  0
SPLINE
  5
56
330
1F
100
AcDbEntity
  8
Layer 1
 62
   242
370
     9
100
AcDbSpline
210
0.0
220
0.0
230
1.0
 70
    11
 71
     3
 72
    20
 73
    16
 74
     0
 42
0.0000000001
 43
0.0000000001
 12
1.0
 22
0.0
 32
0.0
 13
1.0
 23
0.0
 33
0.0
 40
0.0
 40
0.0
 40
0.0
 40
0.0
 40
0.2
 40
0.2
 40
0.2
 40
0.2
 40
0.4
 40
0.4
 40
0.4
 40
0.4
 40
0.6
 40
0.6
 40
0.6
 40
0.6
 40
1.0
 40
1.0
 40
1.0
 40
1.0
 10
-14.01023
 20
-3.15946
 30
0.0
 10
-14.01023
 20
-3.15946
 30
0.0
 10
-14.01023
 20
-1.9303
 30
0.0
 10
-14.01023
 20
-1.9303
 30
0.0
 10
-14.01023
 20
-1.9303
 30
0.0
 10
-14.01023
 20
-1.9303
 30
0.0
 10
-15.20923
 20
-2.54865
 30
0.0
 10
-15.20923
 20
-2.54865
 30
0.0
 10
-15.20923
 20
-2.54865
 30
0.0
 10
-15.20923
 20
-2.54865
 30
0.0
 10
-14.01023
 20
-3.15946
 30
0.0
 10
-14.01023
 20
-3.15946
 30
0.0
 10
-14.01023
 20
-3.15946
 30
0.0
 10
-14.01023
 20
-3.15946
 30
0.0
 10
-14.01023
 20
-3.15946
 30
0.0
 10
-14.01023
 20
-3.15946
 30
0.0
  0
SPLINE
  5
57
330
1F
100
AcDbEntity
  8
Layer 1
 62
   242
370
     9
100
AcDbSpline
210
0.0
220
0.0
230
1.0
 70
    11
 71
     3
 72
    16
 73
    12
 74
     0
 42
0.0000000001
 43
0.0000000001
 12
1.0
 22
0.0
 32
0.0
 13
1.0
 23
0.0
 33
0.0
 40
0.0
 40
0.0
 40
0.0
 40
0.0
 40
0.25
 40
0.25
 40
0.25
 40
0.25
 40
0.5
 40
0.5
 40
0.5
 40
0.5
 40
1.0
 40
1.0
 40
1.0
 40
1.0
 10
-15.32234
 20
-1.13851
 30
0.0
 10
-15.32234
 20
-1.13851
 30
0.0
 10
-14.12334
 20
-1.75686
 30
0.0
 10
-14.12334
 20
-1.75686
 30
0.0
 10
-14.12334
 20
-1.75686
 30
0.0
 10
-14.12334
 20
-1.75686
 30
0.0
 10
-15.32234
 20
-2.38275
 30
0.0
 10
-15.32234
 20
-2.38275
 30
0.0
 10
-15.32234
 20
-2.38275
 30
0.0
 10
-15.32234
 20
-2.38275
 30
0.0
 10
-15.32234
 20
-1.13851
 30
0.0
 10
-15.32234
 20
-1.13851
 30
0.0
  0
SPLINE
  5
58
330
1F
100
AcDbEntity
  8
Layer 1
 62
   242
370
     9
100
AcDbSpline
210
0.0
220
0.0
230
1.0
 70
    11
 71
     3
 72
    16
 73
    12
 74
     0
 42
0.0000000001
 43
0.0000000001
 12
1.0
 22
0.0
 32
0.0
 13
1.0
 23
0.0
 33
0.0
 40
0.0
 40
0.0
 40
0.0
 40
0.0
 40
0.25
 40
0.25
 40
0.25
 40
0.25
 40
0.5
 40
0.5
 40
0.5
 40
0.5
 40
1.0
 40
1.0
 40
1.0
 40
1.0
 10
-15.54102
 20
-1.13851
 30
0.0
 10
-15.54102
 20
-1.13851
 30
0.0
 10
-16.74757
 20
-1.75686
 30
0.0
 10
-16.74757
 20
-1.75686
 30
0.0
 10
-16.74757
 20
-1.75686
 30
0.0
 10
-16.74757
 20
-1.75686
 30
0.0
 10
-15.54102
 20
-2.38275
 30
0.0
 10
-15.54102
 20
-2.38275
 30
0.0
 10
-15.54102
 20
-2.38275
 30
0.0
 10
-15.54102
 20
-2.38275
 30
0.0
 10
-15.54102
 20
-1.13851
 30
0.0
 10
-15.54102
 20
-1.13851
 30
0.0
  0
SPLINE
  5
59
330
1F
100
AcDbEntity
  8
Layer 1
 62
   242
370
     9
100
AcDbSpline
210
0.0
220
0.0
230
1.0
 70
    11
 71
     3
 72
    16
 73
    12
 74
     0
 42
0.0000000001
 43
0.0000000001
 12
1.0
 22
0.0
 32
0.0
 13
1.0
 23
0.0
 33
0.0
 40
0.0
 40
0.0
 40
0.0
 40
0.0
 40
0.25
 40
0.25
 40
0.25
 40
0.25
 40
0.5
 40
0.5
 40
0.5
 40
0.5
 40
1.0
 40
1.0
 40
1.0
 40
1.0
 10
-16.85314
 20
-3.15946
 30
0.0
 10
-16.85314
 20
-3.15946
 30
0.0
 10
-16.85314
 20
-1.9303
 30
0.0
 10
-16.85314
 20
-1.9303
 30
0.0
 10
-16.85314
 20
-1.9303
 30
0.0
 10
-16.85314
 20
-1.9303
 30
0.0
 10
-15.65414
 20
-2.54865
 30
0.0
 10
-15.65414
 20
-2.54865
 30
0.0
 10
-15.65414
 20
-2.54865
 30
0.0
 10
-15.65414
 20
-2.54865
 30
0.0
 10
-16.85314
 20
-3.15946
 30
0.0
 10
-16.85314
 20
-3.15946
 30
0.0
  0
SPLINE
  5
5A
330
1F
100
AcDbEntity
  8
Layer 1
 62
   242
370
     9
100
AcDbSpline
210
0.0
220
0.0
230
1.0
 70
    11
 71
     3
 72
    16
 73
    12
 74
     0
 42
0.0000000001
 43
0.0000000001
 12
1.0
 22
0.0
 32
0.0
 13
1.0
 23
0.0
 33
0.0
 40
0.0
 40
0.0
 40
0.0
 40
0.0
 40
0.25
 40
0.25
 40
0.25
 40
0.25
 40
0.5
 40
0.5
 40
0.5
 40
0.5
 40
1.0
 40
1.0
 40
1.0
 40
1.0
 10
-11.04666
 20
-3.3329
 30
0.0
 10
-11.04666
 20
-3.3329
 30
0.0
 10
-12.2532
 20
-3.95126
 30
0.0
 10
-12.2532
 20
-3.95126
 30
0.0
 10
-12.2532
 20
-3.95126
 30
0.0
 10
-12.2532
 20
-3.95126
 30
0.0
 10
-12.2532
 20
-2.71455
 30
0.0
 10
-12.2532
 20
-2.71455
 30
0.0
 10
-12.2532
 20
-2.71455
 30
0.0
 10
-12.2532
 20
-2.71455
 30
0.0
 10
-11.04666
 20
-3.3329
 30
0.0
 10
-11.04666
 20
-3.3329
 30
0.0
  0
SPLINE
  5
5B
330
1F
100
AcDbEntity
  8
Layer 1
 62
   242
370
     9
100
AcDbSpline
210
0.0
220
0.0
230
1.0
 70
    11
 71
     3
 72
    16
 73
    12
 74
     0
 42
0.0000000001
 43
0.0000000001
 12
1.0
 22
0.0
 32
0.0
 13
1.0
 23
0.0
 33
0.0
 40
0.0
 40
0.0
 40
0.0
 40
0.0
 40
0.25
 40
0.25
 40
0.25
 40
0.25
 40
0.5
 40
0.5
 40
0.5
 40
0.5
 40
1.0
 40
1.0
 40
1.0
 40
1.0
 10
-13.67843
 20
-3.3329
 30
0.0
 10
-13.67843
 20
-3.3329
 30
0.0
 10
-12.47189
 20
-3.95126
 30
0.0
 10
-12.47189
 20
-3.95126
 30
0.0
 10
-12.47189
 20
-3.95126
 30
0.0
 10
-12.47189
 20
-3.95126
 30
0.0
 10
-12.47189
 20
-2.71455
 30
0.0
 10
-12.47189
 20
-2.71455
 30
0.0
 10
-12.47189
 20
-2.71455
 30
0.0
 10
-12.47189
 20
-2.71455
 30
0.0
 10
-13.67843
 20
-3.3329
 30
0.0
 10
-13.67843
 20
-3.3329
 30
0.0
  0
SPLINE
  5
5C
330
1F
100
AcDbEntity
  8
Layer 1
 62
   242
370
     9
100
AcDbSpline
210
0.0
220
0.0
230
1.0
 70
    11
 71
     3
 72
    16
 73
    12
 74
     0
 42
0.0000000001
 43
0.0000000001
 12
1.0
 22
0.0
 32
0.0
 13
1.0
 23
0.0
 33
0.0
 40
0.0
 40
0.0
 40
0.0
 40
0.0
 40
0.25
 40
0.25
 40
0.25
 40
0.25
 40
0.5
 40
0.5
 40
0.5
 40
0.5
 40
1.0
 40
1.0
 40
1.0
 40
1.0
 10
-10.94109
 20
-3.15946
 30
0.0
 10
-10.94109
 20
-3.15946
 30
0.0
 10
-10.94109
 20
-1.9303
 30
0.0
 10
-10.94109
 20
-1.9303
 30
0.0
 10
-10.94109
 20
-1.9303
 30
0.0
 10
-10.94109
 20
-1.9303
 30
0.0
 10
-12.14763
 20
-2.54865
 30
0.0
 10
-12.14763
 20
-2.54865
 30
0.0
 10
-12.14763
 20
-2.54865
 30
0.0
 10
-12.14763
 20
-2.54865
 30
0.0
 10
-10.94109
 20
-3.15946
 30
0.0
 10
-10.94109
 20
-3.15946
 30
0.0
  0
SPLINE
  5
5D
330
1F
100
AcDbEntity
  8
Layer 1
 62
   242
370
     9
100
AcDbSpline
210
0.0
220
0.0
230
1.0
 70
    11
 71
     3
 72
    16
 73
    12
 74
     0
 42
0.0000000001
 43
0.0000000001
 12
1.0
 22
0.0
 32
0.0
 13
1.0
 23
0.0
 33
0.0
 40
0.0
 40
0.0
 40
0.0
 40
0.0
 40
0.25
 40
0.25
 40
0.25
 40
0.25
 40
0.5
 40
0.5
 40
0.5
 40
0.5
 40
1.0
 40
1.0
 40
1.0
 40
1.0
 10
-12.2532
 20
-1.13851
 30
0.0
 10
-12.2532
 20
-1.13851
 30
0.0
 10
-11.04666
 20
-1.75686
 30
0.0
 10
-11.04666
 20
-1.75686
 30
0.0
 10
-11.04666
 20
-1.75686
 30
0.0
 10
-11.04666
 20
-1.75686
 30
0.0
 10
-12.2532
 20
-2.38275
 30
0.0
 10
-12.2532
 20
-2.38275
 30
0.0
 10
-12.2532
 20
-2.38275
 30
0.0
 10
-12.2532
 20
-2.38275
 30
0.0
 10
-12.2532
 20
-1.13851
 30
0.0
 10
-12.2532
 20
-1.13851
 30
0.0
  0
SPLINE
  5
5E
330
1F
100
AcDbEntity
  8
Layer 1
 62
   242
370
     9
100
AcDbSpline
210
0.0
220
0.0
230
1.0
 70
    11
 71
     3
 72
    16
 73
    12
 74
     0
 42
0.0000000001
 43
0.0000000001
 12
1.0
 22
0.0
 32
0.0
 13
1.0
 23
0.0
 33
0.0
 40
0.0
 40
0.0
 40
0.0
 40
0.0
 40
0.25
 40
0.25
 40
0.25
 40
0.25
 40
0.5
 40
0.5
 40
0.5
 40
0.5
 40
1.0
 40
1.0
 40
1.0
 40
1.0
 10
-12.47189
 20
-1.13851
 30
0.0
 10
-12.47189
 20
-1.13851
 30
0.0
 10
-13.67843
 20
-1.75686
 30
0.0
 10
-13.67843
 20
-1.75686
 30
0.0
 10
-13.67843
 20
-1.75686
 30
0.0
 10
-13.67843
 20
-1.75686
 30
0.0
 10
-12.47189
 20
-2.38275
 30
0.0
 10
-12.47189
 20
-2.38275
 30
0.0
 10
-12.47189
 20
-2.38275
 30
0.0
 10
-12.47189
 20
-2.38275
 30
0.0
 10
-12.47189
 20
-1.13851
 30
0.0
 10
-12.47189
 20
-1.13851
 30
0.0
  0
SPLINE
  5
5F
330
1F
100
AcDbEntity
  8
Layer 1
 62
   242
370
     9
100
AcDbSpline
210
0.0
220
0.0
230
1.0
 70
    11
 71
     3
 72
    16
 73
    12
 74
     0
 42
0.0000000001
 43
0.0000000001
 12
1.0
 22
0.0
 32
0.0
 13
1.0
 23
0.0
 33
0.0
 40
0.0
 40
0.0
 40
0.0
 40
0.0
 40
0.25
 40
0.25
 40
0.25
 40
0.25
 40
0.5
 40
0.5
 40
0.5
 40
0.5
 40
1.0
 40
1.0
 40
1.0
 40
1.0
 10
-13.79154
 20
-3.15946
 30
0.0
 10
-13.79154
 20
-3.15946
 30
0.0
 10
-13.79154
 20
-1.9303
 30
0.0
 10
-13.79154
 20
-1.9303
 30
0.0
 10
-13.79154
 20
-1.9303
 30
0.0
 10
-13.79154
 20
-1.9303
 30
0.0
 10
-12.585
 20
-2.54865
 30
0.0
 10
-12.585
 20
-2.54865
 30
0.0
 10
-12.585
 20
-2.54865
 30
0.0
 10
-12.585
 20
-2.54865
 30
0.0
 10
-13.79154
 20
-3.15946
 30
0.0
 10
-13.79154
 20
-3.15946
 30
0.0
  0
SPLINE
  5
60
330
1F
100
AcDbEntity
  8
Layer 1
 62
   242
370
     9
100
AcDbSpline
210
0.0
220
0.0
230
1.0
 70
    11
 71
     3
 72
    16
 73
    12
 74
     0
 42
0.0000000001
 43
0.0000000001
 12
1.0
 22
0.0
 32
0.0
 13
1.0
 23
0.0
 33
0.0
 40
0.0
 40
0.0
 40
0.0
 40
0.0
 40
0.25
 40
0.25
 40
0.25
 40
0.25
 40
0.5
 40
0.5
 40
0.5
 40
0.5
 40
1.0
 40
1.0
 40
1.0
 40
1.0
 10
-7.98507
 20
-3.3329
 30
0.0
 10
-7.98507
 20
-3.3329
 30
0.0
 10
-9.18407
 20
-3.95126
 30
0.0
 10
-9.18407
 20
-3.95126
 30
0.0
 10
-9.18407
 20
-3.95126
 30
0.0
 10
-9.18407
 20
-3.95126
 30
0.0
 10
-9.18407
 20
-2.71455
 30
0.0
 10
-9.18407
 20
-2.71455
 30
0.0
 10
-9.18407
 20
-2.71455
 30
0.0
 10
-9.18407
 20
-2.71455
 30
0.0
 10
-7.98507
 20
-3.3329
 30
0.0
 10
-7.98507
 20
-3.3329
 30
0.0
  0
SPLINE
  5
61
330
1F
100
AcDbEntity
  8
Layer 1
 62
   242
370
     9
100
AcDbSpline
210
0.0
220
0.0
230
1.0
 70
    11
 71
     3
 72
    16
 73
    12
 74
     0
 42
0.0000000001
 43
0.0000000001
 12
1.0
 22
0.0
 32
0.0
 13
1.0
 23
0.0
 33
0.0
 40
0.0
 40
0.0
 40
0.0
 40
0.0
 40
0.25
 40
0.25
 40
0.25
 40
0.25
 40
0.5
 40
0.5
 40
0.5
 40
0.5
 40
1.0
 40
1.0
 40
1.0
 40
1.0
 10
-10.6093
 20
-3.3329
 30
0.0
 10
-10.6093
 20
-3.3329
 30
0.0
 10
-9.4103
 20
-3.95126
 30
0.0
 10
-9.4103
 20
-3.95126
 30
0.0
 10
-9.4103
 20
-3.95126
 30
0.0
 10
-9.4103
 20
-3.95126
 30
0.0
 10
-9.4103
 20
-2.71455
 30
0.0
 10
-9.4103
 20
-2.71455
 30
0.0
 10
-9.4103
 20
-2.71455
 30
0.0
 10
-9.4103
 20
-2.71455
 30
0.0
 10
-10.6093
 20
-3.3329
 30
0.0
 10
-10.6093
 20
-3.3329
 30
0.0
  0
SPLINE
  5
62
330
1F
100
AcDbEntity
  8
Layer 1
 62
   242
370
     9
100
AcDbSpline
210
0.0
220
0.0
230
1.0
 70
    11
 71
     3
 72
    16
 73
    12
 74
     0
 42
0.0000000001
 43
0.0000000001
 12
1.0
 22
0.0
 32
0.0
 13
1.0
 23
0.0
 33
0.0
 40
0.0
 40
0.0
 40
0.0
 40
0.0
 40
0.25
 40
0.25
 40
0.25
 40
0.25
 40
0.5
 40
0.5
 40
0.5
 40
0.5
 40
1.0
 40
1.0
 40
1.0
 40
1.0
 10
-7.87196
 20
-3.15946
 30
0.0
 10
-7.87196
 20
-3.15946
 30
0.0
 10
-7.87196
 20
-1.9303
 30
0.0
 10
-7.87196
 20
-1.9303
 30
0.0
 10
-7.87196
 20
-1.9303
 30
0.0
 10
-7.87196
 20
-1.9303
 30
0.0
 10
-9.0785
 20
-2.54865
 30
0.0
 10
-9.0785
 20
-2.54865
 30
0.0
 10
-9.0785
 20
-2.54865
 30
0.0
 10
-9.0785
 20
-2.54865
 30
0.0
 10
-7.87196
 20
-3.15946
 30
0.0
 10
-7.87196
 20
-3.15946
 30
0.0
  0
SPLINE
  5
63
330
1F
100
AcDbEntity
  8
Layer 1
 62
   242
370
     9
100
AcDbSpline
210
0.0
220
0.0
230
1.0
 70
    11
 71
     3
 72
    16
 73
    12
 74
     0
 42
0.0000000001
 43
0.0000000001
 12
1.0
 22
0.0
 32
0.0
 13
1.0
 23
0.0
 33
0.0
 40
0.0
 40
0.0
 40
0.0
 40
0.0
 40
0.25
 40
0.25
 40
0.25
 40
0.25
 40
0.5
 40
0.5
 40
0.5
 40
0.5
 40
1.0
 40
1.0
 40
1.0
 40
1.0
 10
-9.18407
 20
-1.13851
 30
0.0
 10
-9.18407
 20
-1.13851
 30
0.0
 10
-7.98507
 20
-1.75686
 30
0.0
 10
-7.98507
 20
-1.75686
 30
0.0
 10
-7.98507
 20
-1.75686
 30
0.0
 10
-7.98507
 20
-1.75686
 30
0.0
 10
-9.18407
 20
-2.38275
 30
0.0
 10
-9.18407
 20
-2.38275
 30
0.0
 10
-9.18407
 20
-2.38275
 30
0.0
 10
-9.18407
 20
-2.38275
 30
0.0
 10
-9.18407
 20
-1.13851
 30
0.0
 10
-9.18407
 20
-1.13851
 30
0.0
  0
SPLINE
  5
64
330
1F
100
AcDbEntity
  8
Layer 1
 62
   242
370
     9
100
AcDbSpline
210
0.0
220
0.0
230
1.0
 70
    11
 71
     3
 72
    16
 73
    12
 74
     0
 42
0.0000000001
 43
0.0000000001
 12
1.0
 22
0.0
 32
0.0
 13
1.0
 23
0.0
 33
0.0
 40
0.0
 40
0.0
 40
0.0
 40
0.0
 40
0.25
 40
0.25
 40
0.25
 40
0.25
 40
0.5
 40
0.5
 40
0.5
 40
0.5
 40
1.0
 40
1.0
 40
1.0
 40
1.0
 10
-9.4103
 20
-1.13851
 30
0.0
 10
-9.4103
 20
-1.13851
 30
0.0
 10
-10.6093
 20
-1.75686
 30
0.0
 10
-10.6093
 20
-1.75686
 30
0.0
 10
-10.6093
 20
-1.75686
 30
0.0
 10
-10.6093
 20
-1.75686
 30
0.0
 10
-9.4103
 20
-2.38275
 30
0.0
 10
-9.4103
 20
-2.38275
 30
0.0
 10
-9.4103
 20
-2.38275
 30
0.0
 10
-9.4103
 20
-2.38275
 30
0.0
 10
-9.4103
 20
-1.13851
 30
0.0
 10
-9.4103
 20
-1.13851
 30
0.0
  0
SPLINE
  5
65
330
1F
100
AcDbEntity
  8
Layer 1
 62
   242
370
     9
100
AcDbSpline
210
0.0
220
0.0
230
1.0
 70
    11
 71
     3
 72
    16
 73
    12
 74
     0
 42
0.0000000001
 43
0.0000000001
 12
1.0
 22
0.0
 32
0.0
 13
1.0
 23
0.0
 33
0.0
 40
0.0
 40
0.0
 40
0.0
 40
0.0
 40
0.25
 40
0.25
 40
0.25
 40
0.25
 40
0.5
 40
0.5
 40
0.5
 40
0.5
 40
1.0
 40
1.0
 40
1.0
 40
1.0
 10
-10.72241
 20
-3.15946
 30
0.0
 10
-10.72241
 20
-3.15946
 30
0.0
 10
-10.72241
 20
-1.9303
 30
0.0
 10
-10.72241
 20
-1.9303
 30
0.0
 10
-10.72241
 20
-1.9303
 30
0.0
 10
-10.72241
 20
-1.9303
 30
0.0
 10
-9.51587
 20
-2.54865
 30
0.0
 10
-9.51587
 20
-2.54865
 30
0.0
 10
-9.51587
 20
-2.54865
 30
0.0
 10
-9.51587
 20
-2.54865
 30
0.0
 10
-10.72241
 20
-3.15946
 30
0.0
 10
-10.72241
 20
-3.15946
 30
0.0
  0
SPLINE
  5
66
330
1F
100
AcDbEntity
  8
Layer 1
 62
   242
370
     9
100
AcDbSpline
210
0.0
220
0.0
230
1.0
 70
    11
 71
     3
 72
    16
 73
    12
 74
     0
 42
0.0000000001
 43
0.0000000001
 12
1.0
 22
0.0
 32
0.0
 13
1.0
 23
0.0
 33
0.0
 40
0.0
 40
0.0
 40
0.0
 40
0.0
 40
0.25
 40
0.25
 40
0.25
 40
0.25
 40
0.5
 40
0.5
 40
0.5
 40
0.5
 40
1.0
 40
1.0
 40
1.0
 40
1.0
 10
-15.65414
 20
-0.97261
 30
0.0
 10
-15.65414
 20
-0.97261
 30
0.0
 10
-16.85314
 20
-1.59096
 30
0.0
 10
-16.85314
 20
-1.59096
 30
0.0
 10
-16.85314
 20
-1.59096
 30
0.0
 10
-16.85314
 20
-1.59096
 30
0.0
 10
-16.85314
 20
-0.34672
 30
0.0
 10
-16.85314
 20
-0.34672
 30
0.0
 10
-16.85314
 20
-0.34672
 30
0.0
 10
-16.85314
 20
-0.34672
 30
0.0
 10
-15.65414
 20
-0.97261
 30
0.0
 10
-15.65414
 20
-0.97261
 30
0.0
  0
SPLINE
  5
67
330
1F
100
AcDbEntity
  8
Layer 1
 62
   242
370
     9
100
AcDbSpline
210
0.0
220
0.0
230
1.0
 70
    11
 71
     3
 72
    16
 73
    12
 74
     0
 42
0.0000000001
 43
0.0000000001
 12
1.0
 22
0.0
 32
0.0
 13
1.0
 23
0.0
 33
0.0
 40
0.0
 40
0.0
 40
0.0
 40
0.0
 40
0.25
 40
0.25
 40
0.25
 40
0.25
 40
0.5
 40
0.5
 40
0.5
 40
0.5
 40
1.0
 40
1.0
 40
1.0
 40
1.0
 10
-15.54102
 20
-0.79917
 30
0.0
 10
-15.54102
 20
-0.79917
 30
0.0
 10
-15.54102
 20
0.43753
 30
0.0
 10
-15.54102
 20
0.43753
 30
0.0
 10
-15.54102
 20
0.43753
 30
0.0
 10
-15.54102
 20
0.43753
 30
0.0
 10
-16.74757
 20
-0.18082
 30
0.0
 10
-16.74757
 20
-0.18082
 30
0.0
 10
-16.74757
 20
-0.18082
 30
0.0
 10
-16.74757
 20
-0.18082
 30
0.0
 10
-15.54102
 20
-0.79917
 30
0.0
 10
-15.54102
 20
-0.79917
 30
0.0
  0
SPLINE
  5
68
330
1F
100
AcDbEntity
  8
Layer 1
 62
   242
370
     9
100
AcDbSpline
210
0.0
220
0.0
230
1.0
 70
    11
 71
     3
 72
    16
 73
    12
 74
     0
 42
0.0000000001
 43
0.0000000001
 12
1.0
 22
0.0
 32
0.0
 13
1.0
 23
0.0
 33
0.0
 40
0.0
 40
0.0
 40
0.0
 40
0.0
 40
0.25
 40
0.25
 40
0.25
 40
0.25
 40
0.5
 40
0.5
 40
0.5
 40
0.5
 40
1.0
 40
1.0
 40
1.0
 40
1.0
 10
-16.85314
 20
1.22932
 30
0.0
 10
-16.85314
 20
1.22932
 30
0.0
 10
-15.65414
 20
0.61097
 30
0.0
 10
-15.65414
 20
0.61097
 30
0.0
 10
-15.65414
 20
0.61097
 30
0.0
 10
-15.65414
 20
0.61097
 30
0.0
 10
-16.85314
 20
-0.01493
 30
0.0
 10
-16.85314
 20
-0.01493
 30
0.0
 10
-16.85314
 20
-0.01493
 30
0.0
 10
-16.85314
 20
-0.01493
 30
0.0
 10
-16.85314
 20
1.22932
 30
0.0
 10
-16.85314
 20
1.22932
 30
0.0
  0
SPLINE
  5
69
330
1F
100
AcDbEntity
  8
Layer 1
 62
   242
370
     9
100
AcDbSpline
210
0.0
220
0.0
230
1.0
 70
    11
 71
     3
 72
    16
 73
    12
 74
     0
 42
0.0000000001
 43
0.0000000001
 12
1.0
 22
0.0
 32
0.0
 13
1.0
 23
0.0
 33
0.0
 40
0.0
 40
0.0
 40
0.0
 40
0.0
 40
0.25
 40
0.25
 40
0.25
 40
0.25
 40
0.5
 40
0.5
 40
0.5
 40
0.5
 40
1.0
 40
1.0
 40
1.0
 40
1.0
 10
-12.585
 20
-0.97261
 30
0.0
 10
-12.585
 20
-0.97261
 30
0.0
 10
-13.79154
 20
-1.59096
 30
0.0
 10
-13.79154
 20
-1.59096
 30
0.0
 10
-13.79154
 20
-1.59096
 30
0.0
 10
-13.79154
 20
-1.59096
 30
0.0
 10
-13.79154
 20
-0.34672
 30
0.0
 10
-13.79154
 20
-0.34672
 30
0.0
 10
-13.79154
 20
-0.34672
 30
0.0
 10
-13.79154
 20
-0.34672
 30
0.0
 10
-12.585
 20
-0.97261
 30
0.0
 10
-12.585
 20
-0.97261
 30
0.0
  0
SPLINE
  5
6A
330
1F
100
AcDbEntity
  8
Layer 1
 62
   242
370
     9
100
AcDbSpline
210
0.0
220
0.0
230
1.0
 70
    11
 71
     3
 72
    16
 73
    12
 74
     0
 42
0.0000000001
 43
0.0000000001
 12
1.0
 22
0.0
 32
0.0
 13
1.0
 23
0.0
 33
0.0
 40
0.0
 40
0.0
 40
0.0
 40
0.0
 40
0.25
 40
0.25
 40
0.25
 40
0.25
 40
0.5
 40
0.5
 40
0.5
 40
0.5
 40
1.0
 40
1.0
 40
1.0
 40
1.0
 10
-15.20923
 20
-0.97261
 30
0.0
 10
-15.20923
 20
-0.97261
 30
0.0
 10
-14.01023
 20
-1.59096
 30
0.0
 10
-14.01023
 20
-1.59096
 30
0.0
 10
-14.01023
 20
-1.59096
 30
0.0
 10
-14.01023
 20
-1.59096
 30
0.0
 10
-14.01023
 20
-0.34672
 30
0.0
 10
-14.01023
 20
-0.34672
 30
0.0
 10
-14.01023
 20
-0.34672
 30
0.0
 10
-14.01023
 20
-0.34672
 30
0.0
 10
-15.20923
 20
-0.97261
 30
0.0
 10
-15.20923
 20
-0.97261
 30
0.0
  0
SPLINE
  5
6B
330
1F
100
AcDbEntity
  8
Layer 1
 62
   242
370
     9
100
AcDbSpline
210
0.0
220
0.0
230
1.0
 70
    11
 71
     3
 72
    16
 73
    12
 74
     0
 42
0.0000000001
 43
0.0000000001
 12
1.0
 22
0.0
 32
0.0
 13
1.0
 23
0.0
 33
0.0
 40
0.0
 40
0.0
 40
0.0
 40
0.0
 40
0.25
 40
0.25
 40
0.25
 40
0.25
 40
0.5
 40
0.5
 40
0.5
 40
0.5
 40
1.0
 40
1.0
 40
1.0
 40
1.0
 10
-12.47189
 20
-0.79917
 30
0.0
 10
-12.47189
 20
-0.79917
 30
0.0
 10
-12.47189
 20
0.43753
 30
0.0
 10
-12.47189
 20
0.43753
 30
0.0
 10
-12.47189
 20
0.43753
 30
0.0
 10
-12.47189
 20
0.43753
 30
0.0
 10
-13.67843
 20
-0.18082
 30
0.0
 10
-13.67843
 20
-0.18082
 30
0.0
 10
-13.67843
 20
-0.18082
 30
0.0
 10
-13.67843
 20
-0.18082
 30
0.0
 10
-12.47189
 20
-0.79917
 30
0.0
 10
-12.47189
 20
-0.79917
 30
0.0
  0
SPLINE
  5
6C
330
1F
100
AcDbEntity
  8
Layer 1
 62
   242
370
     9
100
AcDbSpline
210
0.0
220
0.0
230
1.0
 70
    11
 71
     3
 72
    16
 73
    12
 74
     0
 42
0.0000000001
 43
0.0000000001
 12
1.0
 22
0.0
 32
0.0
 13
1.0
 23
0.0
 33
0.0
 40
0.0
 40
0.0
 40
0.0
 40
0.0
 40
0.25
 40
0.25
 40
0.25
 40
0.25
 40
0.5
 40
0.5
 40
0.5
 40
0.5
 40
1.0
 40
1.0
 40
1.0
 40
1.0
 10
-13.79154
 20
1.22932
 30
0.0
 10
-13.79154
 20
1.22932
 30
0.0
 10
-12.585
 20
0.61097
 30
0.0
 10
-12.585
 20
0.61097
 30
0.0
 10
-12.585
 20
0.61097
 30
0.0
 10
-12.585
 20
0.61097
 30
0.0
 10
-13.79154
 20
-0.01493
 30
0.0
 10
-13.79154
 20
-0.01493
 30
0.0
 10
-13.79154
 20
-0.01493
 30
0.0
 10
-13.79154
 20
-0.01493
 30
0.0
 10
-13.79154
 20
1.22932
 30
0.0
 10
-13.79154
 20
1.22932
 30
0.0
  0
SPLINE
  5
6D
330
1F
100
AcDbEntity
  8
Layer 1
 62
   242
370
     9
100
AcDbSpline
210
0.0
220
0.0
230
1.0
 70
    11
 71
     3
 72
    16
 73
    12
 74
     0
 42
0.0000000001
 43
0.0000000001
 12
1.0
 22
0.0
 32
0.0
 13
1.0
 23
0.0
 33
0.0
 40
0.0
 40
0.0
 40
0.0
 40
0.0
 40
0.25
 40
0.25
 40
0.25
 40
0.25
 40
0.5
 40
0.5
 40
0.5
 40
0.5
 40
1.0
 40
1.0
 40
1.0
 40
1.0
 10
-14.01023
 20
1.22932
 30
0.0
 10
-14.01023
 20
1.22932
 30
0.0
 10
-15.20923
 20
0.61097
 30
0.0
 10
-15.20923
 20
0.61097
 30
0.0
 10
-15.20923
 20
0.61097
 30
0.0
 10
-15.20923
 20
0.61097
 30
0.0
 10
-14.01023
 20
-0.01493
 30
0.0
 10
-14.01023
 20
-0.01493
 30
0.0
 10
-14.01023
 20
-0.01493
 30
0.0
 10
-14.01023
 20
-0.01493
 30
0.0
 10
-14.01023
 20
1.22932
 30
0.0
 10
-14.01023
 20
1.22932
 30
0.0
  0
SPLINE
  5
6E
330
1F
100
AcDbEntity
  8
Layer 1
 62
   242
370
     9
100
AcDbSpline
210
0.0
220
0.0
230
1.0
 70
    11
 71
     3
 72
    16
 73
    12
 74
     0
 42
0.0000000001
 43
0.0000000001
 12
1.0
 22
0.0
 32
0.0
 13
1.0
 23
0.0
 33
0.0
 40
0.0
 40
0.0
 40
0.0
 40
0.0
 40
0.25
 40
0.25
 40
0.25
 40
0.25
 40
0.5
 40
0.5
 40
0.5
 40
0.5
 40
1.0
 40
1.0
 40
1.0
 40
1.0
 10
-15.32234
 20
-0.79917
 30
0.0
 10
-15.32234
 20
-0.79917
 30
0.0
 10
-15.32234
 20
0.43753
 30
0.0
 10
-15.32234
 20
0.43753
 30
0.0
 10
-15.32234
 20
0.43753
 30
0.0
 10
-15.32234
 20
0.43753
 30
0.0
 10
-14.12334
 20
-0.18082
 30
0.0
 10
-14.12334
 20
-0.18082
 30
0.0
 10
-14.12334
 20
-0.18082
 30
0.0
 10
-14.12334
 20
-0.18082
 30
0.0
 10
-15.32234
 20
-0.79917
 30
0.0
 10
-15.32234
 20
-0.79917
 30
0.0
  0
SPLINE
  5
6F
330
1F
100
AcDbEntity
  8
Layer 1
 62
   242
370
     9
100
AcDbSpline
210
0.0
220
0.0
230
1.0
 70
    11
 71
     3
 72
    16
 73
    12
 74
     0
 42
0.0000000001
 43
0.0000000001
 12
1.0
 22
0.0
 32
0.0
 13
1.0
 23
0.0
 33
0.0
 40
0.0
 40
0.0
 40
0.0
 40
0.0
 40
0.25
 40
0.25
 40
0.25
 40
0.25
 40
0.5
 40
0.5
 40
0.5
 40
0.5
 40
1.0
 40
1.0
 40
1.0
 40
1.0
 10
-9.51587
 20
-0.97261
 30
0.0
 10
-9.51587
 20
-0.97261
 30
0.0
 10
-10.72241
 20
-1.59096
 30
0.0
 10
-10.72241
 20
-1.59096
 30
0.0
 10
-10.72241
 20
-1.59096
 30
0.0
 10
-10.72241
 20
-1.59096
 30
0.0
 10
-10.72241
 20
-0.34672
 30
0.0
 10
-10.72241
 20
-0.34672
 30
0.0
 10
-10.72241
 20
-0.34672
 30
0.0
 10
-10.72241
 20
-0.34672
 30
0.0
 10
-9.51587
 20
-0.97261
 30
0.0
 10
-9.51587
 20
-0.97261
 30
0.0
  0
SPLINE
  5
70
330
1F
100
AcDbEntity
  8
Layer 1
 62
   242
370
     9
100
AcDbSpline
210
0.0
220
0.0
230
1.0
 70
    11
 71
     3
 72
    16
 73
    12
 74
     0
 42
0.0000000001
 43
0.0000000001
 12
1.0
 22
0.0
 32
0.0
 13
1.0
 23
0.0
 33
0.0
 40
0.0
 40
0.0
 40
0.0
 40
0.0
 40
0.25
 40
0.25
 40
0.25
 40
0.25
 40
0.5
 40
0.5
 40
0.5
 40
0.5
 40
1.0
 40
1.0
 40
1.0
 40
1.0
 10
-12.14763
 20
-0.97261
 30
0.0
 10
-12.14763
 20
-0.97261
 30
0.0
 10
-10.94109
 20
-1.59096
 30
0.0
 10
-10.94109
 20
-1.59096
 30
0.0
 10
-10.94109
 20
-1.59096
 30
0.0
 10
-10.94109
 20
-1.59096
 30
0.0
 10
-10.94109
 20
-0.34672
 30
0.0
 10
-10.94109
 20
-0.34672
 30
0.0
 10
-10.94109
 20
-0.34672
 30
0.0
 10
-10.94109
 20
-0.34672
 30
0.0
 10
-12.14763
 20
-0.97261
 30
0.0
 10
-12.14763
 20
-0.97261
 30
0.0
  0
SPLINE
  5
71
330
1F
100
AcDbEntity
  8
Layer 1
 62
   242
370
     9
100
AcDbSpline
210
0.0
220
0.0
230
1.0
 70
    11
 71
     3
 72
    16
 73
    12
 74
     0
 42
0.0000000001
 43
0.0000000001
 12
1.0
 22
0.0
 32
0.0
 13
1.0
 23
0.0
 33
0.0
 40
0.0
 40
0.0
 40
0.0
 40
0.0
 40
0.25
 40
0.25
 40
0.25
 40
0.25
 40
0.5
 40
0.5
 40
0.5
 40
0.5
 40
1.0
 40
1.0
 40
1.0
 40
1.0
 10
-9.4103
 20
-0.79917
 30
0.0
 10
-9.4103
 20
-0.79917
 30
0.0
 10
-9.4103
 20
0.43753
 30
0.0
 10
-9.4103
 20
0.43753
 30
0.0
 10
-9.4103
 20
0.43753
 30
0.0
 10
-9.4103
 20
0.43753
 30
0.0
 10
-10.6093
 20
-0.18082
 30
0.0
 10
-10.6093
 20
-0.18082
 30
0.0
 10
-10.6093
 20
-0.18082
 30
0.0
 10
-10.6093
 20
-0.18082
 30
0.0
 10
-9.4103
 20
-0.79917
 30
0.0
 10
-9.4103
 20
-0.79917
 30
0.0
  0
SPLINE
  5
72
330
1F
100
AcDbEntity
  8
Layer 1
 62
   242
370
     9
100
AcDbSpline
210
0.0
220
0.0
230
1.0
 70
    11
 71
     3
 72
    16
 73
    12
 74
     0
 42
0.0000000001
 43
0.0000000001
 12
1.0
 22
0.0
 32
0.0
 13
1.0
 23
0.0
 33
0.0
 40
0.0
 40
0.0
 40
0.0
 40
0.0
 40
0.25
 40
0.25
 40
0.25
 40
0.25
 40
0.5
 40
0.5
 40
0.5
 40
0.5
 40
1.0
 40
1.0
 40
1.0
 40
1.0
 10
-10.72241
 20
1.22932
 30
0.0
 10
-10.72241
 20
1.22932
 30
0.0
 10
-9.51587
 20
0.61097
 30
0.0
 10
-9.51587
 20
0.61097
 30
0.0
 10
-9.51587
 20
0.61097
 30
0.0
 10
-9.51587
 20
0.61097
 30
0.0
 10
-10.72241
 20
-0.01493
 30
0.0
 10
-10.72241
 20
-0.01493
 30
0.0
 10
-10.72241
 20
-0.01493
 30
0.0
 10
-10.72241
 20
-0.01493
 30
0.0
 10
-10.72241
 20
1.22932
 30
0.0
 10
-10.72241
 20
1.22932
 30
0.0
  0
SPLINE
  5
73
330
1F
100
AcDbEntity
  8
Layer 1
 62
   242
370
     9
100
AcDbSpline
210
0.0
220
0.0
230
1.0
 70
    11
 71
     3
 72
    16
 73
    12
 74
     0
 42
0.0000000001
 43
0.0000000001
 12
1.0
 22
0.0
 32
0.0
 13
1.0
 23
0.0
 33
0.0
 40
0.0
 40
0.0
 40
0.0
 40
0.0
 40
0.25
 40
0.25
 40
0.25
 40
0.25
 40
0.5
 40
0.5
 40
0.5
 40
0.5
 40
1.0
 40
1.0
 40
1.0
 40
1.0
 10
-10.94109
 20
1.22932
 30
0.0
 10
-10.94109
 20
1.22932
 30
0.0
 10
-12.14763
 20
0.61097
 30
0.0
 10
-12.14763
 20
0.61097
 30
0.0
 10
-12.14763
 20
0.61097
 30
0.0
 10
-12.14763
 20
0.61097
 30
0.0
 10
-10.94109
 20
-0.01493
 30
0.0
 10
-10.94109
 20
-0.01493
 30
0.0
 10
-10.94109
 20
-0.01493
 30
0.0
 10
-10.94109
 20
-0.01493
 30
0.0
 10
-10.94109
 20
1.22932
 30
0.0
 10
-10.94109
 20
1.22932
 30
0.0
  0
SPLINE
  5
74
330
1F
100
AcDbEntity
  8
Layer 1
 62
   242
370
     9
100
AcDbSpline
210
0.0
220
0.0
230
1.0
 70
    11
 71
     3
 72
    16
 73
    12
 74
     0
 42
0.0000000001
 43
0.0000000001
 12
1.0
 22
0.0
 32
0.0
 13
1.0
 23
0.0
 33
0.0
 40
0.0
 40
0.0
 40
0.0
 40
0.0
 40
0.25
 40
0.25
 40
0.25
 40
0.25
 40
0.5
 40
0.5
 40
0.5
 40
0.5
 40
1.0
 40
1.0
 40
1.0
 40
1.0
 10
-12.2532
 20
-0.79917
 30
0.0
 10
-12.2532
 20
-0.79917
 30
0.0
 10
-12.2532
 20
0.43753
 30
0.0
 10
-12.2532
 20
0.43753
 30
0.0
 10
-12.2532
 20
0.43753
 30
0.0
 10
-12.2532
 20
0.43753
 30
0.0
 10
-11.04666
 20
-0.18082
 30
0.0
 10
-11.04666
 20
-0.18082
 30
0.0
 10
-11.04666
 20
-0.18082
 30
0.0
 10
-11.04666
 20
-0.18082
 30
0.0
 10
-12.2532
 20
-0.79917
 30
0.0
 10
-12.2532
 20
-0.79917
 30
0.0
  0
SPLINE
  5
75
330
1F
100
AcDbEntity
  8
Layer 1
 62
   242
370
     9
100
AcDbSpline
210
0.0
220
0.0
230
1.0
 70
    11
 71
     3
 72
    16
 73
    12
 74
     0
 42
0.0000000001
 43
0.0000000001
 12
1.0
 22
0.0
 32
0.0
 13
1.0
 23
0.0
 33
0.0
 40
0.0
 40
0.0
 40
0.0
 40
0.0
 40
0.25
 40
0.25
 40
0.25
 40
0.25
 40
0.5
 40
0.5
 40
0.5
 40
0.5
 40
1.0
 40
1.0
 40
1.0
 40
1.0
 10
-6.45427
 20
-0.97261
 30
0.0
 10
-6.45427
 20
-0.97261
 30
0.0
 10
-7.65327
 20
-1.59096
 30
0.0
 10
-7.65327
 20
-1.59096
 30
0.0
 10
-7.65327
 20
-1.59096
 30
0.0
 10
-7.65327
 20
-1.59096
 30
0.0
 10
-7.65327
 20
-0.34672
 30
0.0
 10
-7.65327
 20
-0.34672
 30
0.0
 10
-7.65327
 20
-0.34672
 30
0.0
 10
-7.65327
 20
-0.34672
 30
0.0
 10
-6.45427
 20
-0.97261
 30
0.0
 10
-6.45427
 20
-0.97261
 30
0.0
  0
SPLINE
  5
76
330
1F
100
AcDbEntity
  8
Layer 1
 62
   242
370
     9
100
AcDbSpline
210
0.0
220
0.0
230
1.0
 70
    11
 71
     3
 72
    16
 73
    12
 74
     0
 42
0.0000000001
 43
0.0000000001
 12
1.0
 22
0.0
 32
0.0
 13
1.0
 23
0.0
 33
0.0
 40
0.0
 40
0.0
 40
0.0
 40
0.0
 40
0.25
 40
0.25
 40
0.25
 40
0.25
 40
0.5
 40
0.5
 40
0.5
 40
0.5
 40
1.0
 40
1.0
 40
1.0
 40
1.0
 10
-9.0785
 20
-0.97261
 30
0.0
 10
-9.0785
 20
-0.97261
 30
0.0
 10
-7.87196
 20
-1.59096
 30
0.0
 10
-7.87196
 20
-1.59096
 30
0.0
 10
-7.87196
 20
-1.59096
 30
0.0
 10
-7.87196
 20
-1.59096
 30
0.0
 10
-7.87196
 20
-0.34672
 30
0.0
 10
-7.87196
 20
-0.34672
 30
0.0
 10
-7.87196
 20
-0.34672
 30
0.0
 10
-7.87196
 20
-0.34672
 30
0.0
 10
-9.0785
 20
-0.97261
 30
0.0
 10
-9.0785
 20
-0.97261
 30
0.0
  0
SPLINE
  5
77
330
1F
100
AcDbEntity
  8
Layer 1
 62
   242
370
     9
100
AcDbSpline
210
0.0
220
0.0
230
1.0
 70
    11
 71
     3
 72
    16
 73
    12
 74
     0
 42
0.0000000001
 43
0.0000000001
 12
1.0
 22
0.0
 32
0.0
 13
1.0
 23
0.0
 33
0.0
 40
0.0
 40
0.0
 40
0.0
 40
0.0
 40
0.25
 40
0.25
 40
0.25
 40
0.25
 40
0.5
 40
0.5
 40
0.5
 40
0.5
 40
1.0
 40
1.0
 40
1.0
 40
1.0
 10
-6.34116
 20
-0.79917
 30
0.0
 10
-6.34116
 20
-0.79917
 30
0.0
 10
-6.34116
 20
0.43753
 30
0.0
 10
-6.34116
 20
0.43753
 30
0.0
 10
-6.34116
 20
0.43753
 30
0.0
 10
-6.34116
 20
0.43753
 30
0.0
 10
-7.54016
 20
-0.18082
 30
0.0
 10
-7.54016
 20
-0.18082
 30
0.0
 10
-7.54016
 20
-0.18082
 30
0.0
 10
-7.54016
 20
-0.18082
 30
0.0
 10
-6.34116
 20
-0.79917
 30
0.0
 10
-6.34116
 20
-0.79917
 30
0.0
  0
SPLINE
  5
78
330
1F
100
AcDbEntity
  8
Layer 1
 62
   242
370
     9
100
AcDbSpline
210
0.0
220
0.0
230
1.0
 70
    11
 71
     3
 72
    16
 73
    12
 74
     0
 42
0.0000000001
 43
0.0000000001
 12
1.0
 22
0.0
 32
0.0
 13
1.0
 23
0.0
 33
0.0
 40
0.0
 40
0.0
 40
0.0
 40
0.0
 40
0.25
 40
0.25
 40
0.25
 40
0.25
 40
0.5
 40
0.5
 40
0.5
 40
0.5
 40
1.0
 40
1.0
 40
1.0
 40
1.0
 10
-7.65327
 20
1.22932
 30
0.0
 10
-7.65327
 20
1.22932
 30
0.0
 10
-6.45427
 20
0.61097
 30
0.0
 10
-6.45427
 20
0.61097
 30
0.0
 10
-6.45427
 20
0.61097
 30
0.0
 10
-6.45427
 20
0.61097
 30
0.0
 10
-7.65327
 20
-0.01493
 30
0.0
 10
-7.65327
 20
-0.01493
 30
0.0
 10
-7.65327
 20
-0.01493
 30
0.0
 10
-7.65327
 20
-0.01493
 30
0.0
 10
-7.65327
 20
1.22932
 30
0.0
 10
-7.65327
 20
1.22932
 30
0.0
  0
SPLINE
  5
79
330
1F
100
AcDbEntity
  8
Layer 1
 62
   242
370
     9
100
AcDbSpline
210
0.0
220
0.0
230
1.0
 70
    11
 71
     3
 72
    16
 73
    12
 74
     0
 42
0.0000000001
 43
0.0000000001
 12
1.0
 22
0.0
 32
0.0
 13
1.0
 23
0.0
 33
0.0
 40
0.0
 40
0.0
 40
0.0
 40
0.0
 40
0.25
 40
0.25
 40
0.25
 40
0.25
 40
0.5
 40
0.5
 40
0.5
 40
0.5
 40
1.0
 40
1.0
 40
1.0
 40
1.0
 10
-7.87196
 20
1.22932
 30
0.0
 10
-7.87196
 20
1.22932
 30
0.0
 10
-9.0785
 20
0.61097
 30
0.0
 10
-9.0785
 20
0.61097
 30
0.0
 10
-9.0785
 20
0.61097
 30
0.0
 10
-9.0785
 20
0.61097
 30
0.0
 10
-7.87196
 20
-0.01493
 30
0.0
 10
-7.87196
 20
-0.01493
 30
0.0
 10
-7.87196
 20
-0.01493
 30
0.0
 10
-7.87196
 20
-0.01493
 30
0.0
 10
-7.87196
 20
1.22932
 30
0.0
 10
-7.87196
 20
1.22932
 30
0.0
  0
SPLINE
  5
7A
330
1F
100
AcDbEntity
  8
Layer 1
 62
   242
370
     9
100
AcDbSpline
210
0.0
220
0.0
230
1.0
 70
    11
 71
     3
 72
    16
 73
    12
 74
     0
 42
0.0000000001
 43
0.0000000001
 12
1.0
 22
0.0
 32
0.0
 13
1.0
 23
0.0
 33
0.0
 40
0.0
 40
0.0
 40
0.0
 40
0.0
 40
0.25
 40
0.25
 40
0.25
 40
0.25
 40
0.5
 40
0.5
 40
0.5
 40
0.5
 40
1.0
 40
1.0
 40
1.0
 40
1.0
 10
-9.18407
 20
-0.79917
 30
0.0
 10
-9.18407
 20
-0.79917
 30
0.0
 10
-9.18407
 20
0.43753
 30
0.0
 10
-9.18407
 20
0.43753
 30
0.0
 10
-9.18407
 20
0.43753
 30
0.0
 10
-9.18407
 20
0.43753
 30
0.0
 10
-7.98507
 20
-0.18082
 30
0.0
 10
-7.98507
 20
-0.18082
 30
0.0
 10
-7.98507
 20
-0.18082
 30
0.0
 10
-7.98507
 20
-0.18082
 30
0.0
 10
-9.18407
 20
-0.79917
 30
0.0
 10
-9.18407
 20
-0.79917
 30
0.0
  0
SPLINE
  5
7B
330
1F
100
AcDbEntity
  8
Layer 1
 62
   242
370
     9
100
AcDbSpline
210
0.0
220
0.0
230
1.0
 70
    11
 71
     3
 72
    16
 73
    12
 74
     0
 42
0.0000000001
 43
0.0000000001
 12
1.0
 22
0.0
 32
0.0
 13
1.0
 23
0.0
 33
0.0
 40
0.0
 40
0.0
 40
0.0
 40
0.0
 40
0.25
 40
0.25
 40
0.25
 40
0.25
 40
0.5
 40
0.5
 40
0.5
 40
0.5
 40
1.0
 40
1.0
 40
1.0
 40
1.0
 10
-14.12334
 20
1.39522
 30
0.0
 10
-14.12334
 20
1.39522
 30
0.0
 10
-15.32234
 20
0.78441
 30
0.0
 10
-15.32234
 20
0.78441
 30
0.0
 10
-15.32234
 20
0.78441
 30
0.0
 10
-15.32234
 20
0.78441
 30
0.0
 10
-15.32234
 20
2.02111
 30
0.0
 10
-15.32234
 20
2.02111
 30
0.0
 10
-15.32234
 20
2.02111
 30
0.0
 10
-15.32234
 20
2.02111
 30
0.0
 10
-14.12334
 20
1.39522
 30
0.0
 10
-14.12334
 20
1.39522
 30
0.0
  0
SPLINE
  5
7C
330
1F
100
AcDbEntity
  8
Layer 1
 62
   242
370
     9
100
AcDbSpline
210
0.0
220
0.0
230
1.0
 70
    11
 71
     3
 72
    16
 73
    12
 74
     0
 42
0.0000000001
 43
0.0000000001
 12
1.0
 22
0.0
 32
0.0
 13
1.0
 23
0.0
 33
0.0
 40
0.0
 40
0.0
 40
0.0
 40
0.0
 40
0.25
 40
0.25
 40
0.25
 40
0.25
 40
0.5
 40
0.5
 40
0.5
 40
0.5
 40
1.0
 40
1.0
 40
1.0
 40
1.0
 10
-16.74757
 20
1.39522
 30
0.0
 10
-16.74757
 20
1.39522
 30
0.0
 10
-15.54102
 20
0.78441
 30
0.0
 10
-15.54102
 20
0.78441
 30
0.0
 10
-15.54102
 20
0.78441
 30
0.0
 10
-15.54102
 20
0.78441
 30
0.0
 10
-15.54102
 20
2.02111
 30
0.0
 10
-15.54102
 20
2.02111
 30
0.0
 10
-15.54102
 20
2.02111
 30
0.0
 10
-15.54102
 20
2.02111
 30
0.0
 10
-16.74757
 20
1.39522
 30
0.0
 10
-16.74757
 20
1.39522
 30
0.0
  0
SPLINE
  5
7D
330
1F
100
AcDbEntity
  8
Layer 1
 62
   242
370
     9
100
AcDbSpline
210
0.0
220
0.0
230
1.0
 70
    11
 71
     3
 72
    20
 73
    16
 74
     0
 42
0.0000000001
 43
0.0000000001
 12
1.0
 22
0.0
 32
0.0
 13
1.0
 23
0.0
 33
0.0
 40
0.0
 40
0.0
 40
0.0
 40
0.0
 40
0.2
 40
0.2
 40
0.2
 40
0.2
 40
0.4
 40
0.4
 40
0.4
 40
0.4
 40
0.6
 40
0.6
 40
0.6
 40
0.6
 40
1.0
 40
1.0
 40
1.0
 40
1.0
 10
-14.01023
 20
1.5762
 30
0.0
 10
-14.01023
 20
1.5762
 30
0.0
 10
-14.01023
 20
2.81291
 30
0.0
 10
-14.01023
 20
2.81291
 30
0.0
 10
-14.01023
 20
2.81291
 30
0.0
 10
-14.01023
 20
2.81291
 30
0.0
 10
-15.20923
 20
2.19455
 30
0.0
 10
-15.20923
 20
2.19455
 30
0.0
 10
-15.20923
 20
2.19455
 30
0.0
 10
-15.20923
 20
2.19455
 30
0.0
 10
-14.01023
 20
1.5762
 30
0.0
 10
-14.01023
 20
1.5762
 30
0.0
 10
-14.01023
 20
1.5762
 30
0.0
 10
-14.01023
 20
1.5762
 30
0.0
 10
-14.01023
 20
1.5762
 30
0.0
 10
-14.01023
 20
1.5762
 30
0.0
  0
SPLINE
  5
7E
330
1F
100
AcDbEntity
  8
Layer 1
 62
   242
370
     9
100
AcDbSpline
210
0.0
220
0.0
230
1.0
 70
    11
 71
     3
 72
    16
 73
    12
 74
     0
 42
0.0000000001
 43
0.0000000001
 12
1.0
 22
0.0
 32
0.0
 13
1.0
 23
0.0
 33
0.0
 40
0.0
 40
0.0
 40
0.0
 40
0.0
 40
0.25
 40
0.25
 40
0.25
 40
0.25
 40
0.5
 40
0.5
 40
0.5
 40
0.5
 40
1.0
 40
1.0
 40
1.0
 40
1.0
 10
-15.32234
 20
3.6047
 30
0.0
 10
-15.32234
 20
3.6047
 30
0.0
 10
-14.12334
 20
2.98635
 30
0.0
 10
-14.12334
 20
2.98635
 30
0.0
 10
-14.12334
 20
2.98635
 30
0.0
 10
-14.12334
 20
2.98635
 30
0.0
 10
-15.32234
 20
2.36045
 30
0.0
 10
-15.32234
 20
2.36045
 30
0.0
 10
-15.32234
 20
2.36045
 30
0.0
 10
-15.32234
 20
2.36045
 30
0.0
 10
-15.32234
 20
3.6047
 30
0.0
 10
-15.32234
 20
3.6047
 30
0.0
  0
SPLINE
  5
7F
330
1F
100
AcDbEntity
  8
Layer 1
 62
   242
370
     9
100
AcDbSpline
210
0.0
220
0.0
230
1.0
 70
    11
 71
     3
 72
    16
 73
    12
 74
     0
 42
0.0000000001
 43
0.0000000001
 12
1.0
 22
0.0
 32
0.0
 13
1.0
 23
0.0
 33
0.0
 40
0.0
 40
0.0
 40
0.0
 40
0.0
 40
0.25
 40
0.25
 40
0.25
 40
0.25
 40
0.5
 40
0.5
 40
0.5
 40
0.5
 40
1.0
 40
1.0
 40
1.0
 40
1.0
 10
-15.54102
 20
3.6047
 30
0.0
 10
-15.54102
 20
3.6047
 30
0.0
 10
-16.74757
 20
2.98635
 30
0.0
 10
-16.74757
 20
2.98635
 30
0.0
 10
-16.74757
 20
2.98635
 30
0.0
 10
-16.74757
 20
2.98635
 30
0.0
 10
-15.54102
 20
2.36045
 30
0.0
 10
-15.54102
 20
2.36045
 30
0.0
 10
-15.54102
 20
2.36045
 30
0.0
 10
-15.54102
 20
2.36045
 30
0.0
 10
-15.54102
 20
3.6047
 30
0.0
 10
-15.54102
 20
3.6047
 30
0.0
  0
SPLINE
  5
80
330
1F
100
AcDbEntity
  8
Layer 1
 62
   242
370
     9
100
AcDbSpline
210
0.0
220
0.0
230
1.0
 70
    11
 71
     3
 72
    16
 73
    12
 74
     0
 42
0.0000000001
 43
0.0000000001
 12
1.0
 22
0.0
 32
0.0
 13
1.0
 23
0.0
 33
0.0
 40
0.0
 40
0.0
 40
0.0
 40
0.0
 40
0.25
 40
0.25
 40
0.25
 40
0.25
 40
0.5
 40
0.5
 40
0.5
 40
0.5
 40
1.0
 40
1.0
 40
1.0
 40
1.0
 10
-16.85314
 20
1.5762
 30
0.0
 10
-16.85314
 20
1.5762
 30
0.0
 10
-16.85314
 20
2.81291
 30
0.0
 10
-16.85314
 20
2.81291
 30
0.0
 10
-16.85314
 20
2.81291
 30
0.0
 10
-16.85314
 20
2.81291
 30
0.0
 10
-15.65414
 20
2.19455
 30
0.0
 10
-15.65414
 20
2.19455
 30
0.0
 10
-15.65414
 20
2.19455
 30
0.0
 10
-15.65414
 20
2.19455
 30
0.0
 10
-16.85314
 20
1.5762
 30
0.0
 10
-16.85314
 20
1.5762
 30
0.0
  0
SPLINE
  5
81
330
1F
100
AcDbEntity
  8
Layer 1
 62
   242
370
     9
100
AcDbSpline
210
0.0
220
0.0
230
1.0
 70
    11
 71
     3
 72
    16
 73
    12
 74
     0
 42
0.0000000001
 43
0.0000000001
 12
1.0
 22
0.0
 32
0.0
 13
1.0
 23
0.0
 33
0.0
 40
0.0
 40
0.0
 40
0.0
 40
0.0
 40
0.25
 40
0.25
 40
0.25
 40
0.25
 40
0.5
 40
0.5
 40
0.5
 40
0.5
 40
1.0
 40
1.0
 40
1.0
 40
1.0
 10
-11.04666
 20
1.39522
 30
0.0
 10
-11.04666
 20
1.39522
 30
0.0
 10
-12.2532
 20
0.78441
 30
0.0
 10
-12.2532
 20
0.78441
 30
0.0
 10
-12.2532
 20
0.78441
 30
0.0
 10
-12.2532
 20
0.78441
 30
0.0
 10
-12.2532
 20
2.02111
 30
0.0
 10
-12.2532
 20
2.02111
 30
0.0
 10
-12.2532
 20
2.02111
 30
0.0
 10
-12.2532
 20
2.02111
 30
0.0
 10
-11.04666
 20
1.39522
 30
0.0
 10
-11.04666
 20
1.39522
 30
0.0
  0
SPLINE
  5
82
330
1F
100
AcDbEntity
  8
Layer 1
 62
   242
370
     9
100
AcDbSpline
210
0.0
220
0.0
230
1.0
 70
    11
 71
     3
 72
    16
 73
    12
 74
     0
 42
0.0000000001
 43
0.0000000001
 12
1.0
 22
0.0
 32
0.0
 13
1.0
 23
0.0
 33
0.0
 40
0.0
 40
0.0
 40
0.0
 40
0.0
 40
0.25
 40
0.25
 40
0.25
 40
0.25
 40
0.5
 40
0.5
 40
0.5
 40
0.5
 40
1.0
 40
1.0
 40
1.0
 40
1.0
 10
-13.67843
 20
1.39522
 30
0.0
 10
-13.67843
 20
1.39522
 30
0.0
 10
-12.47189
 20
0.78441
 30
0.0
 10
-12.47189
 20
0.78441
 30
0.0
 10
-12.47189
 20
0.78441
 30
0.0
 10
-12.47189
 20
0.78441
 30
0.0
 10
-12.47189
 20
2.02111
 30
0.0
 10
-12.47189
 20
2.02111
 30
0.0
 10
-12.47189
 20
2.02111
 30
0.0
 10
-12.47189
 20
2.02111
 30
0.0
 10
-13.67843
 20
1.39522
 30
0.0
 10
-13.67843
 20
1.39522
 30
0.0
  0
SPLINE
  5
83
330
1F
100
AcDbEntity
  8
Layer 1
 62
   242
370
     9
100
AcDbSpline
210
0.0
220
0.0
230
1.0
 70
    11
 71
     3
 72
    16
 73
    12
 74
     0
 42
0.0000000001
 43
0.0000000001
 12
1.0
 22
0.0
 32
0.0
 13
1.0
 23
0.0
 33
0.0
 40
0.0
 40
0.0
 40
0.0
 40
0.0
 40
0.25
 40
0.25
 40
0.25
 40
0.25
 40
0.5
 40
0.5
 40
0.5
 40
0.5
 40
1.0
 40
1.0
 40
1.0
 40
1.0
 10
-10.94109
 20
1.5762
 30
0.0
 10
-10.94109
 20
1.5762
 30
0.0
 10
-10.94109
 20
2.81291
 30
0.0
 10
-10.94109
 20
2.81291
 30
0.0
 10
-10.94109
 20
2.81291
 30
0.0
 10
-10.94109
 20
2.81291
 30
0.0
 10
-12.14763
 20
2.19455
 30
0.0
 10
-12.14763
 20
2.19455
 30
0.0
 10
-12.14763
 20
2.19455
 30
0.0
 10
-12.14763
 20
2.19455
 30
0.0
 10
-10.94109
 20
1.5762
 30
0.0
 10
-10.94109
 20
1.5762
 30
0.0
  0
SPLINE
  5
84
330
1F
100
AcDbEntity
  8
Layer 1
 62
   242
370
     9
100
AcDbSpline
210
0.0
220
0.0
230
1.0
 70
    11
 71
     3
 72
    16
 73
    12
 74
     0
 42
0.0000000001
 43
0.0000000001
 12
1.0
 22
0.0
 32
0.0
 13
1.0
 23
0.0
 33
0.0
 40
0.0
 40
0.0
 40
0.0
 40
0.0
 40
0.25
 40
0.25
 40
0.25
 40
0.25
 40
0.5
 40
0.5
 40
0.5
 40
0.5
 40
1.0
 40
1.0
 40
1.0
 40
1.0
 10
-12.2532
 20
3.6047
 30
0.0
 10
-12.2532
 20
3.6047
 30
0.0
 10
-11.04666
 20
2.98635
 30
0.0
 10
-11.04666
 20
2.98635
 30
0.0
 10
-11.04666
 20
2.98635
 30
0.0
 10
-11.04666
 20
2.98635
 30
0.0
 10
-12.2532
 20
2.36045
 30
0.0
 10
-12.2532
 20
2.36045
 30
0.0
 10
-12.2532
 20
2.36045
 30
0.0
 10
-12.2532
 20
2.36045
 30
0.0
 10
-12.2532
 20
3.6047
 30
0.0
 10
-12.2532
 20
3.6047
 30
0.0
  0
SPLINE
  5
85
330
1F
100
AcDbEntity
  8
Layer 1
 62
   242
370
     9
100
AcDbSpline
210
0.0
220
0.0
230
1.0
 70
    11
 71
     3
 72
    16
 73
    12
 74
     0
 42
0.0000000001
 43
0.0000000001
 12
1.0
 22
0.0
 32
0.0
 13
1.0
 23
0.0
 33
0.0
 40
0.0
 40
0.0
 40
0.0
 40
0.0
 40
0.25
 40
0.25
 40
0.25
 40
0.25
 40
0.5
 40
0.5
 40
0.5
 40
0.5
 40
1.0
 40
1.0
 40
1.0
 40
1.0
 10
-12.47189
 20
3.6047
 30
0.0
 10
-12.47189
 20
3.6047
 30
0.0
 10
-13.67843
 20
2.98635
 30
0.0
 10
-13.67843
 20
2.98635
 30
0.0
 10
-13.67843
 20
2.98635
 30
0.0
 10
-13.67843
 20
2.98635
 30
0.0
 10
-12.47189
 20
2.36045
 30
0.0
 10
-12.47189
 20
2.36045
 30
0.0
 10
-12.47189
 20
2.36045
 30
0.0
 10
-12.47189
 20
2.36045
 30
0.0
 10
-12.47189
 20
3.6047
 30
0.0
 10
-12.47189
 20
3.6047
 30
0.0
  0
SPLINE
  5
86
330
1F
100
AcDbEntity
  8
Layer 1
 62
   242
370
     9
100
AcDbSpline
210
0.0
220
0.0
230
1.0
 70
    11
 71
     3
 72
    16
 73
    12
 74
     0
 42
0.0000000001
 43
0.0000000001
 12
1.0
 22
0.0
 32
0.0
 13
1.0
 23
0.0
 33
0.0
 40
0.0
 40
0.0
 40
0.0
 40
0.0
 40
0.25
 40
0.25
 40
0.25
 40
0.25
 40
0.5
 40
0.5
 40
0.5
 40
0.5
 40
1.0
 40
1.0
 40
1.0
 40
1.0
 10
-13.79154
 20
1.5762
 30
0.0
 10
-13.79154
 20
1.5762
 30
0.0
 10
-13.79154
 20
2.81291
 30
0.0
 10
-13.79154
 20
2.81291
 30
0.0
 10
-13.79154
 20
2.81291
 30
0.0
 10
-13.79154
 20
2.81291
 30
0.0
 10
-12.585
 20
2.19455
 30
0.0
 10
-12.585
 20
2.19455
 30
0.0
 10
-12.585
 20
2.19455
 30
0.0
 10
-12.585
 20
2.19455
 30
0.0
 10
-13.79154
 20
1.5762
 30
0.0
 10
-13.79154
 20
1.5762
 30
0.0
  0
SPLINE
  5
87
330
1F
100
AcDbEntity
  8
Layer 1
 62
   242
370
     9
100
AcDbSpline
210
0.0
220
0.0
230
1.0
 70
    11
 71
     3
 72
    16
 73
    12
 74
     0
 42
0.0000000001
 43
0.0000000001
 12
1.0
 22
0.0
 32
0.0
 13
1.0
 23
0.0
 33
0.0
 40
0.0
 40
0.0
 40
0.0
 40
0.0
 40
0.25
 40
0.25
 40
0.25
 40
0.25
 40
0.5
 40
0.5
 40
0.5
 40
0.5
 40
1.0
 40
1.0
 40
1.0
 40
1.0
 10
-7.98507
 20
1.39522
 30
0.0
 10
-7.98507
 20
1.39522
 30
0.0
 10
-9.18407
 20
0.78441
 30
0.0
 10
-9.18407
 20
0.78441
 30
0.0
 10
-9.18407
 20
0.78441
 30
0.0
 10
-9.18407
 20
0.78441
 30
0.0
 10
-9.18407
 20
2.02111
 30
0.0
 10
-9.18407
 20
2.02111
 30
0.0
 10
-9.18407
 20
2.02111
 30
0.0
 10
-9.18407
 20
2.02111
 30
0.0
 10
-7.98507
 20
1.39522
 30
0.0
 10
-7.98507
 20
1.39522
 30
0.0
  0
SPLINE
  5
88
330
1F
100
AcDbEntity
  8
Layer 1
 62
   242
370
     9
100
AcDbSpline
210
0.0
220
0.0
230
1.0
 70
    11
 71
     3
 72
    16
 73
    12
 74
     0
 42
0.0000000001
 43
0.0000000001
 12
1.0
 22
0.0
 32
0.0
 13
1.0
 23
0.0
 33
0.0
 40
0.0
 40
0.0
 40
0.0
 40
0.0
 40
0.25
 40
0.25
 40
0.25
 40
0.25
 40
0.5
 40
0.5
 40
0.5
 40
0.5
 40
1.0
 40
1.0
 40
1.0
 40
1.0
 10
-10.6093
 20
1.39522
 30
0.0
 10
-10.6093
 20
1.39522
 30
0.0
 10
-9.4103
 20
0.78441
 30
0.0
 10
-9.4103
 20
0.78441
 30
0.0
 10
-9.4103
 20
0.78441
 30
0.0
 10
-9.4103
 20
0.78441
 30
0.0
 10
-9.4103
 20
2.02111
 30
0.0
 10
-9.4103
 20
2.02111
 30
0.0
 10
-9.4103
 20
2.02111
 30
0.0
 10
-9.4103
 20
2.02111
 30
0.0
 10
-10.6093
 20
1.39522
 30
0.0
 10
-10.6093
 20
1.39522
 30
0.0
  0
SPLINE
  5
89
330
1F
100
AcDbEntity
  8
Layer 1
 62
   242
370
     9
100
AcDbSpline
210
0.0
220
0.0
230
1.0
 70
    11
 71
     3
 72
    16
 73
    12
 74
     0
 42
0.0000000001
 43
0.0000000001
 12
1.0
 22
0.0
 32
0.0
 13
1.0
 23
0.0
 33
0.0
 40
0.0
 40
0.0
 40
0.0
 40
0.0
 40
0.25
 40
0.25
 40
0.25
 40
0.25
 40
0.5
 40
0.5
 40
0.5
 40
0.5
 40
1.0
 40
1.0
 40
1.0
 40
1.0
 10
-7.87196
 20
1.5762
 30
0.0
 10
-7.87196
 20
1.5762
 30
0.0
 10
-7.87196
 20
2.81291
 30
0.0
 10
-7.87196
 20
2.81291
 30
0.0
 10
-7.87196
 20
2.81291
 30
0.0
 10
-7.87196
 20
2.81291
 30
0.0
 10
-9.0785
 20
2.19455
 30
0.0
 10
-9.0785
 20
2.19455
 30
0.0
 10
-9.0785
 20
2.19455
 30
0.0
 10
-9.0785
 20
2.19455
 30
0.0
 10
-7.87196
 20
1.5762
 30
0.0
 10
-7.87196
 20
1.5762
 30
0.0
  0
SPLINE
  5
8A
330
1F
100
AcDbEntity
  8
Layer 1
 62
   242
370
     9
100
AcDbSpline
210
0.0
220
0.0
230
1.0
 70
    11
 71
     3
 72
    16
 73
    12
 74
     0
 42
0.0000000001
 43
0.0000000001
 12
1.0
 22
0.0
 32
0.0
 13
1.0
 23
0.0
 33
0.0
 40
0.0
 40
0.0
 40
0.0
 40
0.0
 40
0.25
 40
0.25
 40
0.25
 40
0.25
 40
0.5
 40
0.5
 40
0.5
 40
0.5
 40
1.0
 40
1.0
 40
1.0
 40
1.0
 10
-9.18407
 20
3.6047
 30
0.0
 10
-9.18407
 20
3.6047
 30
0.0
 10
-7.98507
 20
2.98635
 30
0.0
 10
-7.98507
 20
2.98635
 30
0.0
 10
-7.98507
 20
2.98635
 30
0.0
 10
-7.98507
 20
2.98635
 30
0.0
 10
-9.18407
 20
2.36045
 30
0.0
 10
-9.18407
 20
2.36045
 30
0.0
 10
-9.18407
 20
2.36045
 30
0.0
 10
-9.18407
 20
2.36045
 30
0.0
 10
-9.18407
 20
3.6047
 30
0.0
 10
-9.18407
 20
3.6047
 30
0.0
  0
SPLINE
  5
8B
330
1F
100
AcDbEntity
  8
Layer 1
 62
   242
370
     9
100
AcDbSpline
210
0.0
220
0.0
230
1.0
 70
    11
 71
     3
 72
    16
 73
    12
 74
     0
 42
0.0000000001
 43
0.0000000001
 12
1.0
 22
0.0
 32
0.0
 13
1.0
 23
0.0
 33
0.0
 40
0.0
 40
0.0
 40
0.0
 40
0.0
 40
0.25
 40
0.25
 40
0.25
 40
0.25
 40
0.5
 40
0.5
 40
0.5
 40
0.5
 40
1.0
 40
1.0
 40
1.0
 40
1.0
 10
-9.4103
 20
3.6047
 30
0.0
 10
-9.4103
 20
3.6047
 30
0.0
 10
-10.6093
 20
2.98635
 30
0.0
 10
-10.6093
 20
2.98635
 30
0.0
 10
-10.6093
 20
2.98635
 30
0.0
 10
-10.6093
 20
2.98635
 30
0.0
 10
-9.4103
 20
2.36045
 30
0.0
 10
-9.4103
 20
2.36045
 30
0.0
 10
-9.4103
 20
2.36045
 30
0.0
 10
-9.4103
 20
2.36045
 30
0.0
 10
-9.4103
 20
3.6047
 30
0.0
 10
-9.4103
 20
3.6047
 30
0.0
  0
SPLINE
  5
8C
330
1F
100
AcDbEntity
  8
Layer 1
 62
   242
370
     9
100
AcDbSpline
210
0.0
220
0.0
230
1.0
 70
    11
 71
     3
 72
    16
 73
    12
 74
     0
 42
0.0000000001
 43
0.0000000001
 12
1.0
 22
0.0
 32
0.0
 13
1.0
 23
0.0
 33
0.0
 40
0.0
 40
0.0
 40
0.0
 40
0.0
 40
0.25
 40
0.25
 40
0.25
 40
0.25
 40
0.5
 40
0.5
 40
0.5
 40
0.5
 40
1.0
 40
1.0
 40
1.0
 40
1.0
 10
-10.72241
 20
1.5762
 30
0.0
 10
-10.72241
 20
1.5762
 30
0.0
 10
-10.72241
 20
2.81291
 30
0.0
 10
-10.72241
 20
2.81291
 30
0.0
 10
-10.72241
 20
2.81291
 30
0.0
 10
-10.72241
 20
2.81291
 30
0.0
 10
-9.51587
 20
2.19455
 30
0.0
 10
-9.51587
 20
2.19455
 30
0.0
 10
-9.51587
 20
2.19455
 30
0.0
 10
-9.51587
 20
2.19455
 30
0.0
 10
-10.72241
 20
1.5762
 30
0.0
 10
-10.72241
 20
1.5762
 30
0.0
  0
SPLINE
  5
8D
330
1F
100
AcDbEntity
  8
Layer 1
 62
   242
370
     9
100
AcDbSpline
210
0.0
220
0.0
230
1.0
 70
    11
 71
     3
 72
    16
 73
    12
 74
     0
 42
0.0000000001
 43
0.0000000001
 12
1.0
 22
0.0
 32
0.0
 13
1.0
 23
0.0
 33
0.0
 40
0.0
 40
0.0
 40
0.0
 40
0.0
 40
0.25
 40
0.25
 40
0.25
 40
0.25
 40
0.5
 40
0.5
 40
0.5
 40
0.5
 40
1.0
 40
1.0
 40
1.0
 40
1.0
 10
-4.91593
 20
1.39522
 30
0.0
 10
-4.91593
 20
1.39522
 30
0.0
 10
-6.12247
 20
0.78441
 30
0.0
 10
-6.12247
 20
0.78441
 30
0.0
 10
-6.12247
 20
0.78441
 30
0.0
 10
-6.12247
 20
0.78441
 30
0.0
 10
-6.12247
 20
2.02111
 30
0.0
 10
-6.12247
 20
2.02111
 30
0.0
 10
-6.12247
 20
2.02111
 30
0.0
 10
-6.12247
 20
2.02111
 30
0.0
 10
-4.91593
 20
1.39522
 30
0.0
 10
-4.91593
 20
1.39522
 30
0.0
  0
SPLINE
  5
8E
330
1F
100
AcDbEntity
  8
Layer 1
 62
   242
370
     9
100
AcDbSpline
210
0.0
220
0.0
230
1.0
 70
    11
 71
     3
 72
    16
 73
    12
 74
     0
 42
0.0000000001
 43
0.0000000001
 12
1.0
 22
0.0
 32
0.0
 13
1.0
 23
0.0
 33
0.0
 40
0.0
 40
0.0
 40
0.0
 40
0.0
 40
0.25
 40
0.25
 40
0.25
 40
0.25
 40
0.5
 40
0.5
 40
0.5
 40
0.5
 40
1.0
 40
1.0
 40
1.0
 40
1.0
 10
-7.54016
 20
1.39522
 30
0.0
 10
-7.54016
 20
1.39522
 30
0.0
 10
-6.34116
 20
0.78441
 30
0.0
 10
-6.34116
 20
0.78441
 30
0.0
 10
-6.34116
 20
0.78441
 30
0.0
 10
-6.34116
 20
0.78441
 30
0.0
 10
-6.34116
 20
2.02111
 30
0.0
 10
-6.34116
 20
2.02111
 30
0.0
 10
-6.34116
 20
2.02111
 30
0.0
 10
-6.34116
 20
2.02111
 30
0.0
 10
-7.54016
 20
1.39522
 30
0.0
 10
-7.54016
 20
1.39522
 30
0.0
  0
SPLINE
  5
8F
330
1F
100
AcDbEntity
  8
Layer 1
 62
   242
370
     9
100
AcDbSpline
210
0.0
220
0.0
230
1.0
 70
    11
 71
     3
 72
    16
 73
    12
 74
     0
 42
0.0000000001
 43
0.0000000001
 12
1.0
 22
0.0
 32
0.0
 13
1.0
 23
0.0
 33
0.0
 40
0.0
 40
0.0
 40
0.0
 40
0.0
 40
0.25
 40
0.25
 40
0.25
 40
0.25
 40
0.5
 40
0.5
 40
0.5
 40
0.5
 40
1.0
 40
1.0
 40
1.0
 40
1.0
 10
-4.80282
 20
1.5762
 30
0.0
 10
-4.80282
 20
1.5762
 30
0.0
 10
-4.80282
 20
2.81291
 30
0.0
 10
-4.80282
 20
2.81291
 30
0.0
 10
-4.80282
 20
2.81291
 30
0.0
 10
-4.80282
 20
2.81291
 30
0.0
 10
-6.00936
 20
2.19455
 30
0.0
 10
-6.00936
 20
2.19455
 30
0.0
 10
-6.00936
 20
2.19455
 30
0.0
 10
-6.00936
 20
2.19455
 30
0.0
 10
-4.80282
 20
1.5762
 30
0.0
 10
-4.80282
 20
1.5762
 30
0.0
  0
SPLINE
  5
90
330
1F
100
AcDbEntity
  8
Layer 1
 62
   242
370
     9
100
AcDbSpline
210
0.0
220
0.0
230
1.0
 70
    11
 71
     3
 72
    16
 73
    12
 74
     0
 42
0.0000000001
 43
0.0000000001
 12
1.0
 22
0.0
 32
0.0
 13
1.0
 23
0.0
 33
0.0
 40
0.0
 40
0.0
 40
0.0
 40
0.0
 40
0.25
 40
0.25
 40
0.25
 40
0.25
 40
0.5
 40
0.5
 40
0.5
 40
0.5
 40
1.0
 40
1.0
 40
1.0
 40
1.0
 10
-6.12247
 20
3.6047
 30
0.0
 10
-6.12247
 20
3.6047
 30
0.0
 10
-4.91593
 20
2.98635
 30
0.0
 10
-4.91593
 20
2.98635
 30
0.0
 10
-4.91593
 20
2.98635
 30
0.0
 10
-4.91593
 20
2.98635
 30
0.0
 10
-6.12247
 20
2.36045
 30
0.0
 10
-6.12247
 20
2.36045
 30
0.0
 10
-6.12247
 20
2.36045
 30
0.0
 10
-6.12247
 20
2.36045
 30
0.0
 10
-6.12247
 20
3.6047
 30
0.0
 10
-6.12247
 20
3.6047
 30
0.0
  0
SPLINE
  5
91
330
1F
100
AcDbEntity
  8
Layer 1
 62
   242
370
     9
100
AcDbSpline
210
0.0
220
0.0
230
1.0
 70
    11
 71
     3
 72
    16
 73
    12
 74
     0
 42
0.0000000001
 43
0.0000000001
 12
1.0
 22
0.0
 32
0.0
 13
1.0
 23
0.0
 33
0.0
 40
0.0
 40
0.0
 40
0.0
 40
0.0
 40
0.25
 40
0.25
 40
0.25
 40
0.25
 40
0.5
 40
0.5
 40
0.5
 40
0.5
 40
1.0
 40
1.0
 40
1.0
 40
1.0
 10
-6.34116
 20
3.6047
 30
0.0
 10
-6.34116
 20
3.6047
 30
0.0
 10
-7.54016
 20
2.98635
 30
0.0
 10
-7.54016
 20
2.98635
 30
0.0
 10
-7.54016
 20
2.98635
 30
0.0
 10
-7.54016
 20
2.98635
 30
0.0
 10
-6.34116
 20
2.36045
 30
0.0
 10
-6.34116
 20
2.36045
 30
0.0
 10
-6.34116
 20
2.36045
 30
0.0
 10
-6.34116
 20
2.36045
 30
0.0
 10
-6.34116
 20
3.6047
 30
0.0
 10
-6.34116
 20
3.6047
 30
0.0
  0
SPLINE
  5
92
330
1F
100
AcDbEntity
  8
Layer 1
 62
   242
370
     9
100
AcDbSpline
210
0.0
220
0.0
230
1.0
 70
    11
 71
     3
 72
    16
 73
    12
 74
     0
 42
0.0000000001
 43
0.0000000001
 12
1.0
 22
0.0
 32
0.0
 13
1.0
 23
0.0
 33
0.0
 40
0.0
 40
0.0
 40
0.0
 40
0.0
 40
0.25
 40
0.25
 40
0.25
 40
0.25
 40
0.5
 40
0.5
 40
0.5
 40
0.5
 40
1.0
 40
1.0
 40
1.0
 40
1.0
 10
-7.65327
 20
1.5762
 30
0.0
 10
-7.65327
 20
1.5762
 30
0.0
 10
-7.65327
 20
2.81291
 30
0.0
 10
-7.65327
 20
2.81291
 30
0.0
 10
-7.65327
 20
2.81291
 30
0.0
 10
-7.65327
 20
2.81291
 30
0.0
 10
-6.45427
 20
2.19455
 30
0.0
 10
-6.45427
 20
2.19455
 30
0.0
 10
-6.45427
 20
2.19455
 30
0.0
 10
-6.45427
 20
2.19455
 30
0.0
 10
-7.65327
 20
1.5762
 30
0.0
 10
-7.65327
 20
1.5762
 30
0.0
  0
SPLINE
  5
93
330
1F
100
AcDbEntity
  8
Layer 1
 62
   242
370
     9
100
AcDbSpline
210
0.0
220
0.0
230
1.0
 70
    11
 71
     3
 72
    16
 73
    12
 74
     0
 42
0.0000000001
 43
0.0000000001
 12
1.0
 22
0.0
 32
0.0
 13
1.0
 23
0.0
 33
0.0
 40
0.0
 40
0.0
 40
0.0
 40
0.0
 40
0.25
 40
0.25
 40
0.25
 40
0.25
 40
0.5
 40
0.5
 40
0.5
 40
0.5
 40
1.0
 40
1.0
 40
1.0
 40
1.0
 10
-15.65414
 20
3.7706
 30
0.0
 10
-15.65414
 20
3.7706
 30
0.0
 10
-16.85314
 20
3.15225
 30
0.0
 10
-16.85314
 20
3.15225
 30
0.0
 10
-16.85314
 20
3.15225
 30
0.0
 10
-16.85314
 20
3.15225
 30
0.0
 10
-16.85314
 20
4.38895
 30
0.0
 10
-16.85314
 20
4.38895
 30
0.0
 10
-16.85314
 20
4.38895
 30
0.0
 10
-16.85314
 20
4.38895
 30
0.0
 10
-15.65414
 20
3.7706
 30
0.0
 10
-15.65414
 20
3.7706
 30
0.0
  0
SPLINE
  5
94
330
1F
100
AcDbEntity
  8
Layer 1
 62
   242
370
     9
100
AcDbSpline
210
0.0
220
0.0
230
1.0
 70
    11
 71
     3
 72
    16
 73
    12
 74
     0
 42
0.0000000001
 43
0.0000000001
 12
1.0
 22
0.0
 32
0.0
 13
1.0
 23
0.0
 33
0.0
 40
0.0
 40
0.0
 40
0.0
 40
0.0
 40
0.25
 40
0.25
 40
0.25
 40
0.25
 40
0.5
 40
0.5
 40
0.5
 40
0.5
 40
1.0
 40
1.0
 40
1.0
 40
1.0
 10
-15.54102
 20
3.94404
 30
0.0
 10
-15.54102
 20
3.94404
 30
0.0
 10
-15.54102
 20
5.18077
 30
0.0
 10
-15.54102
 20
5.18077
 30
0.0
 10
-15.54102
 20
5.18077
 30
0.0
 10
-15.54102
 20
5.18077
 30
0.0
 10
-16.74757
 20
4.56239
 30
0.0
 10
-16.74757
 20
4.56239
 30
0.0
 10
-16.74757
 20
4.56239
 30
0.0
 10
-16.74757
 20
4.56239
 30
0.0
 10
-15.54102
 20
3.94404
 30
0.0
 10
-15.54102
 20
3.94404
 30
0.0
  0
SPLINE
  5
95
330
1F
100
AcDbEntity
  8
Layer 1
 62
   242
370
     9
100
AcDbSpline
210
0.0
220
0.0
230
1.0
 70
    11
 71
     3
 72
    16
 73
    12
 74
     0
 42
0.0000000001
 43
0.0000000001
 12
1.0
 22
0.0
 32
0.0
 13
1.0
 23
0.0
 33
0.0
 40
0.0
 40
0.0
 40
0.0
 40
0.0
 40
0.25
 40
0.25
 40
0.25
 40
0.25
 40
0.5
 40
0.5
 40
0.5
 40
0.5
 40
1.0
 40
1.0
 40
1.0
 40
1.0
 10
-12.585
 20
3.7706
 30
0.0
 10
-12.585
 20
3.7706
 30
0.0
 10
-13.79154
 20
3.15225
 30
0.0
 10
-13.79154
 20
3.15225
 30
0.0
 10
-13.79154
 20
3.15225
 30
0.0
 10
-13.79154
 20
3.15225
 30
0.0
 10
-13.79154
 20
4.38895
 30
0.0
 10
-13.79154
 20
4.38895
 30
0.0
 10
-13.79154
 20
4.38895
 30
0.0
 10
-13.79154
 20
4.38895
 30
0.0
 10
-12.585
 20
3.7706
 30
0.0
 10
-12.585
 20
3.7706
 30
0.0
  0
SPLINE
  5
96
330
1F
100
AcDbEntity
  8
Layer 1
 62
   242
370
     9
100
AcDbSpline
210
0.0
220
0.0
230
1.0
 70
    11
 71
     3
 72
    16
 73
    12
 74
     0
 42
0.0000000001
 43
0.0000000001
 12
1.0
 22
0.0
 32
0.0
 13
1.0
 23
0.0
 33
0.0
 40
0.0
 40
0.0
 40
0.0
 40
0.0
 40
0.25
 40
0.25
 40
0.25
 40
0.25
 40
0.5
 40
0.5
 40
0.5
 40
0.5
 40
1.0
 40
1.0
 40
1.0
 40
1.0
 10
-15.20923
 20
3.7706
 30
0.0
 10
-15.20923
 20
3.7706
 30
0.0
 10
-14.01023
 20
3.15225
 30
0.0
 10
-14.01023
 20
3.15225
 30
0.0
 10
-14.01023
 20
3.15225
 30
0.0
 10
-14.01023
 20
3.15225
 30
0.0
 10
-14.01023
 20
4.38895
 30
0.0
 10
-14.01023
 20
4.38895
 30
0.0
 10
-14.01023
 20
4.38895
 30
0.0
 10
-14.01023
 20
4.38895
 30
0.0
 10
-15.20923
 20
3.7706
 30
0.0
 10
-15.20923
 20
3.7706
 30
0.0
  0
SPLINE
  5
97
330
1F
100
AcDbEntity
  8
Layer 1
 62
   242
370
     9
100
AcDbSpline
210
0.0
220
0.0
230
1.0
 70
    11
 71
     3
 72
    16
 73
    12
 74
     0
 42
0.0000000001
 43
0.0000000001
 12
1.0
 22
0.0
 32
0.0
 13
1.0
 23
0.0
 33
0.0
 40
0.0
 40
0.0
 40
0.0
 40
0.0
 40
0.25
 40
0.25
 40
0.25
 40
0.25
 40
0.5
 40
0.5
 40
0.5
 40
0.5
 40
1.0
 40
1.0
 40
1.0
 40
1.0
 10
-12.47189
 20
3.94404
 30
0.0
 10
-12.47189
 20
3.94404
 30
0.0
 10
-12.47189
 20
5.18077
 30
0.0
 10
-12.47189
 20
5.18077
 30
0.0
 10
-12.47189
 20
5.18077
 30
0.0
 10
-12.47189
 20
5.18077
 30
0.0
 10
-13.67843
 20
4.56239
 30
0.0
 10
-13.67843
 20
4.56239
 30
0.0
 10
-13.67843
 20
4.56239
 30
0.0
 10
-13.67843
 20
4.56239
 30
0.0
 10
-12.47189
 20
3.94404
 30
0.0
 10
-12.47189
 20
3.94404
 30
0.0
  0
SPLINE
  5
98
330
1F
100
AcDbEntity
  8
Layer 1
 62
   242
370
     9
100
AcDbSpline
210
0.0
220
0.0
230
1.0
 70
    11
 71
     3
 72
    16
 73
    12
 74
     0
 42
0.0000000001
 43
0.0000000001
 12
1.0
 22
0.0
 32
0.0
 13
1.0
 23
0.0
 33
0.0
 40
0.0
 40
0.0
 40
0.0
 40
0.0
 40
0.25
 40
0.25
 40
0.25
 40
0.25
 40
0.5
 40
0.5
 40
0.5
 40
0.5
 40
1.0
 40
1.0
 40
1.0
 40
1.0
 10
-15.32234
 20
3.94404
 30
0.0
 10
-15.32234
 20
3.94404
 30
0.0
 10
-15.32234
 20
5.18077
 30
0.0
 10
-15.32234
 20
5.18077
 30
0.0
 10
-15.32234
 20
5.18077
 30
0.0
 10
-15.32234
 20
5.18077
 30
0.0
 10
-14.12334
 20
4.56239
 30
0.0
 10
-14.12334
 20
4.56239
 30
0.0
 10
-14.12334
 20
4.56239
 30
0.0
 10
-14.12334
 20
4.56239
 30
0.0
 10
-15.32234
 20
3.94404
 30
0.0
 10
-15.32234
 20
3.94404
 30
0.0
  0
SPLINE
  5
99
330
1F
100
AcDbEntity
  8
Layer 1
 62
   242
370
     9
100
AcDbSpline
210
0.0
220
0.0
230
1.0
 70
    11
 71
     3
 72
    16
 73
    12
 74
     0
 42
0.0000000001
 43
0.0000000001
 12
1.0
 22
0.0
 32
0.0
 13
1.0
 23
0.0
 33
0.0
 40
0.0
 40
0.0
 40
0.0
 40
0.0
 40
0.25
 40
0.25
 40
0.25
 40
0.25
 40
0.5
 40
0.5
 40
0.5
 40
0.5
 40
1.0
 40
1.0
 40
1.0
 40
1.0
 10
-9.51587
 20
3.7706
 30
0.0
 10
-9.51587
 20
3.7706
 30
0.0
 10
-10.72241
 20
3.15225
 30
0.0
 10
-10.72241
 20
3.15225
 30
0.0
 10
-10.72241
 20
3.15225
 30
0.0
 10
-10.72241
 20
3.15225
 30
0.0
 10
-10.72241
 20
4.38895
 30
0.0
 10
-10.72241
 20
4.38895
 30
0.0
 10
-10.72241
 20
4.38895
 30
0.0
 10
-10.72241
 20
4.38895
 30
0.0
 10
-9.51587
 20
3.7706
 30
0.0
 10
-9.51587
 20
3.7706
 30
0.0
  0
SPLINE
  5
9A
330
1F
100
AcDbEntity
  8
Layer 1
 62
   242
370
     9
100
AcDbSpline
210
0.0
220
0.0
230
1.0
 70
    11
 71
     3
 72
    16
 73
    12
 74
     0
 42
0.0000000001
 43
0.0000000001
 12
1.0
 22
0.0
 32
0.0
 13
1.0
 23
0.0
 33
0.0
 40
0.0
 40
0.0
 40
0.0
 40
0.0
 40
0.25
 40
0.25
 40
0.25
 40
0.25
 40
0.5
 40
0.5
 40
0.5
 40
0.5
 40
1.0
 40
1.0
 40
1.0
 40
1.0
 10
-12.14763
 20
3.7706
 30
0.0
 10
-12.14763
 20
3.7706
 30
0.0
 10
-10.94109
 20
3.15225
 30
0.0
 10
-10.94109
 20
3.15225
 30
0.0
 10
-10.94109
 20
3.15225
 30
0.0
 10
-10.94109
 20
3.15225
 30
0.0
 10
-10.94109
 20
4.38895
 30
0.0
 10
-10.94109
 20
4.38895
 30
0.0
 10
-10.94109
 20
4.38895
 30
0.0
 10
-10.94109
 20
4.38895
 30
0.0
 10
-12.14763
 20
3.7706
 30
0.0
 10
-12.14763
 20
3.7706
 30
0.0
  0
SPLINE
  5
9B
330
1F
100
AcDbEntity
  8
Layer 1
 62
   242
370
     9
100
AcDbSpline
210
0.0
220
0.0
230
1.0
 70
    11
 71
     3
 72
    16
 73
    12
 74
     0
 42
0.0000000001
 43
0.0000000001
 12
1.0
 22
0.0
 32
0.0
 13
1.0
 23
0.0
 33
0.0
 40
0.0
 40
0.0
 40
0.0
 40
0.0
 40
0.25
 40
0.25
 40
0.25
 40
0.25
 40
0.5
 40
0.5
 40
0.5
 40
0.5
 40
1.0
 40
1.0
 40
1.0
 40
1.0
 10
-9.4103
 20
3.94404
 30
0.0
 10
-9.4103
 20
3.94404
 30
0.0
 10
-9.4103
 20
5.18077
 30
0.0
 10
-9.4103
 20
5.18077
 30
0.0
 10
-9.4103
 20
5.18077
 30
0.0
 10
-9.4103
 20
5.18077
 30
0.0
 10
-10.6093
 20
4.56239
 30
0.0
 10
-10.6093
 20
4.56239
 30
0.0
 10
-10.6093
 20
4.56239
 30
0.0
 10
-10.6093
 20
4.56239
 30
0.0
 10
-9.4103
 20
3.94404
 30
0.0
 10
-9.4103
 20
3.94404
 30
0.0
  0
SPLINE
  5
9C
330
1F
100
AcDbEntity
  8
Layer 1
 62
   242
370
     9
100
AcDbSpline
210
0.0
220
0.0
230
1.0
 70
    11
 71
     3
 72
    16
 73
    12
 74
     0
 42
0.0000000001
 43
0.0000000001
 12
1.0
 22
0.0
 32
0.0
 13
1.0
 23
0.0
 33
0.0
 40
0.0
 40
0.0
 40
0.0
 40
0.0
 40
0.25
 40
0.25
 40
0.25
 40
0.25
 40
0.5
 40
0.5
 40
0.5
 40
0.5
 40
1.0
 40
1.0
 40
1.0
 40
1.0
 10
-12.2532
 20
3.94404
 30
0.0
 10
-12.2532
 20
3.94404
 30
0.0
 10
-12.2532
 20
5.18077
 30
0.0
 10
-12.2532
 20
5.18077
 30
0.0
 10
-12.2532
 20
5.18077
 30
0.0
 10
-12.2532
 20
5.18077
 30
0.0
 10
-11.04666
 20
4.56239
 30
0.0
 10
-11.04666
 20
4.56239
 30
0.0
 10
-11.04666
 20
4.56239
 30
0.0
 10
-11.04666
 20
4.56239
 30
0.0
 10
-12.2532
 20
3.94404
 30
0.0
 10
-12.2532
 20
3.94404
 30
0.0
  0
SPLINE
  5
9D
330
1F
100
AcDbEntity
  8
Layer 1
 62
   242
370
     9
100
AcDbSpline
210
0.0
220
0.0
230
1.0
 70
    11
 71
     3
 72
    16
 73
    12
 74
     0
 42
0.0000000001
 43
0.0000000001
 12
1.0
 22
0.0
 32
0.0
 13
1.0
 23
0.0
 33
0.0
 40
0.0
 40
0.0
 40
0.0
 40
0.0
 40
0.25
 40
0.25
 40
0.25
 40
0.25
 40
0.5
 40
0.5
 40
0.5
 40
0.5
 40
1.0
 40
1.0
 40
1.0
 40
1.0
 10
-6.45427
 20
3.7706
 30
0.0
 10
-6.45427
 20
3.7706
 30
0.0
 10
-7.65327
 20
3.15225
 30
0.0
 10
-7.65327
 20
3.15225
 30
0.0
 10
-7.65327
 20
3.15225
 30
0.0
 10
-7.65327
 20
3.15225
 30
0.0
 10
-7.65327
 20
4.38895
 30
0.0
 10
-7.65327
 20
4.38895
 30
0.0
 10
-7.65327
 20
4.38895
 30
0.0
 10
-7.65327
 20
4.38895
 30
0.0
 10
-6.45427
 20
3.7706
 30
0.0
 10
-6.45427
 20
3.7706
 30
0.0
  0
SPLINE
  5
9E
330
1F
100
AcDbEntity
  8
Layer 1
 62
   242
370
     9
100
AcDbSpline
210
0.0
220
0.0
230
1.0
 70
    11
 71
     3
 72
    16
 73
    12
 74
     0
 42
0.0000000001
 43
0.0000000001
 12
1.0
 22
0.0
 32
0.0
 13
1.0
 23
0.0
 33
0.0
 40
0.0
 40
0.0
 40
0.0
 40
0.0
 40
0.25
 40
0.25
 40
0.25
 40
0.25
 40
0.5
 40
0.5
 40
0.5
 40
0.5
 40
1.0
 40
1.0
 40
1.0
 40
1.0
 10
-9.0785
 20
3.7706
 30
0.0
 10
-9.0785
 20
3.7706
 30
0.0
 10
-7.87196
 20
3.15225
 30
0.0
 10
-7.87196
 20
3.15225
 30
0.0
 10
-7.87196
 20
3.15225
 30
0.0
 10
-7.87196
 20
3.15225
 30
0.0
 10
-7.87196
 20
4.38895
 30
0.0
 10
-7.87196
 20
4.38895
 30
0.0
 10
-7.87196
 20
4.38895
 30
0.0
 10
-7.87196
 20
4.38895
 30
0.0
 10
-9.0785
 20
3.7706
 30
0.0
 10
-9.0785
 20
3.7706
 30
0.0
  0
SPLINE
  5
9F
330
1F
100
AcDbEntity
  8
Layer 1
 62
   242
370
     9
100
AcDbSpline
210
0.0
220
0.0
230
1.0
 70
    11
 71
     3
 72
    16
 73
    12
 74
     0
 42
0.0000000001
 43
0.0000000001
 12
1.0
 22
0.0
 32
0.0
 13
1.0
 23
0.0
 33
0.0
 40
0.0
 40
0.0
 40
0.0
 40
0.0
 40
0.25
 40
0.25
 40
0.25
 40
0.25
 40
0.5
 40
0.5
 40
0.5
 40
0.5
 40
1.0
 40
1.0
 40
1.0
 40
1.0
 10
-6.34116
 20
3.94404
 30
0.0
 10
-6.34116
 20
3.94404
 30
0.0
 10
-6.34116
 20
5.18077
 30
0.0
 10
-6.34116
 20
5.18077
 30
0.0
 10
-6.34116
 20
5.18077
 30
0.0
 10
-6.34116
 20
5.18077
 30
0.0
 10
-7.54016
 20
4.56239
 30
0.0
 10
-7.54016
 20
4.56239
 30
0.0
 10
-7.54016
 20
4.56239
 30
0.0
 10
-7.54016
 20
4.56239
 30
0.0
 10
-6.34116
 20
3.94404
 30
0.0
 10
-6.34116
 20
3.94404
 30
0.0
  0
SPLINE
  5
A0
330
1F
100
AcDbEntity
  8
Layer 1
 62
   242
370
     9
100
AcDbSpline
210
0.0
220
0.0
230
1.0
 70
    11
 71
     3
 72
    16
 73
    12
 74
     0
 42
0.0000000001
 43
0.0000000001
 12
1.0
 22
0.0
 32
0.0
 13
1.0
 23
0.0
 33
0.0
 40
0.0
 40
0.0
 40
0.0
 40
0.0
 40
0.25
 40
0.25
 40
0.25
 40
0.25
 40
0.5
 40
0.5
 40
0.5
 40
0.5
 40
1.0
 40
1.0
 40
1.0
 40
1.0
 10
-9.18407
 20
3.94404
 30
0.0
 10
-9.18407
 20
3.94404
 30
0.0
 10
-9.18407
 20
5.18077
 30
0.0
 10
-9.18407
 20
5.18077
 30
0.0
 10
-9.18407
 20
5.18077
 30
0.0
 10
-9.18407
 20
5.18077
 30
0.0
 10
-7.98507
 20
4.56239
 30
0.0
 10
-7.98507
 20
4.56239
 30
0.0
 10
-7.98507
 20
4.56239
 30
0.0
 10
-7.98507
 20
4.56239
 30
0.0
 10
-9.18407
 20
3.94404
 30
0.0
 10
-9.18407
 20
3.94404
 30
0.0
  0
SPLINE
  5
A1
330
1F
100
AcDbEntity
  8
Layer 1
 62
   242
370
     9
100
AcDbSpline
210
0.0
220
0.0
230
1.0
 70
    11
 71
     3
 72
    16
 73
    12
 74
     0
 42
0.0000000001
 43
0.0000000001
 12
1.0
 22
0.0
 32
0.0
 13
1.0
 23
0.0
 33
0.0
 40
0.0
 40
0.0
 40
0.0
 40
0.0
 40
0.25
 40
0.25
 40
0.25
 40
0.25
 40
0.5
 40
0.5
 40
0.5
 40
0.5
 40
1.0
 40
1.0
 40
1.0
 40
1.0
 10
-3.37759
 20
3.7706
 30
0.0
 10
-3.37759
 20
3.7706
 30
0.0
 10
-4.58413
 20
3.15225
 30
0.0
 10
-4.58413
 20
3.15225
 30
0.0
 10
-4.58413
 20
3.15225
 30
0.0
 10
-4.58413
 20
3.15225
 30
0.0
 10
-4.58413
 20
4.38895
 30
0.0
 10
-4.58413
 20
4.38895
 30
0.0
 10
-4.58413
 20
4.38895
 30
0.0
 10
-4.58413
 20
4.38895
 30
0.0
 10
-3.37759
 20
3.7706
 30
0.0
 10
-3.37759
 20
3.7706
 30
0.0
  0
SPLINE
  5
A2
330
1F
100
AcDbEntity
  8
Layer 1
 62
   242
370
     9
100
AcDbSpline
210
0.0
220
0.0
230
1.0
 70
    11
 71
     3
 72
    16
 73
    12
 74
     0
 42
0.0000000001
 43
0.0000000001
 12
1.0
 22
0.0
 32
0.0
 13
1.0
 23
0.0
 33
0.0
 40
0.0
 40
0.0
 40
0.0
 40
0.0
 40
0.25
 40
0.25
 40
0.25
 40
0.25
 40
0.5
 40
0.5
 40
0.5
 40
0.5
 40
1.0
 40
1.0
 40
1.0
 40
1.0
 10
-6.00936
 20
3.7706
 30
0.0
 10
-6.00936
 20
3.7706
 30
0.0
 10
-4.80282
 20
3.15225
 30
0.0
 10
-4.80282
 20
3.15225
 30
0.0
 10
-4.80282
 20
3.15225
 30
0.0
 10
-4.80282
 20
3.15225
 30
0.0
 10
-4.80282
 20
4.38895
 30
0.0
 10
-4.80282
 20
4.38895
 30
0.0
 10
-4.80282
 20
4.38895
 30
0.0
 10
-4.80282
 20
4.38895
 30
0.0
 10
-6.00936
 20
3.7706
 30
0.0
 10
-6.00936
 20
3.7706
 30
0.0
  0
SPLINE
  5
A3
330
1F
100
AcDbEntity
  8
Layer 1
 62
   242
370
     9
100
AcDbSpline
210
0.0
220
0.0
230
1.0
 70
    11
 71
     3
 72
    16
 73
    12
 74
     0
 42
0.0000000001
 43
0.0000000001
 12
1.0
 22
0.0
 32
0.0
 13
1.0
 23
0.0
 33
0.0
 40
0.0
 40
0.0
 40
0.0
 40
0.0
 40
0.25
 40
0.25
 40
0.25
 40
0.25
 40
0.5
 40
0.5
 40
0.5
 40
0.5
 40
1.0
 40
1.0
 40
1.0
 40
1.0
 10
-3.27202
 20
3.94404
 30
0.0
 10
-3.27202
 20
3.94404
 30
0.0
 10
-3.27202
 20
5.18077
 30
0.0
 10
-3.27202
 20
5.18077
 30
0.0
 10
-3.27202
 20
5.18077
 30
0.0
 10
-3.27202
 20
5.18077
 30
0.0
 10
-4.47856
 20
4.56239
 30
0.0
 10
-4.47856
 20
4.56239
 30
0.0
 10
-4.47856
 20
4.56239
 30
0.0
 10
-4.47856
 20
4.56239
 30
0.0
 10
-3.27202
 20
3.94404
 30
0.0
 10
-3.27202
 20
3.94404
 30
0.0
  0
SPLINE
  5
A4
330
1F
100
AcDbEntity
  8
Layer 1
 62
   242
370
     9
100
AcDbSpline
210
0.0
220
0.0
230
1.0
 70
    11
 71
     3
 72
    16
 73
    12
 74
     0
 42
0.0000000001
 43
0.0000000001
 12
1.0
 22
0.0
 32
0.0
 13
1.0
 23
0.0
 33
0.0
 40
0.0
 40
0.0
 40
0.0
 40
0.0
 40
0.25
 40
0.25
 40
0.25
 40
0.25
 40
0.5
 40
0.5
 40
0.5
 40
0.5
 40
1.0
 40
1.0
 40
1.0
 40
1.0
 10
-6.12247
 20
3.94404
 30
0.0
 10
-6.12247
 20
3.94404
 30
0.0
 10
-6.12247
 20
5.18077
 30
0.0
 10
-6.12247
 20
5.18077
 30
0.0
 10
-6.12247
 20
5.18077
 30
0.0
 10
-6.12247
 20
5.18077
 30
0.0
 10
-4.91593
 20
4.56239
 30
0.0
 10
-4.91593
 20
4.56239
 30
0.0
 10
-4.91593
 20
4.56239
 30
0.0
 10
-4.91593
 20
4.56239
 30
0.0
 10
-6.12247
 20
3.94404
 30
0.0
 10
-6.12247
 20
3.94404
 30
0.0
  0
SPLINE
  5
A5
330
1F
100
AcDbEntity
  8
Layer 1
 62
   242
370
     9
100
AcDbSpline
210
0.0
220
0.0
230
1.0
 70
    11
 71
     3
 72
    16
 73
    12
 74
     0
 42
0.0000000001
 43
0.0000000001
 12
1.0
 22
0.0
 32
0.0
 13
1.0
 23
0.0
 33
0.0
 40
0.0
 40
0.0
 40
0.0
 40
0.0
 40
0.25
 40
0.25
 40
0.25
 40
0.25
 40
0.5
 40
0.5
 40
0.5
 40
0.5
 40
1.0
 40
1.0
 40
1.0
 40
1.0
 10
-9.18407
 20
-5.86664
 30
0.0
 10
-9.18407
 20
-5.86664
 30
0.0
 10
-7.98507
 20
-6.48499
 30
0.0
 10
-7.98507
 20
-6.48499
 30
0.0
 10
-7.98507
 20
-6.48499
 30
0.0
 10
-7.98507
 20
-6.48499
 30
0.0
 10
-9.18407
 20
-7.11089
 30
0.0
 10
-9.18407
 20
-7.11089
 30
0.0
 10
-9.18407
 20
-7.11089
 30
0.0
 10
-9.18407
 20
-7.11089
 30
0.0
 10
-9.18407
 20
-5.86664
 30
0.0
 10
-9.18407
 20
-5.86664
 30
0.0
  0
SPLINE
  5
A6
330
1F
100
AcDbEntity
  8
Layer 1
 62
   242
370
     9
100
AcDbSpline
210
0.0
220
0.0
230
1.0
 70
    11
 71
     3
 72
    16
 73
    12
 74
     0
 42
0.0000000001
 43
0.0000000001
 12
1.0
 22
0.0
 32
0.0
 13
1.0
 23
0.0
 33
0.0
 40
0.0
 40
0.0
 40
0.0
 40
0.0
 40
0.25
 40
0.25
 40
0.25
 40
0.25
 40
0.5
 40
0.5
 40
0.5
 40
0.5
 40
1.0
 40
1.0
 40
1.0
 40
1.0
 10
-9.4103
 20
-5.86664
 30
0.0
 10
-9.4103
 20
-5.86664
 30
0.0
 10
-10.6093
 20
-6.48499
 30
0.0
 10
-10.6093
 20
-6.48499
 30
0.0
 10
-10.6093
 20
-6.48499
 30
0.0
 10
-10.6093
 20
-6.48499
 30
0.0
 10
-9.4103
 20
-7.11089
 30
0.0
 10
-9.4103
 20
-7.11089
 30
0.0
 10
-9.4103
 20
-7.11089
 30
0.0
 10
-9.4103
 20
-7.11089
 30
0.0
 10
-9.4103
 20
-5.86664
 30
0.0
 10
-9.4103
 20
-5.86664
 30
0.0
  0
SPLINE
  5
A7
330
1F
100
AcDbEntity
  8
Layer 1
 62
   242
370
     9
100
AcDbSpline
210
0.0
220
0.0
230
1.0
 70
    11
 71
     3
 72
    16
 73
    12
 74
     0
 42
0.0000000001
 43
0.0000000001
 12
1.0
 22
0.0
 32
0.0
 13
1.0
 23
0.0
 33
0.0
 40
0.0
 40
0.0
 40
0.0
 40
0.0
 40
0.25
 40
0.25
 40
0.25
 40
0.25
 40
0.5
 40
0.5
 40
0.5
 40
0.5
 40
1.0
 40
1.0
 40
1.0
 40
1.0
 10
-6.45427
 20
-5.70074
 30
0.0
 10
-6.45427
 20
-5.70074
 30
0.0
 10
-7.65327
 20
-6.31909
 30
0.0
 10
-7.65327
 20
-6.31909
 30
0.0
 10
-7.65327
 20
-6.31909
 30
0.0
 10
-7.65327
 20
-6.31909
 30
0.0
 10
-7.65327
 20
-5.07485
 30
0.0
 10
-7.65327
 20
-5.07485
 30
0.0
 10
-7.65327
 20
-5.07485
 30
0.0
 10
-7.65327
 20
-5.07485
 30
0.0
 10
-6.45427
 20
-5.70074
 30
0.0
 10
-6.45427
 20
-5.70074
 30
0.0
  0
SPLINE
  5
A8
330
1F
100
AcDbEntity
  8
Layer 1
 62
   242
370
     9
100
AcDbSpline
210
0.0
220
0.0
230
1.0
 70
    11
 71
     3
 72
    16
 73
    12
 74
     0
 42
0.0000000001
 43
0.0000000001
 12
1.0
 22
0.0
 32
0.0
 13
1.0
 23
0.0
 33
0.0
 40
0.0
 40
0.0
 40
0.0
 40
0.0
 40
0.25
 40
0.25
 40
0.25
 40
0.25
 40
0.5
 40
0.5
 40
0.5
 40
0.5
 40
1.0
 40
1.0
 40
1.0
 40
1.0
 10
-9.0785
 20
-5.70074
 30
0.0
 10
-9.0785
 20
-5.70074
 30
0.0
 10
-7.87196
 20
-6.31909
 30
0.0
 10
-7.87196
 20
-6.31909
 30
0.0
 10
-7.87196
 20
-6.31909
 30
0.0
 10
-7.87196
 20
-6.31909
 30
0.0
 10
-7.87196
 20
-5.07485
 30
0.0
 10
-7.87196
 20
-5.07485
 30
0.0
 10
-7.87196
 20
-5.07485
 30
0.0
 10
-7.87196
 20
-5.07485
 30
0.0
 10
-9.0785
 20
-5.70074
 30
0.0
 10
-9.0785
 20
-5.70074
 30
0.0
  0
SPLINE
  5
A9
330
1F
100
AcDbEntity
  8
Layer 1
 62
   242
370
     9
100
AcDbSpline
210
0.0
220
0.0
230
1.0
 70
    11
 71
     3
 72
    16
 73
    12
 74
     0
 42
0.0000000001
 43
0.0000000001
 12
1.0
 22
0.0
 32
0.0
 13
1.0
 23
0.0
 33
0.0
 40
0.0
 40
0.0
 40
0.0
 40
0.0
 40
0.25
 40
0.25
 40
0.25
 40
0.25
 40
0.5
 40
0.5
 40
0.5
 40
0.5
 40
1.0
 40
1.0
 40
1.0
 40
1.0
 10
-6.34116
 20
-5.5273
 30
0.0
 10
-6.34116
 20
-5.5273
 30
0.0
 10
-6.34116
 20
-4.2906
 30
0.0
 10
-6.34116
 20
-4.2906
 30
0.0
 10
-6.34116
 20
-4.2906
 30
0.0
 10
-6.34116
 20
-4.2906
 30
0.0
 10
-7.54016
 20
-4.90895
 30
0.0
 10
-7.54016
 20
-4.90895
 30
0.0
 10
-7.54016
 20
-4.90895
 30
0.0
 10
-7.54016
 20
-4.90895
 30
0.0
 10
-6.34116
 20
-5.5273
 30
0.0
 10
-6.34116
 20
-5.5273
 30
0.0
  0
SPLINE
  5
AA
330
1F
100
AcDbEntity
  8
Layer 1
 62
   242
370
     9
100
AcDbSpline
210
0.0
220
0.0
230
1.0
 70
    11
 71
     3
 72
    16
 73
    12
 74
     0
 42
0.0000000001
 43
0.0000000001
 12
1.0
 22
0.0
 32
0.0
 13
1.0
 23
0.0
 33
0.0
 40
0.0
 40
0.0
 40
0.0
 40
0.0
 40
0.25
 40
0.25
 40
0.25
 40
0.25
 40
0.5
 40
0.5
 40
0.5
 40
0.5
 40
1.0
 40
1.0
 40
1.0
 40
1.0
 10
-7.65327
 20
-3.4988
 30
0.0
 10
-7.65327
 20
-3.4988
 30
0.0
 10
-6.45427
 20
-4.11716
 30
0.0
 10
-6.45427
 20
-4.11716
 30
0.0
 10
-6.45427
 20
-4.11716
 30
0.0
 10
-6.45427
 20
-4.11716
 30
0.0
 10
-7.65327
 20
-4.74305
 30
0.0
 10
-7.65327
 20
-4.74305
 30
0.0
 10
-7.65327
 20
-4.74305
 30
0.0
 10
-7.65327
 20
-4.74305
 30
0.0
 10
-7.65327
 20
-3.4988
 30
0.0
 10
-7.65327
 20
-3.4988
 30
0.0
  0
SPLINE
  5
AB
330
1F
100
AcDbEntity
  8
Layer 1
 62
   242
370
     9
100
AcDbSpline
210
0.0
220
0.0
230
1.0
 70
    11
 71
     3
 72
    16
 73
    12
 74
     0
 42
0.0000000001
 43
0.0000000001
 12
1.0
 22
0.0
 32
0.0
 13
1.0
 23
0.0
 33
0.0
 40
0.0
 40
0.0
 40
0.0
 40
0.0
 40
0.25
 40
0.25
 40
0.25
 40
0.25
 40
0.5
 40
0.5
 40
0.5
 40
0.5
 40
1.0
 40
1.0
 40
1.0
 40
1.0
 10
-7.87196
 20
-3.4988
 30
0.0
 10
-7.87196
 20
-3.4988
 30
0.0
 10
-9.0785
 20
-4.11716
 30
0.0
 10
-9.0785
 20
-4.11716
 30
0.0
 10
-9.0785
 20
-4.11716
 30
0.0
 10
-9.0785
 20
-4.11716
 30
0.0
 10
-7.87196
 20
-4.74305
 30
0.0
 10
-7.87196
 20
-4.74305
 30
0.0
 10
-7.87196
 20
-4.74305
 30
0.0
 10
-7.87196
 20
-4.74305
 30
0.0
 10
-7.87196
 20
-3.4988
 30
0.0
 10
-7.87196
 20
-3.4988
 30
0.0
  0
SPLINE
  5
AC
330
1F
100
AcDbEntity
  8
Layer 1
 62
   242
370
     9
100
AcDbSpline
210
0.0
220
0.0
230
1.0
 70
    11
 71
     3
 72
    16
 73
    12
 74
     0
 42
0.0000000001
 43
0.0000000001
 12
1.0
 22
0.0
 32
0.0
 13
1.0
 23
0.0
 33
0.0
 40
0.0
 40
0.0
 40
0.0
 40
0.0
 40
0.25
 40
0.25
 40
0.25
 40
0.25
 40
0.5
 40
0.5
 40
0.5
 40
0.5
 40
1.0
 40
1.0
 40
1.0
 40
1.0
 10
-9.18407
 20
-5.5273
 30
0.0
 10
-9.18407
 20
-5.5273
 30
0.0
 10
-9.18407
 20
-4.2906
 30
0.0
 10
-9.18407
 20
-4.2906
 30
0.0
 10
-9.18407
 20
-4.2906
 30
0.0
 10
-9.18407
 20
-4.2906
 30
0.0
 10
-7.98507
 20
-4.90895
 30
0.0
 10
-7.98507
 20
-4.90895
 30
0.0
 10
-7.98507
 20
-4.90895
 30
0.0
 10
-7.98507
 20
-4.90895
 30
0.0
 10
-9.18407
 20
-5.5273
 30
0.0
 10
-9.18407
 20
-5.5273
 30
0.0
  0
SPLINE
  5
AD
330
1F
100
AcDbEntity
  8
Layer 1
 62
   242
370
     9
100
AcDbSpline
210
0.0
220
0.0
230
1.0
 70
    11
 71
     3
 72
    16
 73
    12
 74
     0
 42
0.0000000001
 43
0.0000000001
 12
1.0
 22
0.0
 32
0.0
 13
1.0
 23
0.0
 33
0.0
 40
0.0
 40
0.0
 40
0.0
 40
0.0
 40
0.25
 40
0.25
 40
0.25
 40
0.25
 40
0.5
 40
0.5
 40
0.5
 40
0.5
 40
1.0
 40
1.0
 40
1.0
 40
1.0
 10
-4.91593
 20
-3.3329
 30
0.0
 10
-4.91593
 20
-3.3329
 30
0.0
 10
-6.12247
 20
-3.95126
 30
0.0
 10
-6.12247
 20
-3.95126
 30
0.0
 10
-6.12247
 20
-3.95126
 30
0.0
 10
-6.12247
 20
-3.95126
 30
0.0
 10
-6.12247
 20
-2.71455
 30
0.0
 10
-6.12247
 20
-2.71455
 30
0.0
 10
-6.12247
 20
-2.71455
 30
0.0
 10
-6.12247
 20
-2.71455
 30
0.0
 10
-4.91593
 20
-3.3329
 30
0.0
 10
-4.91593
 20
-3.3329
 30
0.0
  0
SPLINE
  5
AE
330
1F
100
AcDbEntity
  8
Layer 1
 62
   242
370
     9
100
AcDbSpline
210
0.0
220
0.0
230
1.0
 70
    11
 71
     3
 72
    16
 73
    12
 74
     0
 42
0.0000000001
 43
0.0000000001
 12
1.0
 22
0.0
 32
0.0
 13
1.0
 23
0.0
 33
0.0
 40
0.0
 40
0.0
 40
0.0
 40
0.0
 40
0.25
 40
0.25
 40
0.25
 40
0.25
 40
0.5
 40
0.5
 40
0.5
 40
0.5
 40
1.0
 40
1.0
 40
1.0
 40
1.0
 10
-7.54016
 20
-3.3329
 30
0.0
 10
-7.54016
 20
-3.3329
 30
0.0
 10
-6.34116
 20
-3.95126
 30
0.0
 10
-6.34116
 20
-3.95126
 30
0.0
 10
-6.34116
 20
-3.95126
 30
0.0
 10
-6.34116
 20
-3.95126
 30
0.0
 10
-6.34116
 20
-2.71455
 30
0.0
 10
-6.34116
 20
-2.71455
 30
0.0
 10
-6.34116
 20
-2.71455
 30
0.0
 10
-6.34116
 20
-2.71455
 30
0.0
 10
-7.54016
 20
-3.3329
 30
0.0
 10
-7.54016
 20
-3.3329
 30
0.0
  0
SPLINE
  5
AF
330
1F
100
AcDbEntity
  8
Layer 1
 62
   242
370
     9
100
AcDbSpline
210
0.0
220
0.0
230
1.0
 70
    11
 71
     3
 72
    16
 73
    12
 74
     0
 42
0.0000000001
 43
0.0000000001
 12
1.0
 22
0.0
 32
0.0
 13
1.0
 23
0.0
 33
0.0
 40
0.0
 40
0.0
 40
0.0
 40
0.0
 40
0.25
 40
0.25
 40
0.25
 40
0.25
 40
0.5
 40
0.5
 40
0.5
 40
0.5
 40
1.0
 40
1.0
 40
1.0
 40
1.0
 10
-4.80282
 20
-3.15946
 30
0.0
 10
-4.80282
 20
-3.15946
 30
0.0
 10
-4.80282
 20
-1.9303
 30
0.0
 10
-4.80282
 20
-1.9303
 30
0.0
 10
-4.80282
 20
-1.9303
 30
0.0
 10
-4.80282
 20
-1.9303
 30
0.0
 10
-6.00936
 20
-2.54865
 30
0.0
 10
-6.00936
 20
-2.54865
 30
0.0
 10
-6.00936
 20
-2.54865
 30
0.0
 10
-6.00936
 20
-2.54865
 30
0.0
 10
-4.80282
 20
-3.15946
 30
0.0
 10
-4.80282
 20
-3.15946
 30
0.0
  0
SPLINE
  5
B0
330
1F
100
AcDbEntity
  8
Layer 1
 62
   242
370
     9
100
AcDbSpline
210
0.0
220
0.0
230
1.0
 70
    11
 71
     3
 72
    16
 73
    12
 74
     0
 42
0.0000000001
 43
0.0000000001
 12
1.0
 22
0.0
 32
0.0
 13
1.0
 23
0.0
 33
0.0
 40
0.0
 40
0.0
 40
0.0
 40
0.0
 40
0.25
 40
0.25
 40
0.25
 40
0.25
 40
0.5
 40
0.5
 40
0.5
 40
0.5
 40
1.0
 40
1.0
 40
1.0
 40
1.0
 10
-6.12247
 20
-1.13851
 30
0.0
 10
-6.12247
 20
-1.13851
 30
0.0
 10
-4.91593
 20
-1.75686
 30
0.0
 10
-4.91593
 20
-1.75686
 30
0.0
 10
-4.91593
 20
-1.75686
 30
0.0
 10
-4.91593
 20
-1.75686
 30
0.0
 10
-6.12247
 20
-2.38275
 30
0.0
 10
-6.12247
 20
-2.38275
 30
0.0
 10
-6.12247
 20
-2.38275
 30
0.0
 10
-6.12247
 20
-2.38275
 30
0.0
 10
-6.12247
 20
-1.13851
 30
0.0
 10
-6.12247
 20
-1.13851
 30
0.0
  0
SPLINE
  5
B1
330
1F
100
AcDbEntity
  8
Layer 1
 62
   242
370
     9
100
AcDbSpline
210
0.0
220
0.0
230
1.0
 70
    11
 71
     3
 72
    16
 73
    12
 74
     0
 42
0.0000000001
 43
0.0000000001
 12
1.0
 22
0.0
 32
0.0
 13
1.0
 23
0.0
 33
0.0
 40
0.0
 40
0.0
 40
0.0
 40
0.0
 40
0.25
 40
0.25
 40
0.25
 40
0.25
 40
0.5
 40
0.5
 40
0.5
 40
0.5
 40
1.0
 40
1.0
 40
1.0
 40
1.0
 10
-6.34116
 20
-1.13851
 30
0.0
 10
-6.34116
 20
-1.13851
 30
0.0
 10
-7.54016
 20
-1.75686
 30
0.0
 10
-7.54016
 20
-1.75686
 30
0.0
 10
-7.54016
 20
-1.75686
 30
0.0
 10
-7.54016
 20
-1.75686
 30
0.0
 10
-6.34116
 20
-2.38275
 30
0.0
 10
-6.34116
 20
-2.38275
 30
0.0
 10
-6.34116
 20
-2.38275
 30
0.0
 10
-6.34116
 20
-2.38275
 30
0.0
 10
-6.34116
 20
-1.13851
 30
0.0
 10
-6.34116
 20
-1.13851
 30
0.0
  0
SPLINE
  5
B2
330
1F
100
AcDbEntity
  8
Layer 1
 62
   242
370
     9
100
AcDbSpline
210
0.0
220
0.0
230
1.0
 70
    11
 71
     3
 72
    16
 73
    12
 74
     0
 42
0.0000000001
 43
0.0000000001
 12
1.0
 22
0.0
 32
0.0
 13
1.0
 23
0.0
 33
0.0
 40
0.0
 40
0.0
 40
0.0
 40
0.0
 40
0.25
 40
0.25
 40
0.25
 40
0.25
 40
0.5
 40
0.5
 40
0.5
 40
0.5
 40
1.0
 40
1.0
 40
1.0
 40
1.0
 10
-7.65327
 20
-3.15946
 30
0.0
 10
-7.65327
 20
-3.15946
 30
0.0
 10
-7.65327
 20
-1.9303
 30
0.0
 10
-7.65327
 20
-1.9303
 30
0.0
 10
-7.65327
 20
-1.9303
 30
0.0
 10
-7.65327
 20
-1.9303
 30
0.0
 10
-6.45427
 20
-2.54865
 30
0.0
 10
-6.45427
 20
-2.54865
 30
0.0
 10
-6.45427
 20
-2.54865
 30
0.0
 10
-6.45427
 20
-2.54865
 30
0.0
 10
-7.65327
 20
-3.15946
 30
0.0
 10
-7.65327
 20
-3.15946
 30
0.0
  0
SPLINE
  5
B3
330
1F
100
AcDbEntity
  8
Layer 1
 62
   242
370
     9
100
AcDbSpline
210
0.0
220
0.0
230
1.0
 70
    11
 71
     3
 72
    16
 73
    12
 74
     0
 42
0.0000000001
 43
0.0000000001
 12
1.0
 22
0.0
 32
0.0
 13
1.0
 23
0.0
 33
0.0
 40
0.0
 40
0.0
 40
0.0
 40
0.0
 40
0.25
 40
0.25
 40
0.25
 40
0.25
 40
0.5
 40
0.5
 40
0.5
 40
0.5
 40
1.0
 40
1.0
 40
1.0
 40
1.0
 10
-3.37759
 20
-0.97261
 30
0.0
 10
-3.37759
 20
-0.97261
 30
0.0
 10
-4.58413
 20
-1.59096
 30
0.0
 10
-4.58413
 20
-1.59096
 30
0.0
 10
-4.58413
 20
-1.59096
 30
0.0
 10
-4.58413
 20
-1.59096
 30
0.0
 10
-4.58413
 20
-0.34672
 30
0.0
 10
-4.58413
 20
-0.34672
 30
0.0
 10
-4.58413
 20
-0.34672
 30
0.0
 10
-4.58413
 20
-0.34672
 30
0.0
 10
-3.37759
 20
-0.97261
 30
0.0
 10
-3.37759
 20
-0.97261
 30
0.0
  0
SPLINE
  5
B4
330
1F
100
AcDbEntity
  8
Layer 1
 62
   242
370
     9
100
AcDbSpline
210
0.0
220
0.0
230
1.0
 70
    11
 71
     3
 72
    16
 73
    12
 74
     0
 42
0.0000000001
 43
0.0000000001
 12
1.0
 22
0.0
 32
0.0
 13
1.0
 23
0.0
 33
0.0
 40
0.0
 40
0.0
 40
0.0
 40
0.0
 40
0.25
 40
0.25
 40
0.25
 40
0.25
 40
0.5
 40
0.5
 40
0.5
 40
0.5
 40
1.0
 40
1.0
 40
1.0
 40
1.0
 10
-6.00936
 20
-0.97261
 30
0.0
 10
-6.00936
 20
-0.97261
 30
0.0
 10
-4.80282
 20
-1.59096
 30
0.0
 10
-4.80282
 20
-1.59096
 30
0.0
 10
-4.80282
 20
-1.59096
 30
0.0
 10
-4.80282
 20
-1.59096
 30
0.0
 10
-4.80282
 20
-0.34672
 30
0.0
 10
-4.80282
 20
-0.34672
 30
0.0
 10
-4.80282
 20
-0.34672
 30
0.0
 10
-4.80282
 20
-0.34672
 30
0.0
 10
-6.00936
 20
-0.97261
 30
0.0
 10
-6.00936
 20
-0.97261
 30
0.0
  0
SPLINE
  5
B5
330
1F
100
AcDbEntity
  8
Layer 1
 62
   242
370
     9
100
AcDbSpline
210
0.0
220
0.0
230
1.0
 70
    11
 71
     3
 72
    16
 73
    12
 74
     0
 42
0.0000000001
 43
0.0000000001
 12
1.0
 22
0.0
 32
0.0
 13
1.0
 23
0.0
 33
0.0
 40
0.0
 40
0.0
 40
0.0
 40
0.0
 40
0.25
 40
0.25
 40
0.25
 40
0.25
 40
0.5
 40
0.5
 40
0.5
 40
0.5
 40
1.0
 40
1.0
 40
1.0
 40
1.0
 10
-3.27202
 20
-0.79917
 30
0.0
 10
-3.27202
 20
-0.79917
 30
0.0
 10
-3.27202
 20
0.43753
 30
0.0
 10
-3.27202
 20
0.43753
 30
0.0
 10
-3.27202
 20
0.43753
 30
0.0
 10
-3.27202
 20
0.43753
 30
0.0
 10
-4.47856
 20
-0.18082
 30
0.0
 10
-4.47856
 20
-0.18082
 30
0.0
 10
-4.47856
 20
-0.18082
 30
0.0
 10
-4.47856
 20
-0.18082
 30
0.0
 10
-3.27202
 20
-0.79917
 30
0.0
 10
-3.27202
 20
-0.79917
 30
0.0
  0
SPLINE
  5
B6
330
1F
100
AcDbEntity
  8
Layer 1
 62
   242
370
     9
100
AcDbSpline
210
0.0
220
0.0
230
1.0
 70
    11
 71
     3
 72
    16
 73
    12
 74
     0
 42
0.0000000001
 43
0.0000000001
 12
1.0
 22
0.0
 32
0.0
 13
1.0
 23
0.0
 33
0.0
 40
0.0
 40
0.0
 40
0.0
 40
0.0
 40
0.25
 40
0.25
 40
0.25
 40
0.25
 40
0.5
 40
0.5
 40
0.5
 40
0.5
 40
1.0
 40
1.0
 40
1.0
 40
1.0
 10
-4.58413
 20
1.22932
 30
0.0
 10
-4.58413
 20
1.22932
 30
0.0
 10
-3.37759
 20
0.61097
 30
0.0
 10
-3.37759
 20
0.61097
 30
0.0
 10
-3.37759
 20
0.61097
 30
0.0
 10
-3.37759
 20
0.61097
 30
0.0
 10
-4.58413
 20
-0.01493
 30
0.0
 10
-4.58413
 20
-0.01493
 30
0.0
 10
-4.58413
 20
-0.01493
 30
0.0
 10
-4.58413
 20
-0.01493
 30
0.0
 10
-4.58413
 20
1.22932
 30
0.0
 10
-4.58413
 20
1.22932
 30
0.0
  0
SPLINE
  5
B7
330
1F
100
AcDbEntity
  8
Layer 1
 62
   242
370
     9
100
AcDbSpline
210
0.0
220
0.0
230
1.0
 70
    11
 71
     3
 72
    16
 73
    12
 74
     0
 42
0.0000000001
 43
0.0000000001
 12
1.0
 22
0.0
 32
0.0
 13
1.0
 23
0.0
 33
0.0
 40
0.0
 40
0.0
 40
0.0
 40
0.0
 40
0.25
 40
0.25
 40
0.25
 40
0.25
 40
0.5
 40
0.5
 40
0.5
 40
0.5
 40
1.0
 40
1.0
 40
1.0
 40
1.0
 10
-4.80282
 20
1.22932
 30
0.0
 10
-4.80282
 20
1.22932
 30
0.0
 10
-6.00936
 20
0.61097
 30
0.0
 10
-6.00936
 20
0.61097
 30
0.0
 10
-6.00936
 20
0.61097
 30
0.0
 10
-6.00936
 20
0.61097
 30
0.0
 10
-4.80282
 20
-0.01493
 30
0.0
 10
-4.80282
 20
-0.01493
 30
0.0
 10
-4.80282
 20
-0.01493
 30
0.0
 10
-4.80282
 20
-0.01493
 30
0.0
 10
-4.80282
 20
1.22932
 30
0.0
 10
-4.80282
 20
1.22932
 30
0.0
  0
SPLINE
  5
B8
330
1F
100
AcDbEntity
  8
Layer 1
 62
   242
370
     9
100
AcDbSpline
210
0.0
220
0.0
230
1.0
 70
    11
 71
     3
 72
    16
 73
    12
 74
     0
 42
0.0000000001
 43
0.0000000001
 12
1.0
 22
0.0
 32
0.0
 13
1.0
 23
0.0
 33
0.0
 40
0.0
 40
0.0
 40
0.0
 40
0.0
 40
0.25
 40
0.25
 40
0.25
 40
0.25
 40
0.5
 40
0.5
 40
0.5
 40
0.5
 40
1.0
 40
1.0
 40
1.0
 40
1.0
 10
-6.12247
 20
-0.79917
 30
0.0
 10
-6.12247
 20
-0.79917
 30
0.0
 10
-6.12247
 20
0.43753
 30
0.0
 10
-6.12247
 20
0.43753
 30
0.0
 10
-6.12247
 20
0.43753
 30
0.0
 10
-6.12247
 20
0.43753
 30
0.0
 10
-4.91593
 20
-0.18082
 30
0.0
 10
-4.91593
 20
-0.18082
 30
0.0
 10
-4.91593
 20
-0.18082
 30
0.0
 10
-4.91593
 20
-0.18082
 30
0.0
 10
-6.12247
 20
-0.79917
 30
0.0
 10
-6.12247
 20
-0.79917
 30
0.0
  0
SPLINE
  5
B9
330
1F
100
AcDbEntity
  8
Layer 1
 62
   242
370
     9
100
AcDbSpline
210
0.0
220
0.0
230
1.0
 70
    11
 71
     3
 72
    16
 73
    12
 74
     0
 42
0.0000000001
 43
0.0000000001
 12
1.0
 22
0.0
 32
0.0
 13
1.0
 23
0.0
 33
0.0
 40
0.0
 40
0.0
 40
0.0
 40
0.0
 40
0.25
 40
0.25
 40
0.25
 40
0.25
 40
0.5
 40
0.5
 40
0.5
 40
0.5
 40
1.0
 40
1.0
 40
1.0
 40
1.0
 10
-4.47856
 20
1.39522
 30
0.0
 10
-4.47856
 20
1.39522
 30
0.0
 10
-3.27202
 20
0.78441
 30
0.0
 10
-3.27202
 20
0.78441
 30
0.0
 10
-3.27202
 20
0.78441
 30
0.0
 10
-3.27202
 20
0.78441
 30
0.0
 10
-3.27202
 20
2.02111
 30
0.0
 10
-3.27202
 20
2.02111
 30
0.0
 10
-3.27202
 20
2.02111
 30
0.0
 10
-3.27202
 20
2.02111
 30
0.0
 10
-4.47856
 20
1.39522
 30
0.0
 10
-4.47856
 20
1.39522
 30
0.0
  0
SPLINE
  5
BA
330
1F
100
AcDbEntity
  8
Layer 1
 62
   242
370
     9
100
AcDbSpline
210
0.0
220
0.0
230
1.0
 70
    11
 71
     3
 72
    16
 73
    12
 74
     0
 42
0.0000000001
 43
0.0000000001
 12
1.0
 22
0.0
 32
0.0
 13
1.0
 23
0.0
 33
0.0
 40
0.0
 40
0.0
 40
0.0
 40
0.0
 40
0.25
 40
0.25
 40
0.25
 40
0.25
 40
0.5
 40
0.5
 40
0.5
 40
0.5
 40
1.0
 40
1.0
 40
1.0
 40
1.0
 10
-3.27202
 20
3.6047
 30
0.0
 10
-3.27202
 20
3.6047
 30
0.0
 10
-4.47856
 20
2.98635
 30
0.0
 10
-4.47856
 20
2.98635
 30
0.0
 10
-4.47856
 20
2.98635
 30
0.0
 10
-4.47856
 20
2.98635
 30
0.0
 10
-3.27202
 20
2.36045
 30
0.0
 10
-3.27202
 20
2.36045
 30
0.0
 10
-3.27202
 20
2.36045
 30
0.0
 10
-3.27202
 20
2.36045
 30
0.0
 10
-3.27202
 20
3.6047
 30
0.0
 10
-3.27202
 20
3.6047
 30
0.0
  0
SPLINE
  5
BB
330
1F
100
AcDbEntity
  8
Layer 1
 62
   242
370
     9
100
AcDbSpline
210
0.0
220
0.0
230
1.0
 70
    11
 71
     3
 72
    16
 73
    12
 74
     0
 42
0.0000000001
 43
0.0000000001
 12
1.0
 22
0.0
 32
0.0
 13
1.0
 23
0.0
 33
0.0
 40
0.0
 40
0.0
 40
0.0
 40
0.0
 40
0.25
 40
0.25
 40
0.25
 40
0.25
 40
0.5
 40
0.5
 40
0.5
 40
0.5
 40
1.0
 40
1.0
 40
1.0
 40
1.0
 10
-4.58413
 20
1.5762
 30
0.0
 10
-4.58413
 20
1.5762
 30
0.0
 10
-4.58413
 20
2.81291
 30
0.0
 10
-4.58413
 20
2.81291
 30
0.0
 10
-4.58413
 20
2.81291
 30
0.0
 10
-4.58413
 20
2.81291
 30
0.0
 10
-3.37759
 20
2.19455
 30
0.0
 10
-3.37759
 20
2.19455
 30
0.0
 10
-3.37759
 20
2.19455
 30
0.0
 10
-3.37759
 20
2.19455
 30
0.0
 10
-4.58413
 20
1.5762
 30
0.0
 10
-4.58413
 20
1.5762
 30
0.0
  0
SPLINE
  5
BC
330
1F
100
AcDbEntity
  8
Layer 1
 62
   242
370
     9
100
AcDbSpline
210
0.0
220
0.0
230
1.0
 70
    11
 71
     3
 72
    16
 73
    12
 74
     0
 42
0.0000000001
 43
0.0000000001
 12
1.0
 22
0.0
 32
0.0
 13
1.0
 23
0.0
 33
0.0
 40
0.0
 40
0.0
 40
0.0
 40
0.0
 40
0.25
 40
0.25
 40
0.25
 40
0.25
 40
0.5
 40
0.5
 40
0.5
 40
0.5
 40
1.0
 40
1.0
 40
1.0
 40
1.0
 10
-6.12247
 20
-5.86664
 30
0.0
 10
-6.12247
 20
-5.86664
 30
0.0
 10
-4.91593
 20
-6.48499
 30
0.0
 10
-4.91593
 20
-6.48499
 30
0.0
 10
-4.91593
 20
-6.48499
 30
0.0
 10
-4.91593
 20
-6.48499
 30
0.0
 10
-6.12247
 20
-7.11089
 30
0.0
 10
-6.12247
 20
-7.11089
 30
0.0
 10
-6.12247
 20
-7.11089
 30
0.0
 10
-6.12247
 20
-7.11089
 30
0.0
 10
-6.12247
 20
-5.86664
 30
0.0
 10
-6.12247
 20
-5.86664
 30
0.0
  0
SPLINE
  5
BD
330
1F
100
AcDbEntity
  8
Layer 1
 62
   242
370
     9
100
AcDbSpline
210
0.0
220
0.0
230
1.0
 70
    11
 71
     3
 72
    16
 73
    12
 74
     0
 42
0.0000000001
 43
0.0000000001
 12
1.0
 22
0.0
 32
0.0
 13
1.0
 23
0.0
 33
0.0
 40
0.0
 40
0.0
 40
0.0
 40
0.0
 40
0.25
 40
0.25
 40
0.25
 40
0.25
 40
0.5
 40
0.5
 40
0.5
 40
0.5
 40
1.0
 40
1.0
 40
1.0
 40
1.0
 10
-6.34116
 20
-5.86664
 30
0.0
 10
-6.34116
 20
-5.86664
 30
0.0
 10
-7.54016
 20
-6.48499
 30
0.0
 10
-7.54016
 20
-6.48499
 30
0.0
 10
-7.54016
 20
-6.48499
 30
0.0
 10
-7.54016
 20
-6.48499
 30
0.0
 10
-6.34116
 20
-7.11089
 30
0.0
 10
-6.34116
 20
-7.11089
 30
0.0
 10
-6.34116
 20
-7.11089
 30
0.0
 10
-6.34116
 20
-7.11089
 30
0.0
 10
-6.34116
 20
-5.86664
 30
0.0
 10
-6.34116
 20
-5.86664
 30
0.0
  0
SPLINE
  5
BE
330
1F
100
AcDbEntity
  8
Layer 1
 62
   242
370
     9
100
AcDbSpline
210
0.0
220
0.0
230
1.0
 70
    11
 71
     3
 72
    16
 73
    12
 74
     0
 42
0.0000000001
 43
0.0000000001
 12
1.0
 22
0.0
 32
0.0
 13
1.0
 23
0.0
 33
0.0
 40
0.0
 40
0.0
 40
0.0
 40
0.0
 40
0.25
 40
0.25
 40
0.25
 40
0.25
 40
0.5
 40
0.5
 40
0.5
 40
0.5
 40
1.0
 40
1.0
 40
1.0
 40
1.0
 10
-3.37759
 20
-5.70074
 30
0.0
 10
-3.37759
 20
-5.70074
 30
0.0
 10
-4.58413
 20
-6.31909
 30
0.0
 10
-4.58413
 20
-6.31909
 30
0.0
 10
-4.58413
 20
-6.31909
 30
0.0
 10
-4.58413
 20
-6.31909
 30
0.0
 10
-4.58413
 20
-5.07485
 30
0.0
 10
-4.58413
 20
-5.07485
 30
0.0
 10
-4.58413
 20
-5.07485
 30
0.0
 10
-4.58413
 20
-5.07485
 30
0.0
 10
-3.37759
 20
-5.70074
 30
0.0
 10
-3.37759
 20
-5.70074
 30
0.0
  0
SPLINE
  5
BF
330
1F
100
AcDbEntity
  8
Layer 1
 62
   242
370
     9
100
AcDbSpline
210
0.0
220
0.0
230
1.0
 70
    11
 71
     3
 72
    16
 73
    12
 74
     0
 42
0.0000000001
 43
0.0000000001
 12
1.0
 22
0.0
 32
0.0
 13
1.0
 23
0.0
 33
0.0
 40
0.0
 40
0.0
 40
0.0
 40
0.0
 40
0.25
 40
0.25
 40
0.25
 40
0.25
 40
0.5
 40
0.5
 40
0.5
 40
0.5
 40
1.0
 40
1.0
 40
1.0
 40
1.0
 10
-6.00936
 20
-5.70074
 30
0.0
 10
-6.00936
 20
-5.70074
 30
0.0
 10
-4.80282
 20
-6.31909
 30
0.0
 10
-4.80282
 20
-6.31909
 30
0.0
 10
-4.80282
 20
-6.31909
 30
0.0
 10
-4.80282
 20
-6.31909
 30
0.0
 10
-4.80282
 20
-5.07485
 30
0.0
 10
-4.80282
 20
-5.07485
 30
0.0
 10
-4.80282
 20
-5.07485
 30
0.0
 10
-4.80282
 20
-5.07485
 30
0.0
 10
-6.00936
 20
-5.70074
 30
0.0
 10
-6.00936
 20
-5.70074
 30
0.0
  0
SPLINE
  5
C0
330
1F
100
AcDbEntity
  8
Layer 1
 62
   242
370
     9
100
AcDbSpline
210
0.0
220
0.0
230
1.0
 70
    11
 71
     3
 72
    16
 73
    12
 74
     0
 42
0.0000000001
 43
0.0000000001
 12
1.0
 22
0.0
 32
0.0
 13
1.0
 23
0.0
 33
0.0
 40
0.0
 40
0.0
 40
0.0
 40
0.0
 40
0.25
 40
0.25
 40
0.25
 40
0.25
 40
0.5
 40
0.5
 40
0.5
 40
0.5
 40
1.0
 40
1.0
 40
1.0
 40
1.0
 10
-3.27202
 20
-5.5273
 30
0.0
 10
-3.27202
 20
-5.5273
 30
0.0
 10
-3.27202
 20
-4.2906
 30
0.0
 10
-3.27202
 20
-4.2906
 30
0.0
 10
-3.27202
 20
-4.2906
 30
0.0
 10
-3.27202
 20
-4.2906
 30
0.0
 10
-4.47856
 20
-4.90895
 30
0.0
 10
-4.47856
 20
-4.90895
 30
0.0
 10
-4.47856
 20
-4.90895
 30
0.0
 10
-4.47856
 20
-4.90895
 30
0.0
 10
-3.27202
 20
-5.5273
 30
0.0
 10
-3.27202
 20
-5.5273
 30
0.0
  0
SPLINE
  5
C1
330
1F
100
AcDbEntity
  8
Layer 1
 62
   242
370
     9
100
AcDbSpline
210
0.0
220
0.0
230
1.0
 70
    11
 71
     3
 72
    16
 73
    12
 74
     0
 42
0.0000000001
 43
0.0000000001
 12
1.0
 22
0.0
 32
0.0
 13
1.0
 23
0.0
 33
0.0
 40
0.0
 40
0.0
 40
0.0
 40
0.0
 40
0.25
 40
0.25
 40
0.25
 40
0.25
 40
0.5
 40
0.5
 40
0.5
 40
0.5
 40
1.0
 40
1.0
 40
1.0
 40
1.0
 10
-4.58413
 20
-3.4988
 30
0.0
 10
-4.58413
 20
-3.4988
 30
0.0
 10
-3.37759
 20
-4.11716
 30
0.0
 10
-3.37759
 20
-4.11716
 30
0.0
 10
-3.37759
 20
-4.11716
 30
0.0
 10
-3.37759
 20
-4.11716
 30
0.0
 10
-4.58413
 20
-4.74305
 30
0.0
 10
-4.58413
 20
-4.74305
 30
0.0
 10
-4.58413
 20
-4.74305
 30
0.0
 10
-4.58413
 20
-4.74305
 30
0.0
 10
-4.58413
 20
-3.4988
 30
0.0
 10
-4.58413
 20
-3.4988
 30
0.0
  0
SPLINE
  5
C2
330
1F
100
AcDbEntity
  8
Layer 1
 62
   242
370
     9
100
AcDbSpline
210
0.0
220
0.0
230
1.0
 70
    11
 71
     3
 72
    16
 73
    12
 74
     0
 42
0.0000000001
 43
0.0000000001
 12
1.0
 22
0.0
 32
0.0
 13
1.0
 23
0.0
 33
0.0
 40
0.0
 40
0.0
 40
0.0
 40
0.0
 40
0.25
 40
0.25
 40
0.25
 40
0.25
 40
0.5
 40
0.5
 40
0.5
 40
0.5
 40
1.0
 40
1.0
 40
1.0
 40
1.0
 10
-4.80282
 20
-3.4988
 30
0.0
 10
-4.80282
 20
-3.4988
 30
0.0
 10
-6.00936
 20
-4.11716
 30
0.0
 10
-6.00936
 20
-4.11716
 30
0.0
 10
-6.00936
 20
-4.11716
 30
0.0
 10
-6.00936
 20
-4.11716
 30
0.0
 10
-4.80282
 20
-4.74305
 30
0.0
 10
-4.80282
 20
-4.74305
 30
0.0
 10
-4.80282
 20
-4.74305
 30
0.0
 10
-4.80282
 20
-4.74305
 30
0.0
 10
-4.80282
 20
-3.4988
 30
0.0
 10
-4.80282
 20
-3.4988
 30
0.0
  0
SPLINE
  5
C3
330
1F
100
AcDbEntity
  8
Layer 1
 62
   242
370
     9
100
AcDbSpline
210
0.0
220
0.0
230
1.0
 70
    11
 71
     3
 72
    16
 73
    12
 74
     0
 42
0.0000000001
 43
0.0000000001
 12
1.0
 22
0.0
 32
0.0
 13
1.0
 23
0.0
 33
0.0
 40
0.0
 40
0.0
 40
0.0
 40
0.0
 40
0.25
 40
0.25
 40
0.25
 40
0.25
 40
0.5
 40
0.5
 40
0.5
 40
0.5
 40
1.0
 40
1.0
 40
1.0
 40
1.0
 10
-6.12247
 20
-5.5273
 30
0.0
 10
-6.12247
 20
-5.5273
 30
0.0
 10
-6.12247
 20
-4.2906
 30
0.0
 10
-6.12247
 20
-4.2906
 30
0.0
 10
-6.12247
 20
-4.2906
 30
0.0
 10
-6.12247
 20
-4.2906
 30
0.0
 10
-4.91593
 20
-4.90895
 30
0.0
 10
-4.91593
 20
-4.90895
 30
0.0
 10
-4.91593
 20
-4.90895
 30
0.0
 10
-4.91593
 20
-4.90895
 30
0.0
 10
-6.12247
 20
-5.5273
 30
0.0
 10
-6.12247
 20
-5.5273
 30
0.0
  0
SPLINE
  5
C4
330
1F
100
AcDbEntity
  8
Layer 1
 62
   242
370
     9
100
AcDbSpline
210
0.0
220
0.0
230
1.0
 70
    11
 71
     3
 72
    16
 73
    12
 74
     0
 42
0.0000000001
 43
0.0000000001
 12
1.0
 22
0.0
 32
0.0
 13
1.0
 23
0.0
 33
0.0
 40
0.0
 40
0.0
 40
0.0
 40
0.0
 40
0.25
 40
0.25
 40
0.25
 40
0.25
 40
0.5
 40
0.5
 40
0.5
 40
0.5
 40
1.0
 40
1.0
 40
1.0
 40
1.0
 10
-4.47856
 20
-3.3329
 30
0.0
 10
-4.47856
 20
-3.3329
 30
0.0
 10
-3.27202
 20
-3.95126
 30
0.0
 10
-3.27202
 20
-3.95126
 30
0.0
 10
-3.27202
 20
-3.95126
 30
0.0
 10
-3.27202
 20
-3.95126
 30
0.0
 10
-3.27202
 20
-2.71455
 30
0.0
 10
-3.27202
 20
-2.71455
 30
0.0
 10
-3.27202
 20
-2.71455
 30
0.0
 10
-3.27202
 20
-2.71455
 30
0.0
 10
-4.47856
 20
-3.3329
 30
0.0
 10
-4.47856
 20
-3.3329
 30
0.0
  0
SPLINE
  5
C5
330
1F
100
AcDbEntity
  8
Layer 1
 62
   242
370
     9
100
AcDbSpline
210
0.0
220
0.0
230
1.0
 70
    11
 71
     3
 72
    16
 73
    12
 74
     0
 42
0.0000000001
 43
0.0000000001
 12
1.0
 22
0.0
 32
0.0
 13
1.0
 23
0.0
 33
0.0
 40
0.0
 40
0.0
 40
0.0
 40
0.0
 40
0.25
 40
0.25
 40
0.25
 40
0.25
 40
0.5
 40
0.5
 40
0.5
 40
0.5
 40
1.0
 40
1.0
 40
1.0
 40
1.0
 10
-3.27202
 20
-1.13851
 30
0.0
 10
-3.27202
 20
-1.13851
 30
0.0
 10
-4.47856
 20
-1.75686
 30
0.0
 10
-4.47856
 20
-1.75686
 30
0.0
 10
-4.47856
 20
-1.75686
 30
0.0
 10
-4.47856
 20
-1.75686
 30
0.0
 10
-3.27202
 20
-2.38275
 30
0.0
 10
-3.27202
 20
-2.38275
 30
0.0
 10
-3.27202
 20
-2.38275
 30
0.0
 10
-3.27202
 20
-2.38275
 30
0.0
 10
-3.27202
 20
-1.13851
 30
0.0
 10
-3.27202
 20
-1.13851
 30
0.0
  0
SPLINE
  5
C6
330
1F
100
AcDbEntity
  8
Layer 1
 62
   242
370
     9
100
AcDbSpline
210
0.0
220
0.0
230
1.0
 70
    11
 71
     3
 72
    16
 73
    12
 74
     0
 42
0.0000000001
 43
0.0000000001
 12
1.0
 22
0.0
 32
0.0
 13
1.0
 23
0.0
 33
0.0
 40
0.0
 40
0.0
 40
0.0
 40
0.0
 40
0.25
 40
0.25
 40
0.25
 40
0.25
 40
0.5
 40
0.5
 40
0.5
 40
0.5
 40
1.0
 40
1.0
 40
1.0
 40
1.0
 10
-4.58413
 20
-3.15946
 30
0.0
 10
-4.58413
 20
-3.15946
 30
0.0
 10
-4.58413
 20
-1.9303
 30
0.0
 10
-4.58413
 20
-1.9303
 30
0.0
 10
-4.58413
 20
-1.9303
 30
0.0
 10
-4.58413
 20
-1.9303
 30
0.0
 10
-3.37759
 20
-2.54865
 30
0.0
 10
-3.37759
 20
-2.54865
 30
0.0
 10
-3.37759
 20
-2.54865
 30
0.0
 10
-3.37759
 20
-2.54865
 30
0.0
 10
-4.58413
 20
-3.15946
 30
0.0
 10
-4.58413
 20
-3.15946
 30
0.0
  0
SPLINE
  5
C7
330
1F
100
AcDbEntity
  8
Layer 1
 62
   242
370
     9
100
AcDbSpline
210
0.0
220
0.0
230
1.0
 70
    11
 71
     3
 72
    16
 73
    12
 74
     0
 42
0.0000000001
 43
0.0000000001
 12
1.0
 22
0.0
 32
0.0
 13
1.0
 23
0.0
 33
0.0
 40
0.0
 40
0.0
 40
0.0
 40
0.0
 40
0.25
 40
0.25
 40
0.25
 40
0.25
 40
0.5
 40
0.5
 40
0.5
 40
0.5
 40
1.0
 40
1.0
 40
1.0
 40
1.0
 10
-3.27202
 20
-5.86664
 30
0.0
 10
-3.27202
 20
-5.86664
 30
0.0
 10
-4.47856
 20
-6.48499
 30
0.0
 10
-4.47856
 20
-6.48499
 30
0.0
 10
-4.47856
 20
-6.48499
 30
0.0
 10
-4.47856
 20
-6.48499
 30
0.0
 10
-3.27202
 20
-7.11089
 30
0.0
 10
-3.27202
 20
-7.11089
 30
0.0
 10
-3.27202
 20
-7.11089
 30
0.0
 10
-3.27202
 20
-7.11089
 30
0.0
 10
-3.27202
 20
-5.86664
 30
0.0
 10
-3.27202
 20
-5.86664
 30
0.0
  0
SPLINE
  5
C8
330
1F
100
AcDbEntity
  8
Layer 1
 62
   242
370
     9
100
AcDbSpline
210
0.0
220
0.0
230
1.0
 70
    11
 71
     3
 72
    20
 73
    16
 74
     0
 42
0.0000000001
 43
0.0000000001
 12
1.0
 22
0.0
 32
0.0
 13
1.0
 23
0.0
 33
0.0
 40
0.0
 40
0.0
 40
0.0
 40
0.0
 40
0.2
 40
0.2
 40
0.2
 40
0.2
 40
0.4
 40
0.4
 40
0.4
 40
0.4
 40
0.6
 40
0.6
 40
0.6
 40
0.6
 40
1.0
 40
1.0
 40
1.0
 40
1.0
 10
-4.58413
 20
5.38435
 30
0.0
 10
-4.58413
 20
5.38435
 30
0.0
 10
-3.44546
 20
5.38435
 30
0.0
 10
-3.44546
 20
5.38435
 30
0.0
 10
-3.44546
 20
5.38435
 30
0.0
 10
-3.44546
 20
5.38435
 30
0.0
 10
-3.37759
 20
5.34664
 30
0.0
 10
-3.37759
 20
5.34664
 30
0.0
 10
-3.37759
 20
5.34664
 30
0.0
 10
-3.37759
 20
5.34664
 30
0.0
 10
-4.58413
 20
4.72829
 30
0.0
 10
-4.58413
 20
4.72829
 30
0.0
 10
-4.58413
 20
4.72829
 30
0.0
 10
-4.58413
 20
4.72829
 30
0.0
 10
-4.58413
 20
5.38435
 30
0.0
 10
-4.58413
 20
5.38435
 30
0.0
  0
SPLINE
  5
C9
330
1F
100
AcDbEntity
  8
Layer 1
 62
   242
370
     9
100
AcDbSpline
210
0.0
220
0.0
230
1.0
 70
    11
 71
     3
 72
    20
 73
    16
 74
     0
 42
0.0000000001
 43
0.0000000001
 12
1.0
 22
0.0
 32
0.0
 13
1.0
 23
0.0
 33
0.0
 40
0.0
 40
0.0
 40
0.0
 40
0.0
 40
0.2
 40
0.2
 40
0.2
 40
0.2
 40
0.4
 40
0.4
 40
0.4
 40
0.4
 40
0.6
 40
0.6
 40
0.6
 40
0.6
 40
1.0
 40
1.0
 40
1.0
 40
1.0
 10
-4.80282
 20
5.38435
 30
0.0
 10
-4.80282
 20
5.38435
 30
0.0
 10
-5.94903
 20
5.38435
 30
0.0
 10
-5.94903
 20
5.38435
 30
0.0
 10
-5.94903
 20
5.38435
 30
0.0
 10
-5.94903
 20
5.38435
 30
0.0
 10
-6.00936
 20
5.34664
 30
0.0
 10
-6.00936
 20
5.34664
 30
0.0
 10
-6.00936
 20
5.34664
 30
0.0
 10
-6.00936
 20
5.34664
 30
0.0
 10
-4.80282
 20
4.72829
 30
0.0
 10
-4.80282
 20
4.72829
 30
0.0
 10
-4.80282
 20
4.72829
 30
0.0
 10
-4.80282
 20
4.72829
 30
0.0
 10
-4.80282
 20
5.38435
 30
0.0
 10
-4.80282
 20
5.38435
 30
0.0
  0
SPLINE
  5
CA
330
1F
100
AcDbEntity
  8
Layer 1
 62
   242
370
     9
100
AcDbSpline
210
0.0
220
0.0
230
1.0
 70
    11
 71
     3
 72
    20
 73
    16
 74
     0
 42
0.0000000001
 43
0.0000000001
 12
1.0
 22
0.0
 32
0.0
 13
1.0
 23
0.0
 33
0.0
 40
0.0
 40
0.0
 40
0.0
 40
0.0
 40
0.2
 40
0.2
 40
0.2
 40
0.2
 40
0.4
 40
0.4
 40
0.4
 40
0.4
 40
0.6
 40
0.6
 40
0.6
 40
0.6
 40
1.0
 40
1.0
 40
1.0
 40
1.0
 10
-7.65327
 20
5.38435
 30
0.0
 10
-7.65327
 20
5.38435
 30
0.0
 10
-6.5146
 20
5.38435
 30
0.0
 10
-6.5146
 20
5.38435
 30
0.0
 10
-6.5146
 20
5.38435
 30
0.0
 10
-6.5146
 20
5.38435
 30
0.0
 10
-6.45427
 20
5.34664
 30
0.0
 10
-6.45427
 20
5.34664
 30
0.0
 10
-6.45427
 20
5.34664
 30
0.0
 10
-6.45427
 20
5.34664
 30
0.0
 10
-7.65327
 20
4.72829
 30
0.0
 10
-7.65327
 20
4.72829
 30
0.0
 10
-7.65327
 20
4.72829
 30
0.0
 10
-7.65327
 20
4.72829
 30
0.0
 10
-7.65327
 20
5.38435
 30
0.0
 10
-7.65327
 20
5.38435
 30
0.0
  0
SPLINE
  5
CB
330
1F
100
AcDbEntity
  8
Layer 1
 62
   242
370
     9
100
AcDbSpline
210
0.0
220
0.0
230
1.0
 70
    11
 71
     3
 72
    20
 73
    16
 74
     0
 42
0.0000000001
 43
0.0000000001
 12
1.0
 22
0.0
 32
0.0
 13
1.0
 23
0.0
 33
0.0
 40
0.0
 40
0.0
 40
0.0
 40
0.0
 40
0.2
 40
0.2
 40
0.2
 40
0.2
 40
0.4
 40
0.4
 40
0.4
 40
0.4
 40
0.6
 40
0.6
 40
0.6
 40
0.6
 40
1.0
 40
1.0
 40
1.0
 40
1.0
 10
-7.87196
 20
5.38435
 30
0.0
 10
-7.87196
 20
5.38435
 30
0.0
 10
-9.01063
 20
5.38435
 30
0.0
 10
-9.01063
 20
5.38435
 30
0.0
 10
-9.01063
 20
5.38435
 30
0.0
 10
-9.01063
 20
5.38435
 30
0.0
 10
-9.0785
 20
5.34664
 30
0.0
 10
-9.0785
 20
5.34664
 30
0.0
 10
-9.0785
 20
5.34664
 30
0.0
 10
-9.0785
 20
5.34664
 30
0.0
 10
-7.87196
 20
4.72829
 30
0.0
 10
-7.87196
 20
4.72829
 30
0.0
 10
-7.87196
 20
4.72829
 30
0.0
 10
-7.87196
 20
4.72829
 30
0.0
 10
-7.87196
 20
5.38435
 30
0.0
 10
-7.87196
 20
5.38435
 30
0.0
  0
SPLINE
  5
CC
330
1F
100
AcDbEntity
  8
Layer 1
 62
   242
370
     9
100
AcDbSpline
210
0.0
220
0.0
230
1.0
 70
    11
 71
     3
 72
    20
 73
    16
 74
     0
 42
0.0000000001
 43
0.0000000001
 12
1.0
 22
0.0
 32
0.0
 13
1.0
 23
0.0
 33
0.0
 40
0.0
 40
0.0
 40
0.0
 40
0.0
 40
0.2
 40
0.2
 40
0.2
 40
0.2
 40
0.4
 40
0.4
 40
0.4
 40
0.4
 40
0.6
 40
0.6
 40
0.6
 40
0.6
 40
1.0
 40
1.0
 40
1.0
 40
1.0
 10
-9.58374
 20
5.38435
 30
0.0
 10
-9.58374
 20
5.38435
 30
0.0
 10
-9.51587
 20
5.34664
 30
0.0
 10
-9.51587
 20
5.34664
 30
0.0
 10
-9.51587
 20
5.34664
 30
0.0
 10
-9.51587
 20
5.34664
 30
0.0
 10
-10.72241
 20
4.72829
 30
0.0
 10
-10.72241
 20
4.72829
 30
0.0
 10
-10.72241
 20
4.72829
 30
0.0
 10
-10.72241
 20
4.72829
 30
0.0
 10
-10.72241
 20
5.38435
 30
0.0
 10
-10.72241
 20
5.38435
 30
0.0
 10
-10.72241
 20
5.38435
 30
0.0
 10
-10.72241
 20
5.38435
 30
0.0
 10
-9.58374
 20
5.38435
 30
0.0
 10
-9.58374
 20
5.38435
 30
0.0
  0
SPLINE
  5
CD
330
1F
100
AcDbEntity
  8
Layer 1
 62
   242
370
     9
100
AcDbSpline
210
0.0
220
0.0
230
1.0
 70
    11
 71
     3
 72
    20
 73
    16
 74
     0
 42
0.0000000001
 43
0.0000000001
 12
1.0
 22
0.0
 32
0.0
 13
1.0
 23
0.0
 33
0.0
 40
0.0
 40
0.0
 40
0.0
 40
0.0
 40
0.2
 40
0.2
 40
0.2
 40
0.2
 40
0.4
 40
0.4
 40
0.4
 40
0.4
 40
0.6
 40
0.6
 40
0.6
 40
0.6
 40
1.0
 40
1.0
 40
1.0
 40
1.0
 10
-10.94109
 20
5.38435
 30
0.0
 10
-10.94109
 20
5.38435
 30
0.0
 10
-12.07976
 20
5.38435
 30
0.0
 10
-12.07976
 20
5.38435
 30
0.0
 10
-12.07976
 20
5.38435
 30
0.0
 10
-12.07976
 20
5.38435
 30
0.0
 10
-12.14763
 20
5.34664
 30
0.0
 10
-12.14763
 20
5.34664
 30
0.0
 10
-12.14763
 20
5.34664
 30
0.0
 10
-12.14763
 20
5.34664
 30
0.0
 10
-10.94109
 20
4.72829
 30
0.0
 10
-10.94109
 20
4.72829
 30
0.0
 10
-10.94109
 20
4.72829
 30
0.0
 10
-10.94109
 20
4.72829
 30
0.0
 10
-10.94109
 20
5.38435
 30
0.0
 10
-10.94109
 20
5.38435
 30
0.0
  0
SPLINE
  5
CE
330
1F
100
AcDbEntity
  8
Layer 1
 62
   242
370
     9
100
AcDbSpline
210
0.0
220
0.0
230
1.0
 70
    11
 71
     3
 72
    20
 73
    16
 74
     0
 42
0.0000000001
 43
0.0000000001
 12
1.0
 22
0.0
 32
0.0
 13
1.0
 23
0.0
 33
0.0
 40
0.0
 40
0.0
 40
0.0
 40
0.0
 40
0.2
 40
0.2
 40
0.2
 40
0.2
 40
0.4
 40
0.4
 40
0.4
 40
0.4
 40
0.6
 40
0.6
 40
0.6
 40
0.6
 40
1.0
 40
1.0
 40
1.0
 40
1.0
 10
-13.79154
 20
5.38435
 30
0.0
 10
-13.79154
 20
5.38435
 30
0.0
 10
-12.65287
 20
5.38435
 30
0.0
 10
-12.65287
 20
5.38435
 30
0.0
 10
-12.65287
 20
5.38435
 30
0.0
 10
-12.65287
 20
5.38435
 30
0.0
 10
-12.585
 20
5.34664
 30
0.0
 10
-12.585
 20
5.34664
 30
0.0
 10
-12.585
 20
5.34664
 30
0.0
 10
-12.585
 20
5.34664
 30
0.0
 10
-13.79154
 20
4.72829
 30
0.0
 10
-13.79154
 20
4.72829
 30
0.0
 10
-13.79154
 20
4.72829
 30
0.0
 10
-13.79154
 20
4.72829
 30
0.0
 10
-13.79154
 20
5.38435
 30
0.0
 10
-13.79154
 20
5.38435
 30
0.0
  0
SPLINE
  5
CF
330
1F
100
AcDbEntity
  8
Layer 1
 62
   242
370
     9
100
AcDbSpline
210
0.0
220
0.0
230
1.0
 70
    11
 71
     3
 72
    20
 73
    16
 74
     0
 42
0.0000000001
 43
0.0000000001
 12
1.0
 22
0.0
 32
0.0
 13
1.0
 23
0.0
 33
0.0
 40
0.0
 40
0.0
 40
0.0
 40
0.0
 40
0.2
 40
0.2
 40
0.2
 40
0.2
 40
0.4
 40
0.4
 40
0.4
 40
0.4
 40
0.6
 40
0.6
 40
0.6
 40
0.6
 40
1.0
 40
1.0
 40
1.0
 40
1.0
 10
-14.01023
 20
5.38435
 30
0.0
 10
-14.01023
 20
5.38435
 30
0.0
 10
-15.1489
 20
5.38435
 30
0.0
 10
-15.1489
 20
5.38435
 30
0.0
 10
-15.1489
 20
5.38435
 30
0.0
 10
-15.1489
 20
5.38435
 30
0.0
 10
-15.20923
 20
5.34664
 30
0.0
 10
-15.20923
 20
5.34664
 30
0.0
 10
-15.20923
 20
5.34664
 30
0.0
 10
-15.20923
 20
5.34664
 30
0.0
 10
-14.01023
 20
4.72829
 30
0.0
 10
-14.01023
 20
4.72829
 30
0.0
 10
-14.01023
 20
4.72829
 30
0.0
 10
-14.01023
 20
4.72829
 30
0.0
 10
-14.01023
 20
5.38435
 30
0.0
 10
-14.01023
 20
5.38435
 30
0.0
  0
SPLINE
  5
D0
330
1F
100
AcDbEntity
  8
Layer 1
 62
   242
370
     9
100
AcDbSpline
210
0.0
220
0.0
230
1.0
 70
    11
 71
     3
 72
    20
 73
    16
 74
     0
 42
0.0000000001
 43
0.0000000001
 12
1.0
 22
0.0
 32
0.0
 13
1.0
 23
0.0
 33
0.0
 40
0.0
 40
0.0
 40
0.0
 40
0.0
 40
0.2
 40
0.2
 40
0.2
 40
0.2
 40
0.4
 40
0.4
 40
0.4
 40
0.4
 40
0.6
 40
0.6
 40
0.6
 40
0.6
 40
1.0
 40
1.0
 40
1.0
 40
1.0
 10
-15.72201
 20
5.38435
 30
0.0
 10
-15.72201
 20
5.38435
 30
0.0
 10
-15.65414
 20
5.34664
 30
0.0
 10
-15.65414
 20
5.34664
 30
0.0
 10
-15.65414
 20
5.34664
 30
0.0
 10
-15.65414
 20
5.34664
 30
0.0
 10
-16.85314
 20
4.72829
 30
0.0
 10
-16.85314
 20
4.72829
 30
0.0
 10
-16.85314
 20
4.72829
 30
0.0
 10
-16.85314
 20
4.72829
 30
0.0
 10
-16.85314
 20
5.38435
 30
0.0
 10
-16.85314
 20
5.38435
 30
0.0
 10
-16.85314
 20
5.38435
 30
0.0
 10
-16.85314
 20
5.38435
 30
0.0
 10
-15.72201
 20
5.38435
 30
0.0
 10
-15.72201
 20
5.38435
 30
0.0
  0
SPLINE
  5
D1
330
1F
100
AcDbEntity
  8
Layer 1
 62
   242
370
     9
100
AcDbSpline
210
0.0
220
0.0
230
1.0
 70
    11
 71
     3
 72
    16
 73
    12
 74
     0
 42
0.0000000001
 43
0.0000000001
 12
1.0
 22
0.0
 32
0.0
 13
1.0
 23
0.0
 33
0.0
 40
0.0
 40
0.0
 40
0.0
 40
0.0
 40
0.25
 40
0.25
 40
0.25
 40
0.25
 40
0.5
 40
0.5
 40
0.5
 40
0.5
 40
1.0
 40
1.0
 40
1.0
 40
1.0
 10
-6.45427
 20
-7.27679
 30
0.0
 10
-6.45427
 20
-7.27679
 30
0.0
 10
-7.65327
 20
-7.27679
 30
0.0
 10
-7.65327
 20
-7.27679
 30
0.0
 10
-7.65327
 20
-7.27679
 30
0.0
 10
-7.65327
 20
-7.27679
 30
0.0
 10
-7.65327
 20
-6.65843
 30
0.0
 10
-7.65327
 20
-6.65843
 30
0.0
 10
-7.65327
 20
-6.65843
 30
0.0
 10
-7.65327
 20
-6.65843
 30
0.0
 10
-6.45427
 20
-7.27679
 30
0.0
 10
-6.45427
 20
-7.27679
 30
0.0
  0
SPLINE
  5
D2
330
1F
100
AcDbEntity
  8
Layer 1
 62
   242
370
     9
100
AcDbSpline
210
0.0
220
0.0
230
1.0
 70
    11
 71
     3
 72
    16
 73
    12
 74
     0
 42
0.0000000001
 43
0.0000000001
 12
1.0
 22
0.0
 32
0.0
 13
1.0
 23
0.0
 33
0.0
 40
0.0
 40
0.0
 40
0.0
 40
0.0
 40
0.25
 40
0.25
 40
0.25
 40
0.25
 40
0.5
 40
0.5
 40
0.5
 40
0.5
 40
1.0
 40
1.0
 40
1.0
 40
1.0
 10
-9.0785
 20
-7.27679
 30
0.0
 10
-9.0785
 20
-7.27679
 30
0.0
 10
-7.87196
 20
-7.27679
 30
0.0
 10
-7.87196
 20
-7.27679
 30
0.0
 10
-7.87196
 20
-7.27679
 30
0.0
 10
-7.87196
 20
-7.27679
 30
0.0
 10
-7.87196
 20
-6.65843
 30
0.0
 10
-7.87196
 20
-6.65843
 30
0.0
 10
-7.87196
 20
-6.65843
 30
0.0
 10
-7.87196
 20
-6.65843
 30
0.0
 10
-9.0785
 20
-7.27679
 30
0.0
 10
-9.0785
 20
-7.27679
 30
0.0
  0
SPLINE
  5
D3
330
1F
100
AcDbEntity
  8
Layer 1
 62
   242
370
     9
100
AcDbSpline
210
0.0
220
0.0
230
1.0
 70
    11
 71
     3
 72
    16
 73
    12
 74
     0
 42
0.0000000001
 43
0.0000000001
 12
1.0
 22
0.0
 32
0.0
 13
1.0
 23
0.0
 33
0.0
 40
0.0
 40
0.0
 40
0.0
 40
0.0
 40
0.25
 40
0.25
 40
0.25
 40
0.25
 40
0.5
 40
0.5
 40
0.5
 40
0.5
 40
1.0
 40
1.0
 40
1.0
 40
1.0
 10
-10.72241
 20
-7.27679
 30
0.0
 10
-10.72241
 20
-7.27679
 30
0.0
 10
-10.72241
 20
-6.65843
 30
0.0
 10
-10.72241
 20
-6.65843
 30
0.0
 10
-10.72241
 20
-6.65843
 30
0.0
 10
-10.72241
 20
-6.65843
 30
0.0
 10
-9.51587
 20
-7.27679
 30
0.0
 10
-9.51587
 20
-7.27679
 30
0.0
 10
-9.51587
 20
-7.27679
 30
0.0
 10
-9.51587
 20
-7.27679
 30
0.0
 10
-10.72241
 20
-7.27679
 30
0.0
 10
-10.72241
 20
-7.27679
 30
0.0
  0
SPLINE
  5
D4
330
1F
100
AcDbEntity
  8
Layer 1
 62
   242
370
     9
100
AcDbSpline
210
0.0
220
0.0
230
1.0
 70
    11
 71
     3
 72
    16
 73
    12
 74
     0
 42
0.0000000001
 43
0.0000000001
 12
1.0
 22
0.0
 32
0.0
 13
1.0
 23
0.0
 33
0.0
 40
0.0
 40
0.0
 40
0.0
 40
0.0
 40
0.25
 40
0.25
 40
0.25
 40
0.25
 40
0.5
 40
0.5
 40
0.5
 40
0.5
 40
1.0
 40
1.0
 40
1.0
 40
1.0
 10
-12.14763
 20
-7.27679
 30
0.0
 10
-12.14763
 20
-7.27679
 30
0.0
 10
-10.94109
 20
-7.27679
 30
0.0
 10
-10.94109
 20
-7.27679
 30
0.0
 10
-10.94109
 20
-7.27679
 30
0.0
 10
-10.94109
 20
-7.27679
 30
0.0
 10
-10.94109
 20
-6.65843
 30
0.0
 10
-10.94109
 20
-6.65843
 30
0.0
 10
-10.94109
 20
-6.65843
 30
0.0
 10
-10.94109
 20
-6.65843
 30
0.0
 10
-12.14763
 20
-7.27679
 30
0.0
 10
-12.14763
 20
-7.27679
 30
0.0
  0
SPLINE
  5
D5
330
1F
100
AcDbEntity
  8
Layer 1
 62
   242
370
     9
100
AcDbSpline
210
0.0
220
0.0
230
1.0
 70
    11
 71
     3
 72
    16
 73
    12
 74
     0
 42
0.0000000001
 43
0.0000000001
 12
1.0
 22
0.0
 32
0.0
 13
1.0
 23
0.0
 33
0.0
 40
0.0
 40
0.0
 40
0.0
 40
0.0
 40
0.25
 40
0.25
 40
0.25
 40
0.25
 40
0.5
 40
0.5
 40
0.5
 40
0.5
 40
1.0
 40
1.0
 40
1.0
 40
1.0
 10
-12.585
 20
-7.27679
 30
0.0
 10
-12.585
 20
-7.27679
 30
0.0
 10
-13.79154
 20
-7.27679
 30
0.0
 10
-13.79154
 20
-7.27679
 30
0.0
 10
-13.79154
 20
-7.27679
 30
0.0
 10
-13.79154
 20
-7.27679
 30
0.0
 10
-13.79154
 20
-6.65843
 30
0.0
 10
-13.79154
 20
-6.65843
 30
0.0
 10
-13.79154
 20
-6.65843
 30
0.0
 10
-13.79154
 20
-6.65843
 30
0.0
 10
-12.585
 20
-7.27679
 30
0.0
 10
-12.585
 20
-7.27679
 30
0.0
  0
SPLINE
  5
D6
330
1F
100
AcDbEntity
  8
Layer 1
 62
   242
370
     9
100
AcDbSpline
210
0.0
220
0.0
230
1.0
 70
    11
 71
     3
 72
    16
 73
    12
 74
     0
 42
0.0000000001
 43
0.0000000001
 12
1.0
 22
0.0
 32
0.0
 13
1.0
 23
0.0
 33
0.0
 40
0.0
 40
0.0
 40
0.0
 40
0.0
 40
0.25
 40
0.25
 40
0.25
 40
0.25
 40
0.5
 40
0.5
 40
0.5
 40
0.5
 40
1.0
 40
1.0
 40
1.0
 40
1.0
 10
-15.20923
 20
-7.27679
 30
0.0
 10
-15.20923
 20
-7.27679
 30
0.0
 10
-14.01023
 20
-7.27679
 30
0.0
 10
-14.01023
 20
-7.27679
 30
0.0
 10
-14.01023
 20
-7.27679
 30
0.0
 10
-14.01023
 20
-7.27679
 30
0.0
 10
-14.01023
 20
-6.65843
 30
0.0
 10
-14.01023
 20
-6.65843
 30
0.0
 10
-14.01023
 20
-6.65843
 30
0.0
 10
-14.01023
 20
-6.65843
 30
0.0
 10
-15.20923
 20
-7.27679
 30
0.0
 10
-15.20923
 20
-7.27679
 30
0.0
  0
SPLINE
  5
D7
330
1F
100
AcDbEntity
  8
Layer 1
 62
   242
370
     9
100
AcDbSpline
210
0.0
220
0.0
230
1.0
 70
    11
 71
     3
 72
    16
 73
    12
 74
     0
 42
0.0000000001
 43
0.0000000001
 12
1.0
 22
0.0
 32
0.0
 13
1.0
 23
0.0
 33
0.0
 40
0.0
 40
0.0
 40
0.0
 40
0.0
 40
0.25
 40
0.25
 40
0.25
 40
0.25
 40
0.5
 40
0.5
 40
0.5
 40
0.5
 40
1.0
 40
1.0
 40
1.0
 40
1.0
 10
-15.65414
 20
-7.27679
 30
0.0
 10
-15.65414
 20
-7.27679
 30
0.0
 10
-16.85314
 20
-7.27679
 30
0.0
 10
-16.85314
 20
-7.27679
 30
0.0
 10
-16.85314
 20
-7.27679
 30
0.0
 10
-16.85314
 20
-7.27679
 30
0.0
 10
-16.85314
 20
-6.65843
 30
0.0
 10
-16.85314
 20
-6.65843
 30
0.0
 10
-16.85314
 20
-6.65843
 30
0.0
 10
-16.85314
 20
-6.65843
 30
0.0
 10
-15.65414
 20
-7.27679
 30
0.0
 10
-15.65414
 20
-7.27679
 30
0.0
  0
SPLINE
  5
D8
330
1F
100
AcDbEntity
  8
Layer 1
 62
   242
370
     9
100
AcDbSpline
210
0.0
220
0.0
230
1.0
 70
    11
 71
     3
 72
    16
 73
    12
 74
     0
 42
0.0000000001
 43
0.0000000001
 12
1.0
 22
0.0
 32
0.0
 13
1.0
 23
0.0
 33
0.0
 40
0.0
 40
0.0
 40
0.0
 40
0.0
 40
0.25
 40
0.25
 40
0.25
 40
0.25
 40
0.5
 40
0.5
 40
0.5
 40
0.5
 40
1.0
 40
1.0
 40
1.0
 40
1.0
 10
-3.37759
 20
-7.27679
 30
0.0
 10
-3.37759
 20
-7.27679
 30
0.0
 10
-4.58413
 20
-7.27679
 30
0.0
 10
-4.58413
 20
-7.27679
 30
0.0
 10
-4.58413
 20
-7.27679
 30
0.0
 10
-4.58413
 20
-7.27679
 30
0.0
 10
-4.58413
 20
-6.65843
 30
0.0
 10
-4.58413
 20
-6.65843
 30
0.0
 10
-4.58413
 20
-6.65843
 30
0.0
 10
-4.58413
 20
-6.65843
 30
0.0
 10
-3.37759
 20
-7.27679
 30
0.0
 10
-3.37759
 20
-7.27679
 30
0.0
  0
SPLINE
  5
D9
330
1F
100
AcDbEntity
  8
Layer 1
 62
   242
370
     9
100
AcDbSpline
210
0.0
220
0.0
230
1.0
 70
    11
 71
     3
 72
    16
 73
    12
 74
     0
 42
0.0000000001
 43
0.0000000001
 12
1.0
 22
0.0
 32
0.0
 13
1.0
 23
0.0
 33
0.0
 40
0.0
 40
0.0
 40
0.0
 40
0.0
 40
0.25
 40
0.25
 40
0.25
 40
0.25
 40
0.5
 40
0.5
 40
0.5
 40
0.5
 40
1.0
 40
1.0
 40
1.0
 40
1.0
 10
-6.00936
 20
-7.27679
 30
0.0
 10
-6.00936
 20
-7.27679
 30
0.0
 10
-4.80282
 20
-7.27679
 30
0.0
 10
-4.80282
 20
-7.27679
 30
0.0
 10
-4.80282
 20
-7.27679
 30
0.0
 10
-4.80282
 20
-7.27679
 30
0.0
 10
-4.80282
 20
-6.65843
 30
0.0
 10
-4.80282
 20
-6.65843
 30
0.0
 10
-4.80282
 20
-6.65843
 30
0.0
 10
-4.80282
 20
-6.65843
 30
0.0
 10
-6.00936
 20
-7.27679
 30
0.0
 10
-6.00936
 20
-7.27679
 30
0.0
  0
SPLINE
  5
DA
330
1F
100
AcDbEntity
  8
Layer 1
 62
   242
370
     9
100
AcDbSpline
210
0.0
220
0.0
230
1.0
 70
    11
 71
     3
 72
    20
 73
    16
 74
     0
 42
0.0000000001
 43
0.0000000001
 12
1.0
 22
0.0
 32
0.0
 13
1.0
 23
0.0
 33
0.0
 40
0.0
 40
0.0
 40
0.0
 40
0.0
 40
0.2
 40
0.2
 40
0.2
 40
0.2
 40
0.4
 40
0.4
 40
0.4
 40
0.4
 40
0.6
 40
0.6
 40
0.6
 40
0.6
 40
1.0
 40
1.0
 40
1.0
 40
1.0
 10
-17.20756
 20
5.66336
 30
0.0
 10
-17.20756
 20
5.66336
 30
0.0
 10
-2.96284
 20
5.66336
 30
0.0
 10
-2.96284
 20
5.66336
 30
0.0
 10
-2.96284
 20
5.66336
 30
0.0
 10
-2.96284
 20
5.66336
 30
0.0
 10
-2.96284
 20
-7.60104
 30
0.0
 10
-2.96284
 20
-7.60104
 30
0.0
 10
-2.96284
 20
-7.60104
 30
0.0
 10
-2.96284
 20
-7.60104
 30
0.0
 10
-17.20756
 20
-7.60104
 30
0.0
 10
-17.20756
 20
-7.60104
 30
0.0
 10
-17.20756
 20
-7.60104
 30
0.0
 10
-17.20756
 20
-7.60104
 30
0.0
 10
-17.20756
 20
5.66336
 30
0.0
 10
-17.20756
 20
5.66336
 30
0.0
  0
SPLINE
  5
DB
330
1F
100
AcDbEntity
  8
Layer 1
 62
   177
100
AcDbSpline
210
0.0
220
0.0
230
1.0
 70
    11
 71
     3
 72
    16
 73
    12
 74
     0
 42
0.0000000001
 43
0.0000000001
 12
1.0
 22
0.0
 32
0.0
 13
1.0
 23
0.0
 33
0.0
 40
0.0
 40
0.0
 40
0.0
 40
0.0
 40
0.25
 40
0.25
 40
0.25
 40
0.25
 40
0.5
 40
0.5
 40
0.5
 40
0.5
 40
1.0
 40
1.0
 40
1.0
 40
1.0
 10
-0.36994
 20
-5.80745
 30
0.0
 10
-0.36994
 20
-5.80745
 30
0.0
 10
0.82906
 20
-6.4258
 30
0.0
 10
0.82906
 20
-6.4258
 30
0.0
 10
0.82906
 20
-6.4258
 30
0.0
 10
0.82906
 20
-6.4258
 30
0.0
 10
-0.36994
 20
-7.05169
 30
0.0
 10
-0.36994
 20
-7.05169
 30
0.0
 10
-0.36994
 20
-7.05169
 30
0.0
 10
-0.36994
 20
-7.05169
 30
0.0
 10
-0.36994
 20
-5.80745
 30
0.0
 10
-0.36994
 20
-5.80745
 30
0.0
  0
SPLINE
  5
DC
330
1F
100
AcDbEntity
  8
Layer 1
 62
   177
100
AcDbSpline
210
0.0
220
0.0
230
1.0
 70
    11
 71
     3
 72
    16
 73
    12
 74
     0
 42
0.0000000001
 43
0.0000000001
 12
1.0
 22
0.0
 32
0.0
 13
1.0
 23
0.0
 33
0.0
 40
0.0
 40
0.0
 40
0.0
 40
0.0
 40
0.25
 40
0.25
 40
0.25
 40
0.25
 40
0.5
 40
0.5
 40
0.5
 40
0.5
 40
1.0
 40
1.0
 40
1.0
 40
1.0
 10
-0.58863
 20
-5.80745
 30
0.0
 10
-0.58863
 20
-5.80745
 30
0.0
 10
-1.79517
 20
-6.4258
 30
0.0
 10
-1.79517
 20
-6.4258
 30
0.0
 10
-1.79517
 20
-6.4258
 30
0.0
 10
-1.79517
 20
-6.4258
 30
0.0
 10
-0.58863
 20
-7.05169
 30
0.0
 10
-0.58863
 20
-7.05169
 30
0.0
 10
-0.58863
 20
-7.05169
 30
0.0
 10
-0.58863
 20
-7.05169
 30
0.0
 10
-0.58863
 20
-5.80745
 30
0.0
 10
-0.58863
 20
-5.80745
 30
0.0
  0
SPLINE
  5
DD
330
1F
100
AcDbEntity
  8
Layer 1
 62
   177
100
AcDbSpline
210
0.0
220
0.0
230
1.0
 70
    11
 71
     3
 72
    16
 73
    12
 74
     0
 42
0.0000000001
 43
0.0000000001
 12
1.0
 22
0.0
 32
0.0
 13
1.0
 23
0.0
 33
0.0
 40
0.0
 40
0.0
 40
0.0
 40
0.0
 40
0.25
 40
0.25
 40
0.25
 40
0.25
 40
0.5
 40
0.5
 40
0.5
 40
0.5
 40
1.0
 40
1.0
 40
1.0
 40
1.0
 10
2.69918
 20
-5.80745
 30
0.0
 10
2.69918
 20
-5.80745
 30
0.0
 10
3.90571
 20
-6.4258
 30
0.0
 10
3.90571
 20
-6.4258
 30
0.0
 10
3.90571
 20
-6.4258
 30
0.0
 10
3.90571
 20
-6.4258
 30
0.0
 10
2.69918
 20
-7.05169
 30
0.0
 10
2.69918
 20
-7.05169
 30
0.0
 10
2.69918
 20
-7.05169
 30
0.0
 10
2.69918
 20
-7.05169
 30
0.0
 10
2.69918
 20
-5.80745
 30
0.0
 10
2.69918
 20
-5.80745
 30
0.0
  0
SPLINE
  5
DE
330
1F
100
AcDbEntity
  8
Layer 1
 62
   177
100
AcDbSpline
210
0.0
220
0.0
230
1.0
 70
    11
 71
     3
 72
    16
 73
    12
 74
     0
 42
0.0000000001
 43
0.0000000001
 12
1.0
 22
0.0
 32
0.0
 13
1.0
 23
0.0
 33
0.0
 40
0.0
 40
0.0
 40
0.0
 40
0.0
 40
0.25
 40
0.25
 40
0.25
 40
0.25
 40
0.5
 40
0.5
 40
0.5
 40
0.5
 40
1.0
 40
1.0
 40
1.0
 40
1.0
 10
2.4805
 20
-5.80745
 30
0.0
 10
2.4805
 20
-5.80745
 30
0.0
 10
1.27396
 20
-6.4258
 30
0.0
 10
1.27396
 20
-6.4258
 30
0.0
 10
1.27396
 20
-6.4258
 30
0.0
 10
1.27396
 20
-6.4258
 30
0.0
 10
2.4805
 20
-7.05169
 30
0.0
 10
2.4805
 20
-7.05169
 30
0.0
 10
2.4805
 20
-7.05169
 30
0.0
 10
2.4805
 20
-7.05169
 30
0.0
 10
2.4805
 20
-5.80745
 30
0.0
 10
2.4805
 20
-5.80745
 30
0.0
  0
SPLINE
  5
DF
330
1F
100
AcDbEntity
  8
Layer 1
 62
   177
100
AcDbSpline
210
0.0
220
0.0
230
1.0
 70
    11
 71
     3
 72
    16
 73
    12
 74
     0
 42
0.0000000001
 43
0.0000000001
 12
1.0
 22
0.0
 32
0.0
 13
1.0
 23
0.0
 33
0.0
 40
0.0
 40
0.0
 40
0.0
 40
0.0
 40
0.25
 40
0.25
 40
0.25
 40
0.25
 40
0.5
 40
0.5
 40
0.5
 40
0.5
 40
1.0
 40
1.0
 40
1.0
 40
1.0
 10
-0.70174
 20
-5.64156
 30
0.0
 10
-0.70174
 20
-5.64156
 30
0.0
 10
-1.90076
 20
-6.25989
 30
0.0
 10
-1.90076
 20
-6.25989
 30
0.0
 10
-1.90076
 20
-6.25989
 30
0.0
 10
-1.90076
 20
-6.25989
 30
0.0
 10
-1.90076
 20
-5.01566
 30
0.0
 10
-1.90076
 20
-5.01566
 30
0.0
 10
-1.90076
 20
-5.01566
 30
0.0
 10
-1.90076
 20
-5.01566
 30
0.0
 10
-0.70174
 20
-5.64156
 30
0.0
 10
-0.70174
 20
-5.64156
 30
0.0
  0
SPLINE
  5
E0
330
1F
100
AcDbEntity
  8
Layer 1
 62
   177
100
AcDbSpline
210
0.0
220
0.0
230
1.0
 70
    11
 71
     3
 72
    16
 73
    12
 74
     0
 42
0.0000000001
 43
0.0000000001
 12
1.0
 22
0.0
 32
0.0
 13
1.0
 23
0.0
 33
0.0
 40
0.0
 40
0.0
 40
0.0
 40
0.0
 40
0.25
 40
0.25
 40
0.25
 40
0.25
 40
0.5
 40
0.5
 40
0.5
 40
0.5
 40
1.0
 40
1.0
 40
1.0
 40
1.0
 10
-0.58863
 20
-5.46811
 30
0.0
 10
-0.58863
 20
-5.46811
 30
0.0
 10
-0.58863
 20
-4.23142
 30
0.0
 10
-0.58863
 20
-4.23142
 30
0.0
 10
-0.58863
 20
-4.23142
 30
0.0
 10
-0.58863
 20
-4.23142
 30
0.0
 10
-1.79517
 20
-4.84975
 30
0.0
 10
-1.79517
 20
-4.84975
 30
0.0
 10
-1.79517
 20
-4.84975
 30
0.0
 10
-1.79517
 20
-4.84975
 30
0.0
 10
-0.58863
 20
-5.46811
 30
0.0
 10
-0.58863
 20
-5.46811
 30
0.0
  0
SPLINE
  5
E1
330
1F
100
AcDbEntity
  8
Layer 1
 62
   177
100
AcDbSpline
210
0.0
220
0.0
230
1.0
 70
    11
 71
     3
 72
    16
 73
    12
 74
     0
 42
0.0000000001
 43
0.0000000001
 12
1.0
 22
0.0
 32
0.0
 13
1.0
 23
0.0
 33
0.0
 40
0.0
 40
0.0
 40
0.0
 40
0.0
 40
0.25
 40
0.25
 40
0.25
 40
0.25
 40
0.5
 40
0.5
 40
0.5
 40
0.5
 40
1.0
 40
1.0
 40
1.0
 40
1.0
 10
-1.90076
 20
-3.43961
 30
0.0
 10
-1.90076
 20
-3.43961
 30
0.0
 10
-0.70174
 20
-4.05797
 30
0.0
 10
-0.70174
 20
-4.05797
 30
0.0
 10
-0.70174
 20
-4.05797
 30
0.0
 10
-0.70174
 20
-4.05797
 30
0.0
 10
-1.90076
 20
-4.68386
 30
0.0
 10
-1.90076
 20
-4.68386
 30
0.0
 10
-1.90076
 20
-4.68386
 30
0.0
 10
-1.90076
 20
-4.68386
 30
0.0
 10
-1.90076
 20
-3.43961
 30
0.0
 10
-1.90076
 20
-3.43961
 30
0.0
  0
SPLINE
  5
E2
330
1F
100
AcDbEntity
  8
Layer 1
 62
   177
100
AcDbSpline
210
0.0
220
0.0
230
1.0
 70
    11
 71
     3
 72
    16
 73
    12
 74
     0
 42
0.0000000001
 43
0.0000000001
 12
1.0
 22
0.0
 32
0.0
 13
1.0
 23
0.0
 33
0.0
 40
0.0
 40
0.0
 40
0.0
 40
0.0
 40
0.25
 40
0.25
 40
0.25
 40
0.25
 40
0.5
 40
0.5
 40
0.5
 40
0.5
 40
1.0
 40
1.0
 40
1.0
 40
1.0
 10
2.36737
 20
-5.64156
 30
0.0
 10
2.36737
 20
-5.64156
 30
0.0
 10
1.16085
 20
-6.25989
 30
0.0
 10
1.16085
 20
-6.25989
 30
0.0
 10
1.16085
 20
-6.25989
 30
0.0
 10
1.16085
 20
-6.25989
 30
0.0
 10
1.16085
 20
-5.01566
 30
0.0
 10
1.16085
 20
-5.01566
 30
0.0
 10
1.16085
 20
-5.01566
 30
0.0
 10
1.16085
 20
-5.01566
 30
0.0
 10
2.36737
 20
-5.64156
 30
0.0
 10
2.36737
 20
-5.64156
 30
0.0
  0
SPLINE
  5
E3
330
1F
100
AcDbEntity
  8
Layer 1
 62
   177
100
AcDbSpline
210
0.0
220
0.0
230
1.0
 70
    11
 71
     3
 72
    16
 73
    12
 74
     0
 42
0.0000000001
 43
0.0000000001
 12
1.0
 22
0.0
 32
0.0
 13
1.0
 23
0.0
 33
0.0
 40
0.0
 40
0.0
 40
0.0
 40
0.0
 40
0.25
 40
0.25
 40
0.25
 40
0.25
 40
0.5
 40
0.5
 40
0.5
 40
0.5
 40
1.0
 40
1.0
 40
1.0
 40
1.0
 10
-0.25682
 20
-5.64156
 30
0.0
 10
-0.25682
 20
-5.64156
 30
0.0
 10
0.94217
 20
-6.25989
 30
0.0
 10
0.94217
 20
-6.25989
 30
0.0
 10
0.94217
 20
-6.25989
 30
0.0
 10
0.94217
 20
-6.25989
 30
0.0
 10
0.94217
 20
-5.01566
 30
0.0
 10
0.94217
 20
-5.01566
 30
0.0
 10
0.94217
 20
-5.01566
 30
0.0
 10
0.94217
 20
-5.01566
 30
0.0
 10
-0.25682
 20
-5.64156
 30
0.0
 10
-0.25682
 20
-5.64156
 30
0.0
  0
SPLINE
  5
E4
330
1F
100
AcDbEntity
  8
Layer 1
 62
   177
100
AcDbSpline
210
0.0
220
0.0
230
1.0
 70
    11
 71
     3
 72
    16
 73
    12
 74
     0
 42
0.0000000001
 43
0.0000000001
 12
1.0
 22
0.0
 32
0.0
 13
1.0
 23
0.0
 33
0.0
 40
0.0
 40
0.0
 40
0.0
 40
0.0
 40
0.25
 40
0.25
 40
0.25
 40
0.25
 40
0.5
 40
0.5
 40
0.5
 40
0.5
 40
1.0
 40
1.0
 40
1.0
 40
1.0
 10
2.4805
 20
-5.46811
 30
0.0
 10
2.4805
 20
-5.46811
 30
0.0
 10
2.4805
 20
-4.23142
 30
0.0
 10
2.4805
 20
-4.23142
 30
0.0
 10
2.4805
 20
-4.23142
 30
0.0
 10
2.4805
 20
-4.23142
 30
0.0
 10
1.27396
 20
-4.84975
 30
0.0
 10
1.27396
 20
-4.84975
 30
0.0
 10
1.27396
 20
-4.84975
 30
0.0
 10
1.27396
 20
-4.84975
 30
0.0
 10
2.4805
 20
-5.46811
 30
0.0
 10
2.4805
 20
-5.46811
 30
0.0
  0
SPLINE
  5
E5
330
1F
100
AcDbEntity
  8
Layer 1
 62
   177
100
AcDbSpline
210
0.0
220
0.0
230
1.0
 70
    11
 71
     3
 72
    16
 73
    12
 74
     0
 42
0.0000000001
 43
0.0000000001
 12
1.0
 22
0.0
 32
0.0
 13
1.0
 23
0.0
 33
0.0
 40
0.0
 40
0.0
 40
0.0
 40
0.0
 40
0.25
 40
0.25
 40
0.25
 40
0.25
 40
0.5
 40
0.5
 40
0.5
 40
0.5
 40
1.0
 40
1.0
 40
1.0
 40
1.0
 10
1.16085
 20
-3.43961
 30
0.0
 10
1.16085
 20
-3.43961
 30
0.0
 10
2.36737
 20
-4.05797
 30
0.0
 10
2.36737
 20
-4.05797
 30
0.0
 10
2.36737
 20
-4.05797
 30
0.0
 10
2.36737
 20
-4.05797
 30
0.0
 10
1.16085
 20
-4.68386
 30
0.0
 10
1.16085
 20
-4.68386
 30
0.0
 10
1.16085
 20
-4.68386
 30
0.0
 10
1.16085
 20
-4.68386
 30
0.0
 10
1.16085
 20
-3.43961
 30
0.0
 10
1.16085
 20
-3.43961
 30
0.0
  0
SPLINE
  5
E6
330
1F
100
AcDbEntity
  8
Layer 1
 62
   177
100
AcDbSpline
210
0.0
220
0.0
230
1.0
 70
    11
 71
     3
 72
    16
 73
    12
 74
     0
 42
0.0000000001
 43
0.0000000001
 12
1.0
 22
0.0
 32
0.0
 13
1.0
 23
0.0
 33
0.0
 40
0.0
 40
0.0
 40
0.0
 40
0.0
 40
0.25
 40
0.25
 40
0.25
 40
0.25
 40
0.5
 40
0.5
 40
0.5
 40
0.5
 40
1.0
 40
1.0
 40
1.0
 40
1.0
 10
0.94217
 20
-3.43961
 30
0.0
 10
0.94217
 20
-3.43961
 30
0.0
 10
-0.25682
 20
-4.05797
 30
0.0
 10
-0.25682
 20
-4.05797
 30
0.0
 10
-0.25682
 20
-4.05797
 30
0.0
 10
-0.25682
 20
-4.05797
 30
0.0
 10
0.94217
 20
-4.68386
 30
0.0
 10
0.94217
 20
-4.68386
 30
0.0
 10
0.94217
 20
-4.68386
 30
0.0
 10
0.94217
 20
-4.68386
 30
0.0
 10
0.94217
 20
-3.43961
 30
0.0
 10
0.94217
 20
-3.43961
 30
0.0
  0
SPLINE
  5
E7
330
1F
100
AcDbEntity
  8
Layer 1
 62
   177
100
AcDbSpline
210
0.0
220
0.0
230
1.0
 70
    11
 71
     3
 72
    16
 73
    12
 74
     0
 42
0.0000000001
 43
0.0000000001
 12
1.0
 22
0.0
 32
0.0
 13
1.0
 23
0.0
 33
0.0
 40
0.0
 40
0.0
 40
0.0
 40
0.0
 40
0.25
 40
0.25
 40
0.25
 40
0.25
 40
0.5
 40
0.5
 40
0.5
 40
0.5
 40
1.0
 40
1.0
 40
1.0
 40
1.0
 10
-0.36994
 20
-5.46811
 30
0.0
 10
-0.36994
 20
-5.46811
 30
0.0
 10
-0.36994
 20
-4.23142
 30
0.0
 10
-0.36994
 20
-4.23142
 30
0.0
 10
-0.36994
 20
-4.23142
 30
0.0
 10
-0.36994
 20
-4.23142
 30
0.0
 10
0.82906
 20
-4.84975
 30
0.0
 10
0.82906
 20
-4.84975
 30
0.0
 10
0.82906
 20
-4.84975
 30
0.0
 10
0.82906
 20
-4.84975
 30
0.0
 10
-0.36994
 20
-5.46811
 30
0.0
 10
-0.36994
 20
-5.46811
 30
0.0
  0
SPLINE
  5
E8
330
1F
100
AcDbEntity
  8
Layer 1
 62
   177
100
AcDbSpline
210
0.0
220
0.0
230
1.0
 70
    11
 71
     3
 72
    16
 73
    12
 74
     0
 42
0.0000000001
 43
0.0000000001
 12
1.0
 22
0.0
 32
0.0
 13
1.0
 23
0.0
 33
0.0
 40
0.0
 40
0.0
 40
0.0
 40
0.0
 40
0.25
 40
0.25
 40
0.25
 40
0.25
 40
0.5
 40
0.5
 40
0.5
 40
0.5
 40
1.0
 40
1.0
 40
1.0
 40
1.0
 10
5.43652
 20
-5.64156
 30
0.0
 10
5.43652
 20
-5.64156
 30
0.0
 10
4.22998
 20
-6.25989
 30
0.0
 10
4.22998
 20
-6.25989
 30
0.0
 10
4.22998
 20
-6.25989
 30
0.0
 10
4.22998
 20
-6.25989
 30
0.0
 10
4.22998
 20
-5.01566
 30
0.0
 10
4.22998
 20
-5.01566
 30
0.0
 10
4.22998
 20
-5.01566
 30
0.0
 10
4.22998
 20
-5.01566
 30
0.0
 10
5.43652
 20
-5.64156
 30
0.0
 10
5.43652
 20
-5.64156
 30
0.0
  0
SPLINE
  5
E9
330
1F
100
AcDbEntity
  8
Layer 1
 62
   177
100
AcDbSpline
210
0.0
220
0.0
230
1.0
 70
    11
 71
     3
 72
    16
 73
    12
 74
     0
 42
0.0000000001
 43
0.0000000001
 12
1.0
 22
0.0
 32
0.0
 13
1.0
 23
0.0
 33
0.0
 40
0.0
 40
0.0
 40
0.0
 40
0.0
 40
0.25
 40
0.25
 40
0.25
 40
0.25
 40
0.5
 40
0.5
 40
0.5
 40
0.5
 40
1.0
 40
1.0
 40
1.0
 40
1.0
 10
2.80475
 20
-5.64156
 30
0.0
 10
2.80475
 20
-5.64156
 30
0.0
 10
4.01129
 20
-6.25989
 30
0.0
 10
4.01129
 20
-6.25989
 30
0.0
 10
4.01129
 20
-6.25989
 30
0.0
 10
4.01129
 20
-6.25989
 30
0.0
 10
4.01129
 20
-5.01566
 30
0.0
 10
4.01129
 20
-5.01566
 30
0.0
 10
4.01129
 20
-5.01566
 30
0.0
 10
4.01129
 20
-5.01566
 30
0.0
 10
2.80475
 20
-5.64156
 30
0.0
 10
2.80475
 20
-5.64156
 30
0.0
  0
SPLINE
  5
EA
330
1F
100
AcDbEntity
  8
Layer 1
 62
   177
100
AcDbSpline
210
0.0
220
0.0
230
1.0
 70
    11
 71
     3
 72
    16
 73
    12
 74
     0
 42
0.0000000001
 43
0.0000000001
 12
1.0
 22
0.0
 32
0.0
 13
1.0
 23
0.0
 33
0.0
 40
0.0
 40
0.0
 40
0.0
 40
0.0
 40
0.25
 40
0.25
 40
0.25
 40
0.25
 40
0.5
 40
0.5
 40
0.5
 40
0.5
 40
1.0
 40
1.0
 40
1.0
 40
1.0
 10
5.54209
 20
-5.46811
 30
0.0
 10
5.54209
 20
-5.46811
 30
0.0
 10
5.54209
 20
-4.23142
 30
0.0
 10
5.54209
 20
-4.23142
 30
0.0
 10
5.54209
 20
-4.23142
 30
0.0
 10
5.54209
 20
-4.23142
 30
0.0
 10
4.3431
 20
-4.84975
 30
0.0
 10
4.3431
 20
-4.84975
 30
0.0
 10
4.3431
 20
-4.84975
 30
0.0
 10
4.3431
 20
-4.84975
 30
0.0
 10
5.54209
 20
-5.46811
 30
0.0
 10
5.54209
 20
-5.46811
 30
0.0
  0
SPLINE
  5
EB
330
1F
100
AcDbEntity
  8
Layer 1
 62
   177
100
AcDbSpline
210
0.0
220
0.0
230
1.0
 70
    11
 71
     3
 72
    16
 73
    12
 74
     0
 42
0.0000000001
 43
0.0000000001
 12
1.0
 22
0.0
 32
0.0
 13
1.0
 23
0.0
 33
0.0
 40
0.0
 40
0.0
 40
0.0
 40
0.0
 40
0.25
 40
0.25
 40
0.25
 40
0.25
 40
0.5
 40
0.5
 40
0.5
 40
0.5
 40
1.0
 40
1.0
 40
1.0
 40
1.0
 10
4.22998
 20
-3.43961
 30
0.0
 10
4.22998
 20
-3.43961
 30
0.0
 10
5.43652
 20
-4.05797
 30
0.0
 10
5.43652
 20
-4.05797
 30
0.0
 10
5.43652
 20
-4.05797
 30
0.0
 10
5.43652
 20
-4.05797
 30
0.0
 10
4.22998
 20
-4.68386
 30
0.0
 10
4.22998
 20
-4.68386
 30
0.0
 10
4.22998
 20
-4.68386
 30
0.0
 10
4.22998
 20
-4.68386
 30
0.0
 10
4.22998
 20
-3.43961
 30
0.0
 10
4.22998
 20
-3.43961
 30
0.0
  0
SPLINE
  5
EC
330
1F
100
AcDbEntity
  8
Layer 1
 62
   177
100
AcDbSpline
210
0.0
220
0.0
230
1.0
 70
    11
 71
     3
 72
    16
 73
    12
 74
     0
 42
0.0000000001
 43
0.0000000001
 12
1.0
 22
0.0
 32
0.0
 13
1.0
 23
0.0
 33
0.0
 40
0.0
 40
0.0
 40
0.0
 40
0.0
 40
0.25
 40
0.25
 40
0.25
 40
0.25
 40
0.5
 40
0.5
 40
0.5
 40
0.5
 40
1.0
 40
1.0
 40
1.0
 40
1.0
 10
4.01129
 20
-3.43961
 30
0.0
 10
4.01129
 20
-3.43961
 30
0.0
 10
2.80475
 20
-4.05797
 30
0.0
 10
2.80475
 20
-4.05797
 30
0.0
 10
2.80475
 20
-4.05797
 30
0.0
 10
2.80475
 20
-4.05797
 30
0.0
 10
4.01129
 20
-4.68386
 30
0.0
 10
4.01129
 20
-4.68386
 30
0.0
 10
4.01129
 20
-4.68386
 30
0.0
 10
4.01129
 20
-4.68386
 30
0.0
 10
4.01129
 20
-3.43961
 30
0.0
 10
4.01129
 20
-3.43961
 30
0.0
  0
SPLINE
  5
ED
330
1F
100
AcDbEntity
  8
Layer 1
 62
   177
100
AcDbSpline
210
0.0
220
0.0
230
1.0
 70
    11
 71
     3
 72
    16
 73
    12
 74
     0
 42
0.0000000001
 43
0.0000000001
 12
1.0
 22
0.0
 32
0.0
 13
1.0
 23
0.0
 33
0.0
 40
0.0
 40
0.0
 40
0.0
 40
0.0
 40
0.25
 40
0.25
 40
0.25
 40
0.25
 40
0.5
 40
0.5
 40
0.5
 40
0.5
 40
1.0
 40
1.0
 40
1.0
 40
1.0
 10
2.69918
 20
-5.46811
 30
0.0
 10
2.69918
 20
-5.46811
 30
0.0
 10
2.69918
 20
-4.23142
 30
0.0
 10
2.69918
 20
-4.23142
 30
0.0
 10
2.69918
 20
-4.23142
 30
0.0
 10
2.69918
 20
-4.23142
 30
0.0
 10
3.90571
 20
-4.84975
 30
0.0
 10
3.90571
 20
-4.84975
 30
0.0
 10
3.90571
 20
-4.84975
 30
0.0
 10
3.90571
 20
-4.84975
 30
0.0
 10
2.69918
 20
-5.46811
 30
0.0
 10
2.69918
 20
-5.46811
 30
0.0
  0
SPLINE
  5
EE
330
1F
100
AcDbEntity
  8
Layer 1
 62
   177
100
AcDbSpline
210
0.0
220
0.0
230
1.0
 70
    11
 71
     3
 72
    16
 73
    12
 74
     0
 42
0.0000000001
 43
0.0000000001
 12
1.0
 22
0.0
 32
0.0
 13
1.0
 23
0.0
 33
0.0
 40
0.0
 40
0.0
 40
0.0
 40
0.0
 40
0.25
 40
0.25
 40
0.25
 40
0.25
 40
0.5
 40
0.5
 40
0.5
 40
0.5
 40
1.0
 40
1.0
 40
1.0
 40
1.0
 10
0.82906
 20
-3.27372
 30
0.0
 10
0.82906
 20
-3.27372
 30
0.0
 10
-0.36994
 20
-3.89206
 30
0.0
 10
-0.36994
 20
-3.89206
 30
0.0
 10
-0.36994
 20
-3.89206
 30
0.0
 10
-0.36994
 20
-3.89206
 30
0.0
 10
-0.36994
 20
-2.65537
 30
0.0
 10
-0.36994
 20
-2.65537
 30
0.0
 10
-0.36994
 20
-2.65537
 30
0.0
 10
-0.36994
 20
-2.65537
 30
0.0
 10
0.82906
 20
-3.27372
 30
0.0
 10
0.82906
 20
-3.27372
 30
0.0
  0
SPLINE
  5
EF
330
1F
100
AcDbEntity
  8
Layer 1
 62
   177
100
AcDbSpline
210
0.0
220
0.0
230
1.0
 70
    11
 71
     3
 72
    16
 73
    12
 74
     0
 42
0.0000000001
 43
0.0000000001
 12
1.0
 22
0.0
 32
0.0
 13
1.0
 23
0.0
 33
0.0
 40
0.0
 40
0.0
 40
0.0
 40
0.0
 40
0.25
 40
0.25
 40
0.25
 40
0.25
 40
0.5
 40
0.5
 40
0.5
 40
0.5
 40
1.0
 40
1.0
 40
1.0
 40
1.0
 10
-1.79517
 20
-3.27372
 30
0.0
 10
-1.79517
 20
-3.27372
 30
0.0
 10
-0.58863
 20
-3.89206
 30
0.0
 10
-0.58863
 20
-3.89206
 30
0.0
 10
-0.58863
 20
-3.89206
 30
0.0
 10
-0.58863
 20
-3.89206
 30
0.0
 10
-0.58863
 20
-2.65537
 30
0.0
 10
-0.58863
 20
-2.65537
 30
0.0
 10
-0.58863
 20
-2.65537
 30
0.0
 10
-0.58863
 20
-2.65537
 30
0.0
 10
-1.79517
 20
-3.27372
 30
0.0
 10
-1.79517
 20
-3.27372
 30
0.0
  0
SPLINE
  5
F0
330
1F
100
AcDbEntity
  8
Layer 1
 62
   177
100
AcDbSpline
210
0.0
220
0.0
230
1.0
 70
    11
 71
     3
 72
    20
 73
    16
 74
     0
 42
0.0000000001
 43
0.0000000001
 12
1.0
 22
0.0
 32
0.0
 13
1.0
 23
0.0
 33
0.0
 40
0.0
 40
0.0
 40
0.0
 40
0.0
 40
0.2
 40
0.2
 40
0.2
 40
0.2
 40
0.4
 40
0.4
 40
0.4
 40
0.4
 40
0.6
 40
0.6
 40
0.6
 40
0.6
 40
1.0
 40
1.0
 40
1.0
 40
1.0
 10
0.94217
 20
-3.10027
 30
0.0
 10
0.94217
 20
-3.10027
 30
0.0
 10
0.94217
 20
-1.87112
 30
0.0
 10
0.94217
 20
-1.87112
 30
0.0
 10
0.94217
 20
-1.87112
 30
0.0
 10
0.94217
 20
-1.87112
 30
0.0
 10
-0.25682
 20
-2.48945
 30
0.0
 10
-0.25682
 20
-2.48945
 30
0.0
 10
-0.25682
 20
-2.48945
 30
0.0
 10
-0.25682
 20
-2.48945
 30
0.0
 10
0.94217
 20
-3.10027
 30
0.0
 10
0.94217
 20
-3.10027
 30
0.0
 10
0.94217
 20
-3.10027
 30
0.0
 10
0.94217
 20
-3.10027
 30
0.0
 10
0.94217
 20
-3.10027
 30
0.0
 10
0.94217
 20
-3.10027
 30
0.0
  0
SPLINE
  5
F1
330
1F
100
AcDbEntity
  8
Layer 1
 62
   177
100
AcDbSpline
210
0.0
220
0.0
230
1.0
 70
    11
 71
     3
 72
    16
 73
    12
 74
     0
 42
0.0000000001
 43
0.0000000001
 12
1.0
 22
0.0
 32
0.0
 13
1.0
 23
0.0
 33
0.0
 40
0.0
 40
0.0
 40
0.0
 40
0.0
 40
0.25
 40
0.25
 40
0.25
 40
0.25
 40
0.5
 40
0.5
 40
0.5
 40
0.5
 40
1.0
 40
1.0
 40
1.0
 40
1.0
 10
-0.36994
 20
-1.07932
 30
0.0
 10
-0.36994
 20
-1.07932
 30
0.0
 10
0.82906
 20
-1.69767
 30
0.0
 10
0.82906
 20
-1.69767
 30
0.0
 10
0.82906
 20
-1.69767
 30
0.0
 10
0.82906
 20
-1.69767
 30
0.0
 10
-0.36994
 20
-2.32357
 30
0.0
 10
-0.36994
 20
-2.32357
 30
0.0
 10
-0.36994
 20
-2.32357
 30
0.0
 10
-0.36994
 20
-2.32357
 30
0.0
 10
-0.36994
 20
-1.07932
 30
0.0
 10
-0.36994
 20
-1.07932
 30
0.0
  0
SPLINE
  5
F2
330
1F
100
AcDbEntity
  8
Layer 1
 62
   177
100
AcDbSpline
210
0.0
220
0.0
230
1.0
 70
    11
 71
     3
 72
    16
 73
    12
 74
     0
 42
0.0000000001
 43
0.0000000001
 12
1.0
 22
0.0
 32
0.0
 13
1.0
 23
0.0
 33
0.0
 40
0.0
 40
0.0
 40
0.0
 40
0.0
 40
0.25
 40
0.25
 40
0.25
 40
0.25
 40
0.5
 40
0.5
 40
0.5
 40
0.5
 40
1.0
 40
1.0
 40
1.0
 40
1.0
 10
-0.58863
 20
-1.07932
 30
0.0
 10
-0.58863
 20
-1.07932
 30
0.0
 10
-1.79517
 20
-1.69767
 30
0.0
 10
-1.79517
 20
-1.69767
 30
0.0
 10
-1.79517
 20
-1.69767
 30
0.0
 10
-1.79517
 20
-1.69767
 30
0.0
 10
-0.58863
 20
-2.32357
 30
0.0
 10
-0.58863
 20
-2.32357
 30
0.0
 10
-0.58863
 20
-2.32357
 30
0.0
 10
-0.58863
 20
-2.32357
 30
0.0
 10
-0.58863
 20
-1.07932
 30
0.0
 10
-0.58863
 20
-1.07932
 30
0.0
  0
SPLINE
  5
F3
330
1F
100
AcDbEntity
  8
Layer 1
 62
   177
100
AcDbSpline
210
0.0
220
0.0
230
1.0
 70
    11
 71
     3
 72
    16
 73
    12
 74
     0
 42
0.0000000001
 43
0.0000000001
 12
1.0
 22
0.0
 32
0.0
 13
1.0
 23
0.0
 33
0.0
 40
0.0
 40
0.0
 40
0.0
 40
0.0
 40
0.25
 40
0.25
 40
0.25
 40
0.25
 40
0.5
 40
0.5
 40
0.5
 40
0.5
 40
1.0
 40
1.0
 40
1.0
 40
1.0
 10
-1.90076
 20
-3.10027
 30
0.0
 10
-1.90076
 20
-3.10027
 30
0.0
 10
-1.90076
 20
-1.87112
 30
0.0
 10
-1.90076
 20
-1.87112
 30
0.0
 10
-1.90076
 20
-1.87112
 30
0.0
 10
-1.90076
 20
-1.87112
 30
0.0
 10
-0.70174
 20
-2.48945
 30
0.0
 10
-0.70174
 20
-2.48945
 30
0.0
 10
-0.70174
 20
-2.48945
 30
0.0
 10
-0.70174
 20
-2.48945
 30
0.0
 10
-1.90076
 20
-3.10027
 30
0.0
 10
-1.90076
 20
-3.10027
 30
0.0
  0
SPLINE
  5
F4
330
1F
100
AcDbEntity
  8
Layer 1
 62
   177
100
AcDbSpline
210
0.0
220
0.0
230
1.0
 70
    11
 71
     3
 72
    16
 73
    12
 74
     0
 42
0.0000000001
 43
0.0000000001
 12
1.0
 22
0.0
 32
0.0
 13
1.0
 23
0.0
 33
0.0
 40
0.0
 40
0.0
 40
0.0
 40
0.0
 40
0.25
 40
0.25
 40
0.25
 40
0.25
 40
0.5
 40
0.5
 40
0.5
 40
0.5
 40
1.0
 40
1.0
 40
1.0
 40
1.0
 10
3.90571
 20
-3.27372
 30
0.0
 10
3.90571
 20
-3.27372
 30
0.0
 10
2.69918
 20
-3.89206
 30
0.0
 10
2.69918
 20
-3.89206
 30
0.0
 10
2.69918
 20
-3.89206
 30
0.0
 10
2.69918
 20
-3.89206
 30
0.0
 10
2.69918
 20
-2.65537
 30
0.0
 10
2.69918
 20
-2.65537
 30
0.0
 10
2.69918
 20
-2.65537
 30
0.0
 10
2.69918
 20
-2.65537
 30
0.0
 10
3.90571
 20
-3.27372
 30
0.0
 10
3.90571
 20
-3.27372
 30
0.0
  0
SPLINE
  5
F5
330
1F
100
AcDbEntity
  8
Layer 1
 62
   177
100
AcDbSpline
210
0.0
220
0.0
230
1.0
 70
    11
 71
     3
 72
    16
 73
    12
 74
     0
 42
0.0000000001
 43
0.0000000001
 12
1.0
 22
0.0
 32
0.0
 13
1.0
 23
0.0
 33
0.0
 40
0.0
 40
0.0
 40
0.0
 40
0.0
 40
0.25
 40
0.25
 40
0.25
 40
0.25
 40
0.5
 40
0.5
 40
0.5
 40
0.5
 40
1.0
 40
1.0
 40
1.0
 40
1.0
 10
1.27396
 20
-3.27372
 30
0.0
 10
1.27396
 20
-3.27372
 30
0.0
 10
2.4805
 20
-3.89206
 30
0.0
 10
2.4805
 20
-3.89206
 30
0.0
 10
2.4805
 20
-3.89206
 30
0.0
 10
2.4805
 20
-3.89206
 30
0.0
 10
2.4805
 20
-2.65537
 30
0.0
 10
2.4805
 20
-2.65537
 30
0.0
 10
2.4805
 20
-2.65537
 30
0.0
 10
2.4805
 20
-2.65537
 30
0.0
 10
1.27396
 20
-3.27372
 30
0.0
 10
1.27396
 20
-3.27372
 30
0.0
  0
SPLINE
  5
F6
330
1F
100
AcDbEntity
  8
Layer 1
 62
   177
100
AcDbSpline
210
0.0
220
0.0
230
1.0
 70
    11
 71
     3
 72
    16
 73
    12
 74
     0
 42
0.0000000001
 43
0.0000000001
 12
1.0
 22
0.0
 32
0.0
 13
1.0
 23
0.0
 33
0.0
 40
0.0
 40
0.0
 40
0.0
 40
0.0
 40
0.25
 40
0.25
 40
0.25
 40
0.25
 40
0.5
 40
0.5
 40
0.5
 40
0.5
 40
1.0
 40
1.0
 40
1.0
 40
1.0
 10
4.01129
 20
-3.10027
 30
0.0
 10
4.01129
 20
-3.10027
 30
0.0
 10
4.01129
 20
-1.87112
 30
0.0
 10
4.01129
 20
-1.87112
 30
0.0
 10
4.01129
 20
-1.87112
 30
0.0
 10
4.01129
 20
-1.87112
 30
0.0
 10
2.80475
 20
-2.48945
 30
0.0
 10
2.80475
 20
-2.48945
 30
0.0
 10
2.80475
 20
-2.48945
 30
0.0
 10
2.80475
 20
-2.48945
 30
0.0
 10
4.01129
 20
-3.10027
 30
0.0
 10
4.01129
 20
-3.10027
 30
0.0
  0
SPLINE
  5
F7
330
1F
100
AcDbEntity
  8
Layer 1
 62
   177
100
AcDbSpline
210
0.0
220
0.0
230
1.0
 70
    11
 71
     3
 72
    16
 73
    12
 74
     0
 42
0.0000000001
 43
0.0000000001
 12
1.0
 22
0.0
 32
0.0
 13
1.0
 23
0.0
 33
0.0
 40
0.0
 40
0.0
 40
0.0
 40
0.0
 40
0.25
 40
0.25
 40
0.25
 40
0.25
 40
0.5
 40
0.5
 40
0.5
 40
0.5
 40
1.0
 40
1.0
 40
1.0
 40
1.0
 10
2.69918
 20
-1.07932
 30
0.0
 10
2.69918
 20
-1.07932
 30
0.0
 10
3.90571
 20
-1.69767
 30
0.0
 10
3.90571
 20
-1.69767
 30
0.0
 10
3.90571
 20
-1.69767
 30
0.0
 10
3.90571
 20
-1.69767
 30
0.0
 10
2.69918
 20
-2.32357
 30
0.0
 10
2.69918
 20
-2.32357
 30
0.0
 10
2.69918
 20
-2.32357
 30
0.0
 10
2.69918
 20
-2.32357
 30
0.0
 10
2.69918
 20
-1.07932
 30
0.0
 10
2.69918
 20
-1.07932
 30
0.0
  0
SPLINE
  5
F8
330
1F
100
AcDbEntity
  8
Layer 1
 62
   177
100
AcDbSpline
210
0.0
220
0.0
230
1.0
 70
    11
 71
     3
 72
    16
 73
    12
 74
     0
 42
0.0000000001
 43
0.0000000001
 12
1.0
 22
0.0
 32
0.0
 13
1.0
 23
0.0
 33
0.0
 40
0.0
 40
0.0
 40
0.0
 40
0.0
 40
0.25
 40
0.25
 40
0.25
 40
0.25
 40
0.5
 40
0.5
 40
0.5
 40
0.5
 40
1.0
 40
1.0
 40
1.0
 40
1.0
 10
2.4805
 20
-1.07932
 30
0.0
 10
2.4805
 20
-1.07932
 30
0.0
 10
1.27396
 20
-1.69767
 30
0.0
 10
1.27396
 20
-1.69767
 30
0.0
 10
1.27396
 20
-1.69767
 30
0.0
 10
1.27396
 20
-1.69767
 30
0.0
 10
2.4805
 20
-2.32357
 30
0.0
 10
2.4805
 20
-2.32357
 30
0.0
 10
2.4805
 20
-2.32357
 30
0.0
 10
2.4805
 20
-2.32357
 30
0.0
 10
2.4805
 20
-1.07932
 30
0.0
 10
2.4805
 20
-1.07932
 30
0.0
  0
SPLINE
  5
F9
330
1F
100
AcDbEntity
  8
Layer 1
 62
   177
100
AcDbSpline
210
0.0
220
0.0
230
1.0
 70
    11
 71
     3
 72
    16
 73
    12
 74
     0
 42
0.0000000001
 43
0.0000000001
 12
1.0
 22
0.0
 32
0.0
 13
1.0
 23
0.0
 33
0.0
 40
0.0
 40
0.0
 40
0.0
 40
0.0
 40
0.25
 40
0.25
 40
0.25
 40
0.25
 40
0.5
 40
0.5
 40
0.5
 40
0.5
 40
1.0
 40
1.0
 40
1.0
 40
1.0
 10
1.16085
 20
-3.10027
 30
0.0
 10
1.16085
 20
-3.10027
 30
0.0
 10
1.16085
 20
-1.87112
 30
0.0
 10
1.16085
 20
-1.87112
 30
0.0
 10
1.16085
 20
-1.87112
 30
0.0
 10
1.16085
 20
-1.87112
 30
0.0
 10
2.36737
 20
-2.48945
 30
0.0
 10
2.36737
 20
-2.48945
 30
0.0
 10
2.36737
 20
-2.48945
 30
0.0
 10
2.36737
 20
-2.48945
 30
0.0
 10
1.16085
 20
-3.10027
 30
0.0
 10
1.16085
 20
-3.10027
 30
0.0
  0
SPLINE
  5
FA
330
1F
100
AcDbEntity
  8
Layer 1
 62
   177
100
AcDbSpline
210
0.0
220
0.0
230
1.0
 70
    11
 71
     3
 72
    16
 73
    12
 74
     0
 42
0.0000000001
 43
0.0000000001
 12
1.0
 22
0.0
 32
0.0
 13
1.0
 23
0.0
 33
0.0
 40
0.0
 40
0.0
 40
0.0
 40
0.0
 40
0.25
 40
0.25
 40
0.25
 40
0.25
 40
0.5
 40
0.5
 40
0.5
 40
0.5
 40
1.0
 40
1.0
 40
1.0
 40
1.0
 10
6.96732
 20
-3.27372
 30
0.0
 10
6.96732
 20
-3.27372
 30
0.0
 10
5.76831
 20
-3.89206
 30
0.0
 10
5.76831
 20
-3.89206
 30
0.0
 10
5.76831
 20
-3.89206
 30
0.0
 10
5.76831
 20
-3.89206
 30
0.0
 10
5.76831
 20
-2.65537
 30
0.0
 10
5.76831
 20
-2.65537
 30
0.0
 10
5.76831
 20
-2.65537
 30
0.0
 10
5.76831
 20
-2.65537
 30
0.0
 10
6.96732
 20
-3.27372
 30
0.0
 10
6.96732
 20
-3.27372
 30
0.0
  0
SPLINE
  5
FB
330
1F
100
AcDbEntity
  8
Layer 1
 62
   177
100
AcDbSpline
210
0.0
220
0.0
230
1.0
 70
    11
 71
     3
 72
    16
 73
    12
 74
     0
 42
0.0000000001
 43
0.0000000001
 12
1.0
 22
0.0
 32
0.0
 13
1.0
 23
0.0
 33
0.0
 40
0.0
 40
0.0
 40
0.0
 40
0.0
 40
0.25
 40
0.25
 40
0.25
 40
0.25
 40
0.5
 40
0.5
 40
0.5
 40
0.5
 40
1.0
 40
1.0
 40
1.0
 40
1.0
 10
4.3431
 20
-3.27372
 30
0.0
 10
4.3431
 20
-3.27372
 30
0.0
 10
5.54209
 20
-3.89206
 30
0.0
 10
5.54209
 20
-3.89206
 30
0.0
 10
5.54209
 20
-3.89206
 30
0.0
 10
5.54209
 20
-3.89206
 30
0.0
 10
5.54209
 20
-2.65537
 30
0.0
 10
5.54209
 20
-2.65537
 30
0.0
 10
5.54209
 20
-2.65537
 30
0.0
 10
5.54209
 20
-2.65537
 30
0.0
 10
4.3431
 20
-3.27372
 30
0.0
 10
4.3431
 20
-3.27372
 30
0.0
  0
SPLINE
  5
FC
330
1F
100
AcDbEntity
  8
Layer 1
 62
   177
100
AcDbSpline
210
0.0
220
0.0
230
1.0
 70
    11
 71
     3
 72
    16
 73
    12
 74
     0
 42
0.0000000001
 43
0.0000000001
 12
1.0
 22
0.0
 32
0.0
 13
1.0
 23
0.0
 33
0.0
 40
0.0
 40
0.0
 40
0.0
 40
0.0
 40
0.25
 40
0.25
 40
0.25
 40
0.25
 40
0.5
 40
0.5
 40
0.5
 40
0.5
 40
1.0
 40
1.0
 40
1.0
 40
1.0
 10
7.08043
 20
-3.10027
 30
0.0
 10
7.08043
 20
-3.10027
 30
0.0
 10
7.08043
 20
-1.87112
 30
0.0
 10
7.08043
 20
-1.87112
 30
0.0
 10
7.08043
 20
-1.87112
 30
0.0
 10
7.08043
 20
-1.87112
 30
0.0
 10
5.87389
 20
-2.48945
 30
0.0
 10
5.87389
 20
-2.48945
 30
0.0
 10
5.87389
 20
-2.48945
 30
0.0
 10
5.87389
 20
-2.48945
 30
0.0
 10
7.08043
 20
-3.10027
 30
0.0
 10
7.08043
 20
-3.10027
 30
0.0
  0
SPLINE
  5
FD
330
1F
100
AcDbEntity
  8
Layer 1
 62
   177
100
AcDbSpline
210
0.0
220
0.0
230
1.0
 70
    11
 71
     3
 72
    16
 73
    12
 74
     0
 42
0.0000000001
 43
0.0000000001
 12
1.0
 22
0.0
 32
0.0
 13
1.0
 23
0.0
 33
0.0
 40
0.0
 40
0.0
 40
0.0
 40
0.0
 40
0.25
 40
0.25
 40
0.25
 40
0.25
 40
0.5
 40
0.5
 40
0.5
 40
0.5
 40
1.0
 40
1.0
 40
1.0
 40
1.0
 10
5.76831
 20
-1.07932
 30
0.0
 10
5.76831
 20
-1.07932
 30
0.0
 10
6.96732
 20
-1.69767
 30
0.0
 10
6.96732
 20
-1.69767
 30
0.0
 10
6.96732
 20
-1.69767
 30
0.0
 10
6.96732
 20
-1.69767
 30
0.0
 10
5.76831
 20
-2.32357
 30
0.0
 10
5.76831
 20
-2.32357
 30
0.0
 10
5.76831
 20
-2.32357
 30
0.0
 10
5.76831
 20
-2.32357
 30
0.0
 10
5.76831
 20
-1.07932
 30
0.0
 10
5.76831
 20
-1.07932
 30
0.0
  0
SPLINE
  5
FE
330
1F
100
AcDbEntity
  8
Layer 1
 62
   177
100
AcDbSpline
210
0.0
220
0.0
230
1.0
 70
    11
 71
     3
 72
    16
 73
    12
 74
     0
 42
0.0000000001
 43
0.0000000001
 12
1.0
 22
0.0
 32
0.0
 13
1.0
 23
0.0
 33
0.0
 40
0.0
 40
0.0
 40
0.0
 40
0.0
 40
0.25
 40
0.25
 40
0.25
 40
0.25
 40
0.5
 40
0.5
 40
0.5
 40
0.5
 40
1.0
 40
1.0
 40
1.0
 40
1.0
 10
5.54209
 20
-1.07932
 30
0.0
 10
5.54209
 20
-1.07932
 30
0.0
 10
4.3431
 20
-1.69767
 30
0.0
 10
4.3431
 20
-1.69767
 30
0.0
 10
4.3431
 20
-1.69767
 30
0.0
 10
4.3431
 20
-1.69767
 30
0.0
 10
5.54209
 20
-2.32357
 30
0.0
 10
5.54209
 20
-2.32357
 30
0.0
 10
5.54209
 20
-2.32357
 30
0.0
 10
5.54209
 20
-2.32357
 30
0.0
 10
5.54209
 20
-1.07932
 30
0.0
 10
5.54209
 20
-1.07932
 30
0.0
  0
SPLINE
  5
FF
330
1F
100
AcDbEntity
  8
Layer 1
 62
   177
100
AcDbSpline
210
0.0
220
0.0
230
1.0
 70
    11
 71
     3
 72
    16
 73
    12
 74
     0
 42
0.0000000001
 43
0.0000000001
 12
1.0
 22
0.0
 32
0.0
 13
1.0
 23
0.0
 33
0.0
 40
0.0
 40
0.0
 40
0.0
 40
0.0
 40
0.25
 40
0.25
 40
0.25
 40
0.25
 40
0.5
 40
0.5
 40
0.5
 40
0.5
 40
1.0
 40
1.0
 40
1.0
 40
1.0
 10
4.22998
 20
-3.10027
 30
0.0
 10
4.22998
 20
-3.10027
 30
0.0
 10
4.22998
 20
-1.87112
 30
0.0
 10
4.22998
 20
-1.87112
 30
0.0
 10
4.22998
 20
-1.87112
 30
0.0
 10
4.22998
 20
-1.87112
 30
0.0
 10
5.43652
 20
-2.48945
 30
0.0
 10
5.43652
 20
-2.48945
 30
0.0
 10
5.43652
 20
-2.48945
 30
0.0
 10
5.43652
 20
-2.48945
 30
0.0
 10
4.22998
 20
-3.10027
 30
0.0
 10
4.22998
 20
-3.10027
 30
0.0
  0
SPLINE
  5
100
330
1F
100
AcDbEntity
  8
Layer 1
 62
   177
100
AcDbSpline
210
0.0
220
0.0
230
1.0
 70
    11
 71
     3
 72
    16
 73
    12
 74
     0
 42
0.0000000001
 43
0.0000000001
 12
1.0
 22
0.0
 32
0.0
 13
1.0
 23
0.0
 33
0.0
 40
0.0
 40
0.0
 40
0.0
 40
0.0
 40
0.25
 40
0.25
 40
0.25
 40
0.25
 40
0.5
 40
0.5
 40
0.5
 40
0.5
 40
1.0
 40
1.0
 40
1.0
 40
1.0
 10
-0.70174
 20
-0.91343
 30
0.0
 10
-0.70174
 20
-0.91343
 30
0.0
 10
-1.90076
 20
-1.53175
 30
0.0
 10
-1.90076
 20
-1.53175
 30
0.0
 10
-1.90076
 20
-1.53175
 30
0.0
 10
-1.90076
 20
-1.53175
 30
0.0
 10
-1.90076
 20
-0.28753
 30
0.0
 10
-1.90076
 20
-0.28753
 30
0.0
 10
-1.90076
 20
-0.28753
 30
0.0
 10
-1.90076
 20
-0.28753
 30
0.0
 10
-0.70174
 20
-0.91343
 30
0.0
 10
-0.70174
 20
-0.91343
 30
0.0
  0
SPLINE
  5
101
330
1F
100
AcDbEntity
  8
Layer 1
 62
   177
100
AcDbSpline
210
0.0
220
0.0
230
1.0
 70
    11
 71
     3
 72
    16
 73
    12
 74
     0
 42
0.0000000001
 43
0.0000000001
 12
1.0
 22
0.0
 32
0.0
 13
1.0
 23
0.0
 33
0.0
 40
0.0
 40
0.0
 40
0.0
 40
0.0
 40
0.25
 40
0.25
 40
0.25
 40
0.25
 40
0.5
 40
0.5
 40
0.5
 40
0.5
 40
1.0
 40
1.0
 40
1.0
 40
1.0
 10
-0.58863
 20
-0.73997
 30
0.0
 10
-0.58863
 20
-0.73997
 30
0.0
 10
-0.58863
 20
0.49673
 30
0.0
 10
-0.58863
 20
0.49673
 30
0.0
 10
-0.58863
 20
0.49673
 30
0.0
 10
-0.58863
 20
0.49673
 30
0.0
 10
-1.79517
 20
-0.12163
 30
0.0
 10
-1.79517
 20
-0.12163
 30
0.0
 10
-1.79517
 20
-0.12163
 30
0.0
 10
-1.79517
 20
-0.12163
 30
0.0
 10
-0.58863
 20
-0.73997
 30
0.0
 10
-0.58863
 20
-0.73997
 30
0.0
  0
SPLINE
  5
102
330
1F
100
AcDbEntity
  8
Layer 1
 62
   177
100
AcDbSpline
210
0.0
220
0.0
230
1.0
 70
    11
 71
     3
 72
    16
 73
    12
 74
     0
 42
0.0000000001
 43
0.0000000001
 12
1.0
 22
0.0
 32
0.0
 13
1.0
 23
0.0
 33
0.0
 40
0.0
 40
0.0
 40
0.0
 40
0.0
 40
0.25
 40
0.25
 40
0.25
 40
0.25
 40
0.5
 40
0.5
 40
0.5
 40
0.5
 40
1.0
 40
1.0
 40
1.0
 40
1.0
 10
-1.90076
 20
1.28851
 30
0.0
 10
-1.90076
 20
1.28851
 30
0.0
 10
-0.70174
 20
0.67015
 30
0.0
 10
-0.70174
 20
0.67015
 30
0.0
 10
-0.70174
 20
0.67015
 30
0.0
 10
-0.70174
 20
0.67015
 30
0.0
 10
-1.90076
 20
0.04427
 30
0.0
 10
-1.90076
 20
0.04427
 30
0.0
 10
-1.90076
 20
0.04427
 30
0.0
 10
-1.90076
 20
0.04427
 30
0.0
 10
-1.90076
 20
1.28851
 30
0.0
 10
-1.90076
 20
1.28851
 30
0.0
  0
SPLINE
  5
103
330
1F
100
AcDbEntity
  8
Layer 1
 62
   177
100
AcDbSpline
210
0.0
220
0.0
230
1.0
 70
    11
 71
     3
 72
    16
 73
    12
 74
     0
 42
0.0000000001
 43
0.0000000001
 12
1.0
 22
0.0
 32
0.0
 13
1.0
 23
0.0
 33
0.0
 40
0.0
 40
0.0
 40
0.0
 40
0.0
 40
0.25
 40
0.25
 40
0.25
 40
0.25
 40
0.5
 40
0.5
 40
0.5
 40
0.5
 40
1.0
 40
1.0
 40
1.0
 40
1.0
 10
2.36737
 20
-0.91343
 30
0.0
 10
2.36737
 20
-0.91343
 30
0.0
 10
1.16085
 20
-1.53175
 30
0.0
 10
1.16085
 20
-1.53175
 30
0.0
 10
1.16085
 20
-1.53175
 30
0.0
 10
1.16085
 20
-1.53175
 30
0.0
 10
1.16085
 20
-0.28753
 30
0.0
 10
1.16085
 20
-0.28753
 30
0.0
 10
1.16085
 20
-0.28753
 30
0.0
 10
1.16085
 20
-0.28753
 30
0.0
 10
2.36737
 20
-0.91343
 30
0.0
 10
2.36737
 20
-0.91343
 30
0.0
  0
SPLINE
  5
104
330
1F
100
AcDbEntity
  8
Layer 1
 62
   177
100
AcDbSpline
210
0.0
220
0.0
230
1.0
 70
    11
 71
     3
 72
    16
 73
    12
 74
     0
 42
0.0000000001
 43
0.0000000001
 12
1.0
 22
0.0
 32
0.0
 13
1.0
 23
0.0
 33
0.0
 40
0.0
 40
0.0
 40
0.0
 40
0.0
 40
0.25
 40
0.25
 40
0.25
 40
0.25
 40
0.5
 40
0.5
 40
0.5
 40
0.5
 40
1.0
 40
1.0
 40
1.0
 40
1.0
 10
-0.25682
 20
-0.91343
 30
0.0
 10
-0.25682
 20
-0.91343
 30
0.0
 10
0.94217
 20
-1.53175
 30
0.0
 10
0.94217
 20
-1.53175
 30
0.0
 10
0.94217
 20
-1.53175
 30
0.0
 10
0.94217
 20
-1.53175
 30
0.0
 10
0.94217
 20
-0.28753
 30
0.0
 10
0.94217
 20
-0.28753
 30
0.0
 10
0.94217
 20
-0.28753
 30
0.0
 10
0.94217
 20
-0.28753
 30
0.0
 10
-0.25682
 20
-0.91343
 30
0.0
 10
-0.25682
 20
-0.91343
 30
0.0
  0
SPLINE
  5
105
330
1F
100
AcDbEntity
  8
Layer 1
 62
   177
100
AcDbSpline
210
0.0
220
0.0
230
1.0
 70
    11
 71
     3
 72
    16
 73
    12
 74
     0
 42
0.0000000001
 43
0.0000000001
 12
1.0
 22
0.0
 32
0.0
 13
1.0
 23
0.0
 33
0.0
 40
0.0
 40
0.0
 40
0.0
 40
0.0
 40
0.25
 40
0.25
 40
0.25
 40
0.25
 40
0.5
 40
0.5
 40
0.5
 40
0.5
 40
1.0
 40
1.0
 40
1.0
 40
1.0
 10
2.4805
 20
-0.73997
 30
0.0
 10
2.4805
 20
-0.73997
 30
0.0
 10
2.4805
 20
0.49673
 30
0.0
 10
2.4805
 20
0.49673
 30
0.0
 10
2.4805
 20
0.49673
 30
0.0
 10
2.4805
 20
0.49673
 30
0.0
 10
1.27396
 20
-0.12163
 30
0.0
 10
1.27396
 20
-0.12163
 30
0.0
 10
1.27396
 20
-0.12163
 30
0.0
 10
1.27396
 20
-0.12163
 30
0.0
 10
2.4805
 20
-0.73997
 30
0.0
 10
2.4805
 20
-0.73997
 30
0.0
  0
SPLINE
  5
106
330
1F
100
AcDbEntity
  8
Layer 1
 62
   177
100
AcDbSpline
210
0.0
220
0.0
230
1.0
 70
    11
 71
     3
 72
    16
 73
    12
 74
     0
 42
0.0000000001
 43
0.0000000001
 12
1.0
 22
0.0
 32
0.0
 13
1.0
 23
0.0
 33
0.0
 40
0.0
 40
0.0
 40
0.0
 40
0.0
 40
0.25
 40
0.25
 40
0.25
 40
0.25
 40
0.5
 40
0.5
 40
0.5
 40
0.5
 40
1.0
 40
1.0
 40
1.0
 40
1.0
 10
1.16085
 20
1.28851
 30
0.0
 10
1.16085
 20
1.28851
 30
0.0
 10
2.36737
 20
0.67015
 30
0.0
 10
2.36737
 20
0.67015
 30
0.0
 10
2.36737
 20
0.67015
 30
0.0
 10
2.36737
 20
0.67015
 30
0.0
 10
1.16085
 20
0.04427
 30
0.0
 10
1.16085
 20
0.04427
 30
0.0
 10
1.16085
 20
0.04427
 30
0.0
 10
1.16085
 20
0.04427
 30
0.0
 10
1.16085
 20
1.28851
 30
0.0
 10
1.16085
 20
1.28851
 30
0.0
  0
SPLINE
  5
107
330
1F
100
AcDbEntity
  8
Layer 1
 62
   177
100
AcDbSpline
210
0.0
220
0.0
230
1.0
 70
    11
 71
     3
 72
    16
 73
    12
 74
     0
 42
0.0000000001
 43
0.0000000001
 12
1.0
 22
0.0
 32
0.0
 13
1.0
 23
0.0
 33
0.0
 40
0.0
 40
0.0
 40
0.0
 40
0.0
 40
0.25
 40
0.25
 40
0.25
 40
0.25
 40
0.5
 40
0.5
 40
0.5
 40
0.5
 40
1.0
 40
1.0
 40
1.0
 40
1.0
 10
0.94217
 20
1.28851
 30
0.0
 10
0.94217
 20
1.28851
 30
0.0
 10
-0.25682
 20
0.67015
 30
0.0
 10
-0.25682
 20
0.67015
 30
0.0
 10
-0.25682
 20
0.67015
 30
0.0
 10
-0.25682
 20
0.67015
 30
0.0
 10
0.94217
 20
0.04427
 30
0.0
 10
0.94217
 20
0.04427
 30
0.0
 10
0.94217
 20
0.04427
 30
0.0
 10
0.94217
 20
0.04427
 30
0.0
 10
0.94217
 20
1.28851
 30
0.0
 10
0.94217
 20
1.28851
 30
0.0
  0
SPLINE
  5
108
330
1F
100
AcDbEntity
  8
Layer 1
 62
   177
100
AcDbSpline
210
0.0
220
0.0
230
1.0
 70
    11
 71
     3
 72
    16
 73
    12
 74
     0
 42
0.0000000001
 43
0.0000000001
 12
1.0
 22
0.0
 32
0.0
 13
1.0
 23
0.0
 33
0.0
 40
0.0
 40
0.0
 40
0.0
 40
0.0
 40
0.25
 40
0.25
 40
0.25
 40
0.25
 40
0.5
 40
0.5
 40
0.5
 40
0.5
 40
1.0
 40
1.0
 40
1.0
 40
1.0
 10
-0.36994
 20
-0.73997
 30
0.0
 10
-0.36994
 20
-0.73997
 30
0.0
 10
-0.36994
 20
0.49673
 30
0.0
 10
-0.36994
 20
0.49673
 30
0.0
 10
-0.36994
 20
0.49673
 30
0.0
 10
-0.36994
 20
0.49673
 30
0.0
 10
0.82906
 20
-0.12163
 30
0.0
 10
0.82906
 20
-0.12163
 30
0.0
 10
0.82906
 20
-0.12163
 30
0.0
 10
0.82906
 20
-0.12163
 30
0.0
 10
-0.36994
 20
-0.73997
 30
0.0
 10
-0.36994
 20
-0.73997
 30
0.0
  0
SPLINE
  5
109
330
1F
100
AcDbEntity
  8
Layer 1
 62
   177
100
AcDbSpline
210
0.0
220
0.0
230
1.0
 70
    11
 71
     3
 72
    16
 73
    12
 74
     0
 42
0.0000000001
 43
0.0000000001
 12
1.0
 22
0.0
 32
0.0
 13
1.0
 23
0.0
 33
0.0
 40
0.0
 40
0.0
 40
0.0
 40
0.0
 40
0.25
 40
0.25
 40
0.25
 40
0.25
 40
0.5
 40
0.5
 40
0.5
 40
0.5
 40
1.0
 40
1.0
 40
1.0
 40
1.0
 10
5.43652
 20
-0.91343
 30
0.0
 10
5.43652
 20
-0.91343
 30
0.0
 10
4.22998
 20
-1.53175
 30
0.0
 10
4.22998
 20
-1.53175
 30
0.0
 10
4.22998
 20
-1.53175
 30
0.0
 10
4.22998
 20
-1.53175
 30
0.0
 10
4.22998
 20
-0.28753
 30
0.0
 10
4.22998
 20
-0.28753
 30
0.0
 10
4.22998
 20
-0.28753
 30
0.0
 10
4.22998
 20
-0.28753
 30
0.0
 10
5.43652
 20
-0.91343
 30
0.0
 10
5.43652
 20
-0.91343
 30
0.0
  0
SPLINE
  5
10A
330
1F
100
AcDbEntity
  8
Layer 1
 62
   177
100
AcDbSpline
210
0.0
220
0.0
230
1.0
 70
    11
 71
     3
 72
    16
 73
    12
 74
     0
 42
0.0000000001
 43
0.0000000001
 12
1.0
 22
0.0
 32
0.0
 13
1.0
 23
0.0
 33
0.0
 40
0.0
 40
0.0
 40
0.0
 40
0.0
 40
0.25
 40
0.25
 40
0.25
 40
0.25
 40
0.5
 40
0.5
 40
0.5
 40
0.5
 40
1.0
 40
1.0
 40
1.0
 40
1.0
 10
2.80475
 20
-0.91343
 30
0.0
 10
2.80475
 20
-0.91343
 30
0.0
 10
4.01129
 20
-1.53175
 30
0.0
 10
4.01129
 20
-1.53175
 30
0.0
 10
4.01129
 20
-1.53175
 30
0.0
 10
4.01129
 20
-1.53175
 30
0.0
 10
4.01129
 20
-0.28753
 30
0.0
 10
4.01129
 20
-0.28753
 30
0.0
 10
4.01129
 20
-0.28753
 30
0.0
 10
4.01129
 20
-0.28753
 30
0.0
 10
2.80475
 20
-0.91343
 30
0.0
 10
2.80475
 20
-0.91343
 30
0.0
  0
SPLINE
  5
10B
330
1F
100
AcDbEntity
  8
Layer 1
 62
   177
100
AcDbSpline
210
0.0
220
0.0
230
1.0
 70
    11
 71
     3
 72
    16
 73
    12
 74
     0
 42
0.0000000001
 43
0.0000000001
 12
1.0
 22
0.0
 32
0.0
 13
1.0
 23
0.0
 33
0.0
 40
0.0
 40
0.0
 40
0.0
 40
0.0
 40
0.25
 40
0.25
 40
0.25
 40
0.25
 40
0.5
 40
0.5
 40
0.5
 40
0.5
 40
1.0
 40
1.0
 40
1.0
 40
1.0
 10
5.54209
 20
-0.73997
 30
0.0
 10
5.54209
 20
-0.73997
 30
0.0
 10
5.54209
 20
0.49673
 30
0.0
 10
5.54209
 20
0.49673
 30
0.0
 10
5.54209
 20
0.49673
 30
0.0
 10
5.54209
 20
0.49673
 30
0.0
 10
4.3431
 20
-0.12163
 30
0.0
 10
4.3431
 20
-0.12163
 30
0.0
 10
4.3431
 20
-0.12163
 30
0.0
 10
4.3431
 20
-0.12163
 30
0.0
 10
5.54209
 20
-0.73997
 30
0.0
 10
5.54209
 20
-0.73997
 30
0.0
  0
SPLINE
  5
10C
330
1F
100
AcDbEntity
  8
Layer 1
 62
   177
100
AcDbSpline
210
0.0
220
0.0
230
1.0
 70
    11
 71
     3
 72
    16
 73
    12
 74
     0
 42
0.0000000001
 43
0.0000000001
 12
1.0
 22
0.0
 32
0.0
 13
1.0
 23
0.0
 33
0.0
 40
0.0
 40
0.0
 40
0.0
 40
0.0
 40
0.25
 40
0.25
 40
0.25
 40
0.25
 40
0.5
 40
0.5
 40
0.5
 40
0.5
 40
1.0
 40
1.0
 40
1.0
 40
1.0
 10
4.22998
 20
1.28851
 30
0.0
 10
4.22998
 20
1.28851
 30
0.0
 10
5.43652
 20
0.67015
 30
0.0
 10
5.43652
 20
0.67015
 30
0.0
 10
5.43652
 20
0.67015
 30
0.0
 10
5.43652
 20
0.67015
 30
0.0
 10
4.22998
 20
0.04427
 30
0.0
 10
4.22998
 20
0.04427
 30
0.0
 10
4.22998
 20
0.04427
 30
0.0
 10
4.22998
 20
0.04427
 30
0.0
 10
4.22998
 20
1.28851
 30
0.0
 10
4.22998
 20
1.28851
 30
0.0
  0
SPLINE
  5
10D
330
1F
100
AcDbEntity
  8
Layer 1
 62
   177
100
AcDbSpline
210
0.0
220
0.0
230
1.0
 70
    11
 71
     3
 72
    16
 73
    12
 74
     0
 42
0.0000000001
 43
0.0000000001
 12
1.0
 22
0.0
 32
0.0
 13
1.0
 23
0.0
 33
0.0
 40
0.0
 40
0.0
 40
0.0
 40
0.0
 40
0.25
 40
0.25
 40
0.25
 40
0.25
 40
0.5
 40
0.5
 40
0.5
 40
0.5
 40
1.0
 40
1.0
 40
1.0
 40
1.0
 10
4.01129
 20
1.28851
 30
0.0
 10
4.01129
 20
1.28851
 30
0.0
 10
2.80475
 20
0.67015
 30
0.0
 10
2.80475
 20
0.67015
 30
0.0
 10
2.80475
 20
0.67015
 30
0.0
 10
2.80475
 20
0.67015
 30
0.0
 10
4.01129
 20
0.04427
 30
0.0
 10
4.01129
 20
0.04427
 30
0.0
 10
4.01129
 20
0.04427
 30
0.0
 10
4.01129
 20
0.04427
 30
0.0
 10
4.01129
 20
1.28851
 30
0.0
 10
4.01129
 20
1.28851
 30
0.0
  0
SPLINE
  5
10E
330
1F
100
AcDbEntity
  8
Layer 1
 62
   177
100
AcDbSpline
210
0.0
220
0.0
230
1.0
 70
    11
 71
     3
 72
    16
 73
    12
 74
     0
 42
0.0000000001
 43
0.0000000001
 12
1.0
 22
0.0
 32
0.0
 13
1.0
 23
0.0
 33
0.0
 40
0.0
 40
0.0
 40
0.0
 40
0.0
 40
0.25
 40
0.25
 40
0.25
 40
0.25
 40
0.5
 40
0.5
 40
0.5
 40
0.5
 40
1.0
 40
1.0
 40
1.0
 40
1.0
 10
2.69918
 20
-0.73997
 30
0.0
 10
2.69918
 20
-0.73997
 30
0.0
 10
2.69918
 20
0.49673
 30
0.0
 10
2.69918
 20
0.49673
 30
0.0
 10
2.69918
 20
0.49673
 30
0.0
 10
2.69918
 20
0.49673
 30
0.0
 10
3.90571
 20
-0.12163
 30
0.0
 10
3.90571
 20
-0.12163
 30
0.0
 10
3.90571
 20
-0.12163
 30
0.0
 10
3.90571
 20
-0.12163
 30
0.0
 10
2.69918
 20
-0.73997
 30
0.0
 10
2.69918
 20
-0.73997
 30
0.0
  0
SPLINE
  5
10F
330
1F
100
AcDbEntity
  8
Layer 1
 62
   177
100
AcDbSpline
210
0.0
220
0.0
230
1.0
 70
    11
 71
     3
 72
    16
 73
    12
 74
     0
 42
0.0000000001
 43
0.0000000001
 12
1.0
 22
0.0
 32
0.0
 13
1.0
 23
0.0
 33
0.0
 40
0.0
 40
0.0
 40
0.0
 40
0.0
 40
0.25
 40
0.25
 40
0.25
 40
0.25
 40
0.5
 40
0.5
 40
0.5
 40
0.5
 40
1.0
 40
1.0
 40
1.0
 40
1.0
 10
8.49811
 20
-0.91343
 30
0.0
 10
8.49811
 20
-0.91343
 30
0.0
 10
7.29912
 20
-1.53175
 30
0.0
 10
7.29912
 20
-1.53175
 30
0.0
 10
7.29912
 20
-1.53175
 30
0.0
 10
7.29912
 20
-1.53175
 30
0.0
 10
7.29912
 20
-0.28753
 30
0.0
 10
7.29912
 20
-0.28753
 30
0.0
 10
7.29912
 20
-0.28753
 30
0.0
 10
7.29912
 20
-0.28753
 30
0.0
 10
8.49811
 20
-0.91343
 30
0.0
 10
8.49811
 20
-0.91343
 30
0.0
  0
SPLINE
  5
110
330
1F
100
AcDbEntity
  8
Layer 1
 62
   177
100
AcDbSpline
210
0.0
220
0.0
230
1.0
 70
    11
 71
     3
 72
    16
 73
    12
 74
     0
 42
0.0000000001
 43
0.0000000001
 12
1.0
 22
0.0
 32
0.0
 13
1.0
 23
0.0
 33
0.0
 40
0.0
 40
0.0
 40
0.0
 40
0.0
 40
0.25
 40
0.25
 40
0.25
 40
0.25
 40
0.5
 40
0.5
 40
0.5
 40
0.5
 40
1.0
 40
1.0
 40
1.0
 40
1.0
 10
5.87389
 20
-0.91343
 30
0.0
 10
5.87389
 20
-0.91343
 30
0.0
 10
7.08043
 20
-1.53175
 30
0.0
 10
7.08043
 20
-1.53175
 30
0.0
 10
7.08043
 20
-1.53175
 30
0.0
 10
7.08043
 20
-1.53175
 30
0.0
 10
7.08043
 20
-0.28753
 30
0.0
 10
7.08043
 20
-0.28753
 30
0.0
 10
7.08043
 20
-0.28753
 30
0.0
 10
7.08043
 20
-0.28753
 30
0.0
 10
5.87389
 20
-0.91343
 30
0.0
 10
5.87389
 20
-0.91343
 30
0.0
  0
SPLINE
  5
111
330
1F
100
AcDbEntity
  8
Layer 1
 62
   177
100
AcDbSpline
210
0.0
220
0.0
230
1.0
 70
    11
 71
     3
 72
    16
 73
    12
 74
     0
 42
0.0000000001
 43
0.0000000001
 12
1.0
 22
0.0
 32
0.0
 13
1.0
 23
0.0
 33
0.0
 40
0.0
 40
0.0
 40
0.0
 40
0.0
 40
0.25
 40
0.25
 40
0.25
 40
0.25
 40
0.5
 40
0.5
 40
0.5
 40
0.5
 40
1.0
 40
1.0
 40
1.0
 40
1.0
 10
8.61123
 20
-0.73997
 30
0.0
 10
8.61123
 20
-0.73997
 30
0.0
 10
8.61123
 20
0.49673
 30
0.0
 10
8.61123
 20
0.49673
 30
0.0
 10
8.61123
 20
0.49673
 30
0.0
 10
8.61123
 20
0.49673
 30
0.0
 10
7.41224
 20
-0.12163
 30
0.0
 10
7.41224
 20
-0.12163
 30
0.0
 10
7.41224
 20
-0.12163
 30
0.0
 10
7.41224
 20
-0.12163
 30
0.0
 10
8.61123
 20
-0.73997
 30
0.0
 10
8.61123
 20
-0.73997
 30
0.0
  0
SPLINE
  5
112
330
1F
100
AcDbEntity
  8
Layer 1
 62
   177
100
AcDbSpline
210
0.0
220
0.0
230
1.0
 70
    11
 71
     3
 72
    16
 73
    12
 74
     0
 42
0.0000000001
 43
0.0000000001
 12
1.0
 22
0.0
 32
0.0
 13
1.0
 23
0.0
 33
0.0
 40
0.0
 40
0.0
 40
0.0
 40
0.0
 40
0.25
 40
0.25
 40
0.25
 40
0.25
 40
0.5
 40
0.5
 40
0.5
 40
0.5
 40
1.0
 40
1.0
 40
1.0
 40
1.0
 10
7.29912
 20
1.28851
 30
0.0
 10
7.29912
 20
1.28851
 30
0.0
 10
8.49811
 20
0.67015
 30
0.0
 10
8.49811
 20
0.67015
 30
0.0
 10
8.49811
 20
0.67015
 30
0.0
 10
8.49811
 20
0.67015
 30
0.0
 10
7.29912
 20
0.04427
 30
0.0
 10
7.29912
 20
0.04427
 30
0.0
 10
7.29912
 20
0.04427
 30
0.0
 10
7.29912
 20
0.04427
 30
0.0
 10
7.29912
 20
1.28851
 30
0.0
 10
7.29912
 20
1.28851
 30
0.0
  0
SPLINE
  5
113
330
1F
100
AcDbEntity
  8
Layer 1
 62
   177
100
AcDbSpline
210
0.0
220
0.0
230
1.0
 70
    11
 71
     3
 72
    16
 73
    12
 74
     0
 42
0.0000000001
 43
0.0000000001
 12
1.0
 22
0.0
 32
0.0
 13
1.0
 23
0.0
 33
0.0
 40
0.0
 40
0.0
 40
0.0
 40
0.0
 40
0.25
 40
0.25
 40
0.25
 40
0.25
 40
0.5
 40
0.5
 40
0.5
 40
0.5
 40
1.0
 40
1.0
 40
1.0
 40
1.0
 10
7.08043
 20
1.28851
 30
0.0
 10
7.08043
 20
1.28851
 30
0.0
 10
5.87389
 20
0.67015
 30
0.0
 10
5.87389
 20
0.67015
 30
0.0
 10
5.87389
 20
0.67015
 30
0.0
 10
5.87389
 20
0.67015
 30
0.0
 10
7.08043
 20
0.04427
 30
0.0
 10
7.08043
 20
0.04427
 30
0.0
 10
7.08043
 20
0.04427
 30
0.0
 10
7.08043
 20
0.04427
 30
0.0
 10
7.08043
 20
1.28851
 30
0.0
 10
7.08043
 20
1.28851
 30
0.0
  0
SPLINE
  5
114
330
1F
100
AcDbEntity
  8
Layer 1
 62
   177
100
AcDbSpline
210
0.0
220
0.0
230
1.0
 70
    11
 71
     3
 72
    16
 73
    12
 74
     0
 42
0.0000000001
 43
0.0000000001
 12
1.0
 22
0.0
 32
0.0
 13
1.0
 23
0.0
 33
0.0
 40
0.0
 40
0.0
 40
0.0
 40
0.0
 40
0.25
 40
0.25
 40
0.25
 40
0.25
 40
0.5
 40
0.5
 40
0.5
 40
0.5
 40
1.0
 40
1.0
 40
1.0
 40
1.0
 10
5.76831
 20
-0.73997
 30
0.0
 10
5.76831
 20
-0.73997
 30
0.0
 10
5.76831
 20
0.49673
 30
0.0
 10
5.76831
 20
0.49673
 30
0.0
 10
5.76831
 20
0.49673
 30
0.0
 10
5.76831
 20
0.49673
 30
0.0
 10
6.96732
 20
-0.12163
 30
0.0
 10
6.96732
 20
-0.12163
 30
0.0
 10
6.96732
 20
-0.12163
 30
0.0
 10
6.96732
 20
-0.12163
 30
0.0
 10
5.76831
 20
-0.73997
 30
0.0
 10
5.76831
 20
-0.73997
 30
0.0
  0
SPLINE
  5
115
330
1F
100
AcDbEntity
  8
Layer 1
 62
   177
100
AcDbSpline
210
0.0
220
0.0
230
1.0
 70
    11
 71
     3
 72
    16
 73
    12
 74
     0
 42
0.0000000001
 43
0.0000000001
 12
1.0
 22
0.0
 32
0.0
 13
1.0
 23
0.0
 33
0.0
 40
0.0
 40
0.0
 40
0.0
 40
0.0
 40
0.25
 40
0.25
 40
0.25
 40
0.25
 40
0.5
 40
0.5
 40
0.5
 40
0.5
 40
1.0
 40
1.0
 40
1.0
 40
1.0
 10
0.82906
 20
1.45442
 30
0.0
 10
0.82906
 20
1.45442
 30
0.0
 10
-0.36994
 20
0.84359
 30
0.0
 10
-0.36994
 20
0.84359
 30
0.0
 10
-0.36994
 20
0.84359
 30
0.0
 10
-0.36994
 20
0.84359
 30
0.0
 10
-0.36994
 20
2.08031
 30
0.0
 10
-0.36994
 20
2.08031
 30
0.0
 10
-0.36994
 20
2.08031
 30
0.0
 10
-0.36994
 20
2.08031
 30
0.0
 10
0.82906
 20
1.45442
 30
0.0
 10
0.82906
 20
1.45442
 30
0.0
  0
SPLINE
  5
116
330
1F
100
AcDbEntity
  8
Layer 1
 62
   177
100
AcDbSpline
210
0.0
220
0.0
230
1.0
 70
    11
 71
     3
 72
    16
 73
    12
 74
     0
 42
0.0000000001
 43
0.0000000001
 12
1.0
 22
0.0
 32
0.0
 13
1.0
 23
0.0
 33
0.0
 40
0.0
 40
0.0
 40
0.0
 40
0.0
 40
0.25
 40
0.25
 40
0.25
 40
0.25
 40
0.5
 40
0.5
 40
0.5
 40
0.5
 40
1.0
 40
1.0
 40
1.0
 40
1.0
 10
-1.79517
 20
1.45442
 30
0.0
 10
-1.79517
 20
1.45442
 30
0.0
 10
-0.58863
 20
0.84359
 30
0.0
 10
-0.58863
 20
0.84359
 30
0.0
 10
-0.58863
 20
0.84359
 30
0.0
 10
-0.58863
 20
0.84359
 30
0.0
 10
-0.58863
 20
2.08031
 30
0.0
 10
-0.58863
 20
2.08031
 30
0.0
 10
-0.58863
 20
2.08031
 30
0.0
 10
-0.58863
 20
2.08031
 30
0.0
 10
-1.79517
 20
1.45442
 30
0.0
 10
-1.79517
 20
1.45442
 30
0.0
  0
SPLINE
  5
117
330
1F
100
AcDbEntity
  8
Layer 1
 62
   177
100
AcDbSpline
210
0.0
220
0.0
230
1.0
 70
    11
 71
     3
 72
    20
 73
    16
 74
     0
 42
0.0000000001
 43
0.0000000001
 12
1.0
 22
0.0
 32
0.0
 13
1.0
 23
0.0
 33
0.0
 40
0.0
 40
0.0
 40
0.0
 40
0.0
 40
0.2
 40
0.2
 40
0.2
 40
0.2
 40
0.4
 40
0.4
 40
0.4
 40
0.4
 40
0.6
 40
0.6
 40
0.6
 40
0.6
 40
1.0
 40
1.0
 40
1.0
 40
1.0
 10
0.94217
 20
1.63541
 30
0.0
 10
0.94217
 20
1.63541
 30
0.0
 10
0.94217
 20
2.87209
 30
0.0
 10
0.94217
 20
2.87209
 30
0.0
 10
0.94217
 20
2.87209
 30
0.0
 10
0.94217
 20
2.87209
 30
0.0
 10
-0.25682
 20
2.25375
 30
0.0
 10
-0.25682
 20
2.25375
 30
0.0
 10
-0.25682
 20
2.25375
 30
0.0
 10
-0.25682
 20
2.25375
 30
0.0
 10
0.94217
 20
1.63541
 30
0.0
 10
0.94217
 20
1.63541
 30
0.0
 10
0.94217
 20
1.63541
 30
0.0
 10
0.94217
 20
1.63541
 30
0.0
 10
0.94217
 20
1.63541
 30
0.0
 10
0.94217
 20
1.63541
 30
0.0
  0
SPLINE
  5
118
330
1F
100
AcDbEntity
  8
Layer 1
 62
   177
100
AcDbSpline
210
0.0
220
0.0
230
1.0
 70
    11
 71
     3
 72
    16
 73
    12
 74
     0
 42
0.0000000001
 43
0.0000000001
 12
1.0
 22
0.0
 32
0.0
 13
1.0
 23
0.0
 33
0.0
 40
0.0
 40
0.0
 40
0.0
 40
0.0
 40
0.25
 40
0.25
 40
0.25
 40
0.25
 40
0.5
 40
0.5
 40
0.5
 40
0.5
 40
1.0
 40
1.0
 40
1.0
 40
1.0
 10
-0.36994
 20
3.6639
 30
0.0
 10
-0.36994
 20
3.6639
 30
0.0
 10
0.82906
 20
3.04554
 30
0.0
 10
0.82906
 20
3.04554
 30
0.0
 10
0.82906
 20
3.04554
 30
0.0
 10
0.82906
 20
3.04554
 30
0.0
 10
-0.36994
 20
2.41966
 30
0.0
 10
-0.36994
 20
2.41966
 30
0.0
 10
-0.36994
 20
2.41966
 30
0.0
 10
-0.36994
 20
2.41966
 30
0.0
 10
-0.36994
 20
3.6639
 30
0.0
 10
-0.36994
 20
3.6639
 30
0.0
  0
SPLINE
  5
119
330
1F
100
AcDbEntity
  8
Layer 1
 62
   177
100
AcDbSpline
210
0.0
220
0.0
230
1.0
 70
    11
 71
     3
 72
    16
 73
    12
 74
     0
 42
0.0000000001
 43
0.0000000001
 12
1.0
 22
0.0
 32
0.0
 13
1.0
 23
0.0
 33
0.0
 40
0.0
 40
0.0
 40
0.0
 40
0.0
 40
0.25
 40
0.25
 40
0.25
 40
0.25
 40
0.5
 40
0.5
 40
0.5
 40
0.5
 40
1.0
 40
1.0
 40
1.0
 40
1.0
 10
-0.58863
 20
3.6639
 30
0.0
 10
-0.58863
 20
3.6639
 30
0.0
 10
-1.79517
 20
3.04554
 30
0.0
 10
-1.79517
 20
3.04554
 30
0.0
 10
-1.79517
 20
3.04554
 30
0.0
 10
-1.79517
 20
3.04554
 30
0.0
 10
-0.58863
 20
2.41966
 30
0.0
 10
-0.58863
 20
2.41966
 30
0.0
 10
-0.58863
 20
2.41966
 30
0.0
 10
-0.58863
 20
2.41966
 30
0.0
 10
-0.58863
 20
3.6639
 30
0.0
 10
-0.58863
 20
3.6639
 30
0.0
  0
SPLINE
  5
11A
330
1F
100
AcDbEntity
  8
Layer 1
 62
   177
100
AcDbSpline
210
0.0
220
0.0
230
1.0
 70
    11
 71
     3
 72
    16
 73
    12
 74
     0
 42
0.0000000001
 43
0.0000000001
 12
1.0
 22
0.0
 32
0.0
 13
1.0
 23
0.0
 33
0.0
 40
0.0
 40
0.0
 40
0.0
 40
0.0
 40
0.25
 40
0.25
 40
0.25
 40
0.25
 40
0.5
 40
0.5
 40
0.5
 40
0.5
 40
1.0
 40
1.0
 40
1.0
 40
1.0
 10
-1.90076
 20
1.63541
 30
0.0
 10
-1.90076
 20
1.63541
 30
0.0
 10
-1.90076
 20
2.87209
 30
0.0
 10
-1.90076
 20
2.87209
 30
0.0
 10
-1.90076
 20
2.87209
 30
0.0
 10
-1.90076
 20
2.87209
 30
0.0
 10
-0.70174
 20
2.25375
 30
0.0
 10
-0.70174
 20
2.25375
 30
0.0
 10
-0.70174
 20
2.25375
 30
0.0
 10
-0.70174
 20
2.25375
 30
0.0
 10
-1.90076
 20
1.63541
 30
0.0
 10
-1.90076
 20
1.63541
 30
0.0
  0
SPLINE
  5
11B
330
1F
100
AcDbEntity
  8
Layer 1
 62
   177
100
AcDbSpline
210
0.0
220
0.0
230
1.0
 70
    11
 71
     3
 72
    16
 73
    12
 74
     0
 42
0.0000000001
 43
0.0000000001
 12
1.0
 22
0.0
 32
0.0
 13
1.0
 23
0.0
 33
0.0
 40
0.0
 40
0.0
 40
0.0
 40
0.0
 40
0.25
 40
0.25
 40
0.25
 40
0.25
 40
0.5
 40
0.5
 40
0.5
 40
0.5
 40
1.0
 40
1.0
 40
1.0
 40
1.0
 10
3.90571
 20
1.45442
 30
0.0
 10
3.90571
 20
1.45442
 30
0.0
 10
2.69918
 20
0.84359
 30
0.0
 10
2.69918
 20
0.84359
 30
0.0
 10
2.69918
 20
0.84359
 30
0.0
 10
2.69918
 20
0.84359
 30
0.0
 10
2.69918
 20
2.08031
 30
0.0
 10
2.69918
 20
2.08031
 30
0.0
 10
2.69918
 20
2.08031
 30
0.0
 10
2.69918
 20
2.08031
 30
0.0
 10
3.90571
 20
1.45442
 30
0.0
 10
3.90571
 20
1.45442
 30
0.0
  0
SPLINE
  5
11C
330
1F
100
AcDbEntity
  8
Layer 1
 62
   177
100
AcDbSpline
210
0.0
220
0.0
230
1.0
 70
    11
 71
     3
 72
    16
 73
    12
 74
     0
 42
0.0000000001
 43
0.0000000001
 12
1.0
 22
0.0
 32
0.0
 13
1.0
 23
0.0
 33
0.0
 40
0.0
 40
0.0
 40
0.0
 40
0.0
 40
0.25
 40
0.25
 40
0.25
 40
0.25
 40
0.5
 40
0.5
 40
0.5
 40
0.5
 40
1.0
 40
1.0
 40
1.0
 40
1.0
 10
1.27396
 20
1.45442
 30
0.0
 10
1.27396
 20
1.45442
 30
0.0
 10
2.4805
 20
0.84359
 30
0.0
 10
2.4805
 20
0.84359
 30
0.0
 10
2.4805
 20
0.84359
 30
0.0
 10
2.4805
 20
0.84359
 30
0.0
 10
2.4805
 20
2.08031
 30
0.0
 10
2.4805
 20
2.08031
 30
0.0
 10
2.4805
 20
2.08031
 30
0.0
 10
2.4805
 20
2.08031
 30
0.0
 10
1.27396
 20
1.45442
 30
0.0
 10
1.27396
 20
1.45442
 30
0.0
  0
SPLINE
  5
11D
330
1F
100
AcDbEntity
  8
Layer 1
 62
   177
100
AcDbSpline
210
0.0
220
0.0
230
1.0
 70
    11
 71
     3
 72
    16
 73
    12
 74
     0
 42
0.0000000001
 43
0.0000000001
 12
1.0
 22
0.0
 32
0.0
 13
1.0
 23
0.0
 33
0.0
 40
0.0
 40
0.0
 40
0.0
 40
0.0
 40
0.25
 40
0.25
 40
0.25
 40
0.25
 40
0.5
 40
0.5
 40
0.5
 40
0.5
 40
1.0
 40
1.0
 40
1.0
 40
1.0
 10
4.01129
 20
1.63541
 30
0.0
 10
4.01129
 20
1.63541
 30
0.0
 10
4.01129
 20
2.87209
 30
0.0
 10
4.01129
 20
2.87209
 30
0.0
 10
4.01129
 20
2.87209
 30
0.0
 10
4.01129
 20
2.87209
 30
0.0
 10
2.80475
 20
2.25375
 30
0.0
 10
2.80475
 20
2.25375
 30
0.0
 10
2.80475
 20
2.25375
 30
0.0
 10
2.80475
 20
2.25375
 30
0.0
 10
4.01129
 20
1.63541
 30
0.0
 10
4.01129
 20
1.63541
 30
0.0
  0
SPLINE
  5
11E
330
1F
100
AcDbEntity
  8
Layer 1
 62
   177
100
AcDbSpline
210
0.0
220
0.0
230
1.0
 70
    11
 71
     3
 72
    16
 73
    12
 74
     0
 42
0.0000000001
 43
0.0000000001
 12
1.0
 22
0.0
 32
0.0
 13
1.0
 23
0.0
 33
0.0
 40
0.0
 40
0.0
 40
0.0
 40
0.0
 40
0.25
 40
0.25
 40
0.25
 40
0.25
 40
0.5
 40
0.5
 40
0.5
 40
0.5
 40
1.0
 40
1.0
 40
1.0
 40
1.0
 10
2.69918
 20
3.6639
 30
0.0
 10
2.69918
 20
3.6639
 30
0.0
 10
3.90571
 20
3.04554
 30
0.0
 10
3.90571
 20
3.04554
 30
0.0
 10
3.90571
 20
3.04554
 30
0.0
 10
3.90571
 20
3.04554
 30
0.0
 10
2.69918
 20
2.41966
 30
0.0
 10
2.69918
 20
2.41966
 30
0.0
 10
2.69918
 20
2.41966
 30
0.0
 10
2.69918
 20
2.41966
 30
0.0
 10
2.69918
 20
3.6639
 30
0.0
 10
2.69918
 20
3.6639
 30
0.0
  0
SPLINE
  5
11F
330
1F
100
AcDbEntity
  8
Layer 1
 62
   177
100
AcDbSpline
210
0.0
220
0.0
230
1.0
 70
    11
 71
     3
 72
    16
 73
    12
 74
     0
 42
0.0000000001
 43
0.0000000001
 12
1.0
 22
0.0
 32
0.0
 13
1.0
 23
0.0
 33
0.0
 40
0.0
 40
0.0
 40
0.0
 40
0.0
 40
0.25
 40
0.25
 40
0.25
 40
0.25
 40
0.5
 40
0.5
 40
0.5
 40
0.5
 40
1.0
 40
1.0
 40
1.0
 40
1.0
 10
2.4805
 20
3.6639
 30
0.0
 10
2.4805
 20
3.6639
 30
0.0
 10
1.27396
 20
3.04554
 30
0.0
 10
1.27396
 20
3.04554
 30
0.0
 10
1.27396
 20
3.04554
 30
0.0
 10
1.27396
 20
3.04554
 30
0.0
 10
2.4805
 20
2.41966
 30
0.0
 10
2.4805
 20
2.41966
 30
0.0
 10
2.4805
 20
2.41966
 30
0.0
 10
2.4805
 20
2.41966
 30
0.0
 10
2.4805
 20
3.6639
 30
0.0
 10
2.4805
 20
3.6639
 30
0.0
  0
SPLINE
  5
120
330
1F
100
AcDbEntity
  8
Layer 1
 62
   177
100
AcDbSpline
210
0.0
220
0.0
230
1.0
 70
    11
 71
     3
 72
    16
 73
    12
 74
     0
 42
0.0000000001
 43
0.0000000001
 12
1.0
 22
0.0
 32
0.0
 13
1.0
 23
0.0
 33
0.0
 40
0.0
 40
0.0
 40
0.0
 40
0.0
 40
0.25
 40
0.25
 40
0.25
 40
0.25
 40
0.5
 40
0.5
 40
0.5
 40
0.5
 40
1.0
 40
1.0
 40
1.0
 40
1.0
 10
1.16085
 20
1.63541
 30
0.0
 10
1.16085
 20
1.63541
 30
0.0
 10
1.16085
 20
2.87209
 30
0.0
 10
1.16085
 20
2.87209
 30
0.0
 10
1.16085
 20
2.87209
 30
0.0
 10
1.16085
 20
2.87209
 30
0.0
 10
2.36737
 20
2.25375
 30
0.0
 10
2.36737
 20
2.25375
 30
0.0
 10
2.36737
 20
2.25375
 30
0.0
 10
2.36737
 20
2.25375
 30
0.0
 10
1.16085
 20
1.63541
 30
0.0
 10
1.16085
 20
1.63541
 30
0.0
  0
SPLINE
  5
121
330
1F
100
AcDbEntity
  8
Layer 1
 62
   177
100
AcDbSpline
210
0.0
220
0.0
230
1.0
 70
    11
 71
     3
 72
    16
 73
    12
 74
     0
 42
0.0000000001
 43
0.0000000001
 12
1.0
 22
0.0
 32
0.0
 13
1.0
 23
0.0
 33
0.0
 40
0.0
 40
0.0
 40
0.0
 40
0.0
 40
0.25
 40
0.25
 40
0.25
 40
0.25
 40
0.5
 40
0.5
 40
0.5
 40
0.5
 40
1.0
 40
1.0
 40
1.0
 40
1.0
 10
6.96732
 20
1.45442
 30
0.0
 10
6.96732
 20
1.45442
 30
0.0
 10
5.76831
 20
0.84359
 30
0.0
 10
5.76831
 20
0.84359
 30
0.0
 10
5.76831
 20
0.84359
 30
0.0
 10
5.76831
 20
0.84359
 30
0.0
 10
5.76831
 20
2.08031
 30
0.0
 10
5.76831
 20
2.08031
 30
0.0
 10
5.76831
 20
2.08031
 30
0.0
 10
5.76831
 20
2.08031
 30
0.0
 10
6.96732
 20
1.45442
 30
0.0
 10
6.96732
 20
1.45442
 30
0.0
  0
SPLINE
  5
122
330
1F
100
AcDbEntity
  8
Layer 1
 62
   177
100
AcDbSpline
210
0.0
220
0.0
230
1.0
 70
    11
 71
     3
 72
    16
 73
    12
 74
     0
 42
0.0000000001
 43
0.0000000001
 12
1.0
 22
0.0
 32
0.0
 13
1.0
 23
0.0
 33
0.0
 40
0.0
 40
0.0
 40
0.0
 40
0.0
 40
0.25
 40
0.25
 40
0.25
 40
0.25
 40
0.5
 40
0.5
 40
0.5
 40
0.5
 40
1.0
 40
1.0
 40
1.0
 40
1.0
 10
4.3431
 20
1.45442
 30
0.0
 10
4.3431
 20
1.45442
 30
0.0
 10
5.54209
 20
0.84359
 30
0.0
 10
5.54209
 20
0.84359
 30
0.0
 10
5.54209
 20
0.84359
 30
0.0
 10
5.54209
 20
0.84359
 30
0.0
 10
5.54209
 20
2.08031
 30
0.0
 10
5.54209
 20
2.08031
 30
0.0
 10
5.54209
 20
2.08031
 30
0.0
 10
5.54209
 20
2.08031
 30
0.0
 10
4.3431
 20
1.45442
 30
0.0
 10
4.3431
 20
1.45442
 30
0.0
  0
SPLINE
  5
123
330
1F
100
AcDbEntity
  8
Layer 1
 62
   177
100
AcDbSpline
210
0.0
220
0.0
230
1.0
 70
    11
 71
     3
 72
    16
 73
    12
 74
     0
 42
0.0000000001
 43
0.0000000001
 12
1.0
 22
0.0
 32
0.0
 13
1.0
 23
0.0
 33
0.0
 40
0.0
 40
0.0
 40
0.0
 40
0.0
 40
0.25
 40
0.25
 40
0.25
 40
0.25
 40
0.5
 40
0.5
 40
0.5
 40
0.5
 40
1.0
 40
1.0
 40
1.0
 40
1.0
 10
7.08043
 20
1.63541
 30
0.0
 10
7.08043
 20
1.63541
 30
0.0
 10
7.08043
 20
2.87209
 30
0.0
 10
7.08043
 20
2.87209
 30
0.0
 10
7.08043
 20
2.87209
 30
0.0
 10
7.08043
 20
2.87209
 30
0.0
 10
5.87389
 20
2.25375
 30
0.0
 10
5.87389
 20
2.25375
 30
0.0
 10
5.87389
 20
2.25375
 30
0.0
 10
5.87389
 20
2.25375
 30
0.0
 10
7.08043
 20
1.63541
 30
0.0
 10
7.08043
 20
1.63541
 30
0.0
  0
SPLINE
  5
124
330
1F
100
AcDbEntity
  8
Layer 1
 62
   177
100
AcDbSpline
210
0.0
220
0.0
230
1.0
 70
    11
 71
     3
 72
    16
 73
    12
 74
     0
 42
0.0000000001
 43
0.0000000001
 12
1.0
 22
0.0
 32
0.0
 13
1.0
 23
0.0
 33
0.0
 40
0.0
 40
0.0
 40
0.0
 40
0.0
 40
0.25
 40
0.25
 40
0.25
 40
0.25
 40
0.5
 40
0.5
 40
0.5
 40
0.5
 40
1.0
 40
1.0
 40
1.0
 40
1.0
 10
5.76831
 20
3.6639
 30
0.0
 10
5.76831
 20
3.6639
 30
0.0
 10
6.96732
 20
3.04554
 30
0.0
 10
6.96732
 20
3.04554
 30
0.0
 10
6.96732
 20
3.04554
 30
0.0
 10
6.96732
 20
3.04554
 30
0.0
 10
5.76831
 20
2.41966
 30
0.0
 10
5.76831
 20
2.41966
 30
0.0
 10
5.76831
 20
2.41966
 30
0.0
 10
5.76831
 20
2.41966
 30
0.0
 10
5.76831
 20
3.6639
 30
0.0
 10
5.76831
 20
3.6639
 30
0.0
  0
SPLINE
  5
125
330
1F
100
AcDbEntity
  8
Layer 1
 62
   177
100
AcDbSpline
210
0.0
220
0.0
230
1.0
 70
    11
 71
     3
 72
    16
 73
    12
 74
     0
 42
0.0000000001
 43
0.0000000001
 12
1.0
 22
0.0
 32
0.0
 13
1.0
 23
0.0
 33
0.0
 40
0.0
 40
0.0
 40
0.0
 40
0.0
 40
0.25
 40
0.25
 40
0.25
 40
0.25
 40
0.5
 40
0.5
 40
0.5
 40
0.5
 40
1.0
 40
1.0
 40
1.0
 40
1.0
 10
5.54209
 20
3.6639
 30
0.0
 10
5.54209
 20
3.6639
 30
0.0
 10
4.3431
 20
3.04554
 30
0.0
 10
4.3431
 20
3.04554
 30
0.0
 10
4.3431
 20
3.04554
 30
0.0
 10
4.3431
 20
3.04554
 30
0.0
 10
5.54209
 20
2.41966
 30
0.0
 10
5.54209
 20
2.41966
 30
0.0
 10
5.54209
 20
2.41966
 30
0.0
 10
5.54209
 20
2.41966
 30
0.0
 10
5.54209
 20
3.6639
 30
0.0
 10
5.54209
 20
3.6639
 30
0.0
  0
SPLINE
  5
126
330
1F
100
AcDbEntity
  8
Layer 1
 62
   177
100
AcDbSpline
210
0.0
220
0.0
230
1.0
 70
    11
 71
     3
 72
    16
 73
    12
 74
     0
 42
0.0000000001
 43
0.0000000001
 12
1.0
 22
0.0
 32
0.0
 13
1.0
 23
0.0
 33
0.0
 40
0.0
 40
0.0
 40
0.0
 40
0.0
 40
0.25
 40
0.25
 40
0.25
 40
0.25
 40
0.5
 40
0.5
 40
0.5
 40
0.5
 40
1.0
 40
1.0
 40
1.0
 40
1.0
 10
4.22998
 20
1.63541
 30
0.0
 10
4.22998
 20
1.63541
 30
0.0
 10
4.22998
 20
2.87209
 30
0.0
 10
4.22998
 20
2.87209
 30
0.0
 10
4.22998
 20
2.87209
 30
0.0
 10
4.22998
 20
2.87209
 30
0.0
 10
5.43652
 20
2.25375
 30
0.0
 10
5.43652
 20
2.25375
 30
0.0
 10
5.43652
 20
2.25375
 30
0.0
 10
5.43652
 20
2.25375
 30
0.0
 10
4.22998
 20
1.63541
 30
0.0
 10
4.22998
 20
1.63541
 30
0.0
  0
SPLINE
  5
127
330
1F
100
AcDbEntity
  8
Layer 1
 62
   177
100
AcDbSpline
210
0.0
220
0.0
230
1.0
 70
    11
 71
     3
 72
    16
 73
    12
 74
     0
 42
0.0000000001
 43
0.0000000001
 12
1.0
 22
0.0
 32
0.0
 13
1.0
 23
0.0
 33
0.0
 40
0.0
 40
0.0
 40
0.0
 40
0.0
 40
0.25
 40
0.25
 40
0.25
 40
0.25
 40
0.5
 40
0.5
 40
0.5
 40
0.5
 40
1.0
 40
1.0
 40
1.0
 40
1.0
 10
10.03645
 20
1.45442
 30
0.0
 10
10.03645
 20
1.45442
 30
0.0
 10
8.82992
 20
0.84359
 30
0.0
 10
8.82992
 20
0.84359
 30
0.0
 10
8.82992
 20
0.84359
 30
0.0
 10
8.82992
 20
0.84359
 30
0.0
 10
8.82992
 20
2.08031
 30
0.0
 10
8.82992
 20
2.08031
 30
0.0
 10
8.82992
 20
2.08031
 30
0.0
 10
8.82992
 20
2.08031
 30
0.0
 10
10.03645
 20
1.45442
 30
0.0
 10
10.03645
 20
1.45442
 30
0.0
  0
SPLINE
  5
128
330
1F
100
AcDbEntity
  8
Layer 1
 62
   177
100
AcDbSpline
210
0.0
220
0.0
230
1.0
 70
    11
 71
     3
 72
    16
 73
    12
 74
     0
 42
0.0000000001
 43
0.0000000001
 12
1.0
 22
0.0
 32
0.0
 13
1.0
 23
0.0
 33
0.0
 40
0.0
 40
0.0
 40
0.0
 40
0.0
 40
0.25
 40
0.25
 40
0.25
 40
0.25
 40
0.5
 40
0.5
 40
0.5
 40
0.5
 40
1.0
 40
1.0
 40
1.0
 40
1.0
 10
7.41224
 20
1.45442
 30
0.0
 10
7.41224
 20
1.45442
 30
0.0
 10
8.61123
 20
0.84359
 30
0.0
 10
8.61123
 20
0.84359
 30
0.0
 10
8.61123
 20
0.84359
 30
0.0
 10
8.61123
 20
0.84359
 30
0.0
 10
8.61123
 20
2.08031
 30
0.0
 10
8.61123
 20
2.08031
 30
0.0
 10
8.61123
 20
2.08031
 30
0.0
 10
8.61123
 20
2.08031
 30
0.0
 10
7.41224
 20
1.45442
 30
0.0
 10
7.41224
 20
1.45442
 30
0.0
  0
SPLINE
  5
129
330
1F
100
AcDbEntity
  8
Layer 1
 62
   177
100
AcDbSpline
210
0.0
220
0.0
230
1.0
 70
    11
 71
     3
 72
    16
 73
    12
 74
     0
 42
0.0000000001
 43
0.0000000001
 12
1.0
 22
0.0
 32
0.0
 13
1.0
 23
0.0
 33
0.0
 40
0.0
 40
0.0
 40
0.0
 40
0.0
 40
0.25
 40
0.25
 40
0.25
 40
0.25
 40
0.5
 40
0.5
 40
0.5
 40
0.5
 40
1.0
 40
1.0
 40
1.0
 40
1.0
 10
10.14956
 20
1.63541
 30
0.0
 10
10.14956
 20
1.63541
 30
0.0
 10
10.14956
 20
2.87209
 30
0.0
 10
10.14956
 20
2.87209
 30
0.0
 10
10.14956
 20
2.87209
 30
0.0
 10
10.14956
 20
2.87209
 30
0.0
 10
8.94303
 20
2.25375
 30
0.0
 10
8.94303
 20
2.25375
 30
0.0
 10
8.94303
 20
2.25375
 30
0.0
 10
8.94303
 20
2.25375
 30
0.0
 10
10.14956
 20
1.63541
 30
0.0
 10
10.14956
 20
1.63541
 30
0.0
  0
SPLINE
  5
12A
330
1F
100
AcDbEntity
  8
Layer 1
 62
   177
100
AcDbSpline
210
0.0
220
0.0
230
1.0
 70
    11
 71
     3
 72
    16
 73
    12
 74
     0
 42
0.0000000001
 43
0.0000000001
 12
1.0
 22
0.0
 32
0.0
 13
1.0
 23
0.0
 33
0.0
 40
0.0
 40
0.0
 40
0.0
 40
0.0
 40
0.25
 40
0.25
 40
0.25
 40
0.25
 40
0.5
 40
0.5
 40
0.5
 40
0.5
 40
1.0
 40
1.0
 40
1.0
 40
1.0
 10
8.82992
 20
3.6639
 30
0.0
 10
8.82992
 20
3.6639
 30
0.0
 10
10.03645
 20
3.04554
 30
0.0
 10
10.03645
 20
3.04554
 30
0.0
 10
10.03645
 20
3.04554
 30
0.0
 10
10.03645
 20
3.04554
 30
0.0
 10
8.82992
 20
2.41966
 30
0.0
 10
8.82992
 20
2.41966
 30
0.0
 10
8.82992
 20
2.41966
 30
0.0
 10
8.82992
 20
2.41966
 30
0.0
 10
8.82992
 20
3.6639
 30
0.0
 10
8.82992
 20
3.6639
 30
0.0
  0
SPLINE
  5
12B
330
1F
100
AcDbEntity
  8
Layer 1
 62
   177
100
AcDbSpline
210
0.0
220
0.0
230
1.0
 70
    11
 71
     3
 72
    16
 73
    12
 74
     0
 42
0.0000000001
 43
0.0000000001
 12
1.0
 22
0.0
 32
0.0
 13
1.0
 23
0.0
 33
0.0
 40
0.0
 40
0.0
 40
0.0
 40
0.0
 40
0.25
 40
0.25
 40
0.25
 40
0.25
 40
0.5
 40
0.5
 40
0.5
 40
0.5
 40
1.0
 40
1.0
 40
1.0
 40
1.0
 10
8.61123
 20
3.6639
 30
0.0
 10
8.61123
 20
3.6639
 30
0.0
 10
7.41224
 20
3.04554
 30
0.0
 10
7.41224
 20
3.04554
 30
0.0
 10
7.41224
 20
3.04554
 30
0.0
 10
7.41224
 20
3.04554
 30
0.0
 10
8.61123
 20
2.41966
 30
0.0
 10
8.61123
 20
2.41966
 30
0.0
 10
8.61123
 20
2.41966
 30
0.0
 10
8.61123
 20
2.41966
 30
0.0
 10
8.61123
 20
3.6639
 30
0.0
 10
8.61123
 20
3.6639
 30
0.0
  0
SPLINE
  5
12C
330
1F
100
AcDbEntity
  8
Layer 1
 62
   177
100
AcDbSpline
210
0.0
220
0.0
230
1.0
 70
    11
 71
     3
 72
    16
 73
    12
 74
     0
 42
0.0000000001
 43
0.0000000001
 12
1.0
 22
0.0
 32
0.0
 13
1.0
 23
0.0
 33
0.0
 40
0.0
 40
0.0
 40
0.0
 40
0.0
 40
0.25
 40
0.25
 40
0.25
 40
0.25
 40
0.5
 40
0.5
 40
0.5
 40
0.5
 40
1.0
 40
1.0
 40
1.0
 40
1.0
 10
7.29912
 20
1.63541
 30
0.0
 10
7.29912
 20
1.63541
 30
0.0
 10
7.29912
 20
2.87209
 30
0.0
 10
7.29912
 20
2.87209
 30
0.0
 10
7.29912
 20
2.87209
 30
0.0
 10
7.29912
 20
2.87209
 30
0.0
 10
8.49811
 20
2.25375
 30
0.0
 10
8.49811
 20
2.25375
 30
0.0
 10
8.49811
 20
2.25375
 30
0.0
 10
8.49811
 20
2.25375
 30
0.0
 10
7.29912
 20
1.63541
 30
0.0
 10
7.29912
 20
1.63541
 30
0.0
  0
SPLINE
  5
12D
330
1F
100
AcDbEntity
  8
Layer 1
 62
   177
100
AcDbSpline
210
0.0
220
0.0
230
1.0
 70
    11
 71
     3
 72
    16
 73
    12
 74
     0
 42
0.0000000001
 43
0.0000000001
 12
1.0
 22
0.0
 32
0.0
 13
1.0
 23
0.0
 33
0.0
 40
0.0
 40
0.0
 40
0.0
 40
0.0
 40
0.25
 40
0.25
 40
0.25
 40
0.25
 40
0.5
 40
0.5
 40
0.5
 40
0.5
 40
1.0
 40
1.0
 40
1.0
 40
1.0
 10
-0.70174
 20
3.82979
 30
0.0
 10
-0.70174
 20
3.82979
 30
0.0
 10
-1.90076
 20
3.21144
 30
0.0
 10
-1.90076
 20
3.21144
 30
0.0
 10
-1.90076
 20
3.21144
 30
0.0
 10
-1.90076
 20
3.21144
 30
0.0
 10
-1.90076
 20
4.44815
 30
0.0
 10
-1.90076
 20
4.44815
 30
0.0
 10
-1.90076
 20
4.44815
 30
0.0
 10
-1.90076
 20
4.44815
 30
0.0
 10
-0.70174
 20
3.82979
 30
0.0
 10
-0.70174
 20
3.82979
 30
0.0
  0
SPLINE
  5
12E
330
1F
100
AcDbEntity
  8
Layer 1
 62
   177
100
AcDbSpline
210
0.0
220
0.0
230
1.0
 70
    11
 71
     3
 72
    16
 73
    12
 74
     0
 42
0.0000000001
 43
0.0000000001
 12
1.0
 22
0.0
 32
0.0
 13
1.0
 23
0.0
 33
0.0
 40
0.0
 40
0.0
 40
0.0
 40
0.0
 40
0.25
 40
0.25
 40
0.25
 40
0.25
 40
0.5
 40
0.5
 40
0.5
 40
0.5
 40
1.0
 40
1.0
 40
1.0
 40
1.0
 10
-0.58863
 20
4.00321
 30
0.0
 10
-0.58863
 20
4.00321
 30
0.0
 10
-0.58863
 20
5.23996
 30
0.0
 10
-0.58863
 20
5.23996
 30
0.0
 10
-0.58863
 20
5.23996
 30
0.0
 10
-0.58863
 20
5.23996
 30
0.0
 10
-1.79517
 20
4.62159
 30
0.0
 10
-1.79517
 20
4.62159
 30
0.0
 10
-1.79517
 20
4.62159
 30
0.0
 10
-1.79517
 20
4.62159
 30
0.0
 10
-0.58863
 20
4.00321
 30
0.0
 10
-0.58863
 20
4.00321
 30
0.0
  0
SPLINE
  5
12F
330
1F
100
AcDbEntity
  8
Layer 1
 62
   177
100
AcDbSpline
210
0.0
220
0.0
230
1.0
 70
    11
 71
     3
 72
    16
 73
    12
 74
     0
 42
0.0000000001
 43
0.0000000001
 12
1.0
 22
0.0
 32
0.0
 13
1.0
 23
0.0
 33
0.0
 40
0.0
 40
0.0
 40
0.0
 40
0.0
 40
0.25
 40
0.25
 40
0.25
 40
0.25
 40
0.5
 40
0.5
 40
0.5
 40
0.5
 40
1.0
 40
1.0
 40
1.0
 40
1.0
 10
2.36737
 20
3.82979
 30
0.0
 10
2.36737
 20
3.82979
 30
0.0
 10
1.16085
 20
3.21144
 30
0.0
 10
1.16085
 20
3.21144
 30
0.0
 10
1.16085
 20
3.21144
 30
0.0
 10
1.16085
 20
3.21144
 30
0.0
 10
1.16085
 20
4.44815
 30
0.0
 10
1.16085
 20
4.44815
 30
0.0
 10
1.16085
 20
4.44815
 30
0.0
 10
1.16085
 20
4.44815
 30
0.0
 10
2.36737
 20
3.82979
 30
0.0
 10
2.36737
 20
3.82979
 30
0.0
  0
SPLINE
  5
130
330
1F
100
AcDbEntity
  8
Layer 1
 62
   177
100
AcDbSpline
210
0.0
220
0.0
230
1.0
 70
    11
 71
     3
 72
    16
 73
    12
 74
     0
 42
0.0000000001
 43
0.0000000001
 12
1.0
 22
0.0
 32
0.0
 13
1.0
 23
0.0
 33
0.0
 40
0.0
 40
0.0
 40
0.0
 40
0.0
 40
0.25
 40
0.25
 40
0.25
 40
0.25
 40
0.5
 40
0.5
 40
0.5
 40
0.5
 40
1.0
 40
1.0
 40
1.0
 40
1.0
 10
-0.25682
 20
3.82979
 30
0.0
 10
-0.25682
 20
3.82979
 30
0.0
 10
0.94217
 20
3.21144
 30
0.0
 10
0.94217
 20
3.21144
 30
0.0
 10
0.94217
 20
3.21144
 30
0.0
 10
0.94217
 20
3.21144
 30
0.0
 10
0.94217
 20
4.44815
 30
0.0
 10
0.94217
 20
4.44815
 30
0.0
 10
0.94217
 20
4.44815
 30
0.0
 10
0.94217
 20
4.44815
 30
0.0
 10
-0.25682
 20
3.82979
 30
0.0
 10
-0.25682
 20
3.82979
 30
0.0
  0
SPLINE
  5
131
330
1F
100
AcDbEntity
  8
Layer 1
 62
   177
100
AcDbSpline
210
0.0
220
0.0
230
1.0
 70
    11
 71
     3
 72
    16
 73
    12
 74
     0
 42
0.0000000001
 43
0.0000000001
 12
1.0
 22
0.0
 32
0.0
 13
1.0
 23
0.0
 33
0.0
 40
0.0
 40
0.0
 40
0.0
 40
0.0
 40
0.25
 40
0.25
 40
0.25
 40
0.25
 40
0.5
 40
0.5
 40
0.5
 40
0.5
 40
1.0
 40
1.0
 40
1.0
 40
1.0
 10
2.4805
 20
4.00321
 30
0.0
 10
2.4805
 20
4.00321
 30
0.0
 10
2.4805
 20
5.23996
 30
0.0
 10
2.4805
 20
5.23996
 30
0.0
 10
2.4805
 20
5.23996
 30
0.0
 10
2.4805
 20
5.23996
 30
0.0
 10
1.27396
 20
4.62159
 30
0.0
 10
1.27396
 20
4.62159
 30
0.0
 10
1.27396
 20
4.62159
 30
0.0
 10
1.27396
 20
4.62159
 30
0.0
 10
2.4805
 20
4.00321
 30
0.0
 10
2.4805
 20
4.00321
 30
0.0
  0
SPLINE
  5
132
330
1F
100
AcDbEntity
  8
Layer 1
 62
   177
100
AcDbSpline
210
0.0
220
0.0
230
1.0
 70
    11
 71
     3
 72
    16
 73
    12
 74
     0
 42
0.0000000001
 43
0.0000000001
 12
1.0
 22
0.0
 32
0.0
 13
1.0
 23
0.0
 33
0.0
 40
0.0
 40
0.0
 40
0.0
 40
0.0
 40
0.25
 40
0.25
 40
0.25
 40
0.25
 40
0.5
 40
0.5
 40
0.5
 40
0.5
 40
1.0
 40
1.0
 40
1.0
 40
1.0
 10
-0.36994
 20
4.00321
 30
0.0
 10
-0.36994
 20
4.00321
 30
0.0
 10
-0.36994
 20
5.23996
 30
0.0
 10
-0.36994
 20
5.23996
 30
0.0
 10
-0.36994
 20
5.23996
 30
0.0
 10
-0.36994
 20
5.23996
 30
0.0
 10
0.82906
 20
4.62159
 30
0.0
 10
0.82906
 20
4.62159
 30
0.0
 10
0.82906
 20
4.62159
 30
0.0
 10
0.82906
 20
4.62159
 30
0.0
 10
-0.36994
 20
4.00321
 30
0.0
 10
-0.36994
 20
4.00321
 30
0.0
  0
SPLINE
  5
133
330
1F
100
AcDbEntity
  8
Layer 1
 62
   177
100
AcDbSpline
210
0.0
220
0.0
230
1.0
 70
    11
 71
     3
 72
    16
 73
    12
 74
     0
 42
0.0000000001
 43
0.0000000001
 12
1.0
 22
0.0
 32
0.0
 13
1.0
 23
0.0
 33
0.0
 40
0.0
 40
0.0
 40
0.0
 40
0.0
 40
0.25
 40
0.25
 40
0.25
 40
0.25
 40
0.5
 40
0.5
 40
0.5
 40
0.5
 40
1.0
 40
1.0
 40
1.0
 40
1.0
 10
5.43652
 20
3.82979
 30
0.0
 10
5.43652
 20
3.82979
 30
0.0
 10
4.22998
 20
3.21144
 30
0.0
 10
4.22998
 20
3.21144
 30
0.0
 10
4.22998
 20
3.21144
 30
0.0
 10
4.22998
 20
3.21144
 30
0.0
 10
4.22998
 20
4.44815
 30
0.0
 10
4.22998
 20
4.44815
 30
0.0
 10
4.22998
 20
4.44815
 30
0.0
 10
4.22998
 20
4.44815
 30
0.0
 10
5.43652
 20
3.82979
 30
0.0
 10
5.43652
 20
3.82979
 30
0.0
  0
SPLINE
  5
134
330
1F
100
AcDbEntity
  8
Layer 1
 62
   177
100
AcDbSpline
210
0.0
220
0.0
230
1.0
 70
    11
 71
     3
 72
    16
 73
    12
 74
     0
 42
0.0000000001
 43
0.0000000001
 12
1.0
 22
0.0
 32
0.0
 13
1.0
 23
0.0
 33
0.0
 40
0.0
 40
0.0
 40
0.0
 40
0.0
 40
0.25
 40
0.25
 40
0.25
 40
0.25
 40
0.5
 40
0.5
 40
0.5
 40
0.5
 40
1.0
 40
1.0
 40
1.0
 40
1.0
 10
2.80475
 20
3.82979
 30
0.0
 10
2.80475
 20
3.82979
 30
0.0
 10
4.01129
 20
3.21144
 30
0.0
 10
4.01129
 20
3.21144
 30
0.0
 10
4.01129
 20
3.21144
 30
0.0
 10
4.01129
 20
3.21144
 30
0.0
 10
4.01129
 20
4.44815
 30
0.0
 10
4.01129
 20
4.44815
 30
0.0
 10
4.01129
 20
4.44815
 30
0.0
 10
4.01129
 20
4.44815
 30
0.0
 10
2.80475
 20
3.82979
 30
0.0
 10
2.80475
 20
3.82979
 30
0.0
  0
SPLINE
  5
135
330
1F
100
AcDbEntity
  8
Layer 1
 62
   177
100
AcDbSpline
210
0.0
220
0.0
230
1.0
 70
    11
 71
     3
 72
    16
 73
    12
 74
     0
 42
0.0000000001
 43
0.0000000001
 12
1.0
 22
0.0
 32
0.0
 13
1.0
 23
0.0
 33
0.0
 40
0.0
 40
0.0
 40
0.0
 40
0.0
 40
0.25
 40
0.25
 40
0.25
 40
0.25
 40
0.5
 40
0.5
 40
0.5
 40
0.5
 40
1.0
 40
1.0
 40
1.0
 40
1.0
 10
5.54209
 20
4.00321
 30
0.0
 10
5.54209
 20
4.00321
 30
0.0
 10
5.54209
 20
5.23996
 30
0.0
 10
5.54209
 20
5.23996
 30
0.0
 10
5.54209
 20
5.23996
 30
0.0
 10
5.54209
 20
5.23996
 30
0.0
 10
4.3431
 20
4.62159
 30
0.0
 10
4.3431
 20
4.62159
 30
0.0
 10
4.3431
 20
4.62159
 30
0.0
 10
4.3431
 20
4.62159
 30
0.0
 10
5.54209
 20
4.00321
 30
0.0
 10
5.54209
 20
4.00321
 30
0.0
  0
SPLINE
  5
136
330
1F
100
AcDbEntity
  8
Layer 1
 62
   177
100
AcDbSpline
210
0.0
220
0.0
230
1.0
 70
    11
 71
     3
 72
    16
 73
    12
 74
     0
 42
0.0000000001
 43
0.0000000001
 12
1.0
 22
0.0
 32
0.0
 13
1.0
 23
0.0
 33
0.0
 40
0.0
 40
0.0
 40
0.0
 40
0.0
 40
0.25
 40
0.25
 40
0.25
 40
0.25
 40
0.5
 40
0.5
 40
0.5
 40
0.5
 40
1.0
 40
1.0
 40
1.0
 40
1.0
 10
2.69918
 20
4.00321
 30
0.0
 10
2.69918
 20
4.00321
 30
0.0
 10
2.69918
 20
5.23996
 30
0.0
 10
2.69918
 20
5.23996
 30
0.0
 10
2.69918
 20
5.23996
 30
0.0
 10
2.69918
 20
5.23996
 30
0.0
 10
3.90571
 20
4.62159
 30
0.0
 10
3.90571
 20
4.62159
 30
0.0
 10
3.90571
 20
4.62159
 30
0.0
 10
3.90571
 20
4.62159
 30
0.0
 10
2.69918
 20
4.00321
 30
0.0
 10
2.69918
 20
4.00321
 30
0.0
  0
SPLINE
  5
137
330
1F
100
AcDbEntity
  8
Layer 1
 62
   177
100
AcDbSpline
210
0.0
220
0.0
230
1.0
 70
    11
 71
     3
 72
    16
 73
    12
 74
     0
 42
0.0000000001
 43
0.0000000001
 12
1.0
 22
0.0
 32
0.0
 13
1.0
 23
0.0
 33
0.0
 40
0.0
 40
0.0
 40
0.0
 40
0.0
 40
0.25
 40
0.25
 40
0.25
 40
0.25
 40
0.5
 40
0.5
 40
0.5
 40
0.5
 40
1.0
 40
1.0
 40
1.0
 40
1.0
 10
8.49811
 20
3.82979
 30
0.0
 10
8.49811
 20
3.82979
 30
0.0
 10
7.29912
 20
3.21144
 30
0.0
 10
7.29912
 20
3.21144
 30
0.0
 10
7.29912
 20
3.21144
 30
0.0
 10
7.29912
 20
3.21144
 30
0.0
 10
7.29912
 20
4.44815
 30
0.0
 10
7.29912
 20
4.44815
 30
0.0
 10
7.29912
 20
4.44815
 30
0.0
 10
7.29912
 20
4.44815
 30
0.0
 10
8.49811
 20
3.82979
 30
0.0
 10
8.49811
 20
3.82979
 30
0.0
  0
SPLINE
  5
138
330
1F
100
AcDbEntity
  8
Layer 1
 62
   177
100
AcDbSpline
210
0.0
220
0.0
230
1.0
 70
    11
 71
     3
 72
    16
 73
    12
 74
     0
 42
0.0000000001
 43
0.0000000001
 12
1.0
 22
0.0
 32
0.0
 13
1.0
 23
0.0
 33
0.0
 40
0.0
 40
0.0
 40
0.0
 40
0.0
 40
0.25
 40
0.25
 40
0.25
 40
0.25
 40
0.5
 40
0.5
 40
0.5
 40
0.5
 40
1.0
 40
1.0
 40
1.0
 40
1.0
 10
5.87389
 20
3.82979
 30
0.0
 10
5.87389
 20
3.82979
 30
0.0
 10
7.08043
 20
3.21144
 30
0.0
 10
7.08043
 20
3.21144
 30
0.0
 10
7.08043
 20
3.21144
 30
0.0
 10
7.08043
 20
3.21144
 30
0.0
 10
7.08043
 20
4.44815
 30
0.0
 10
7.08043
 20
4.44815
 30
0.0
 10
7.08043
 20
4.44815
 30
0.0
 10
7.08043
 20
4.44815
 30
0.0
 10
5.87389
 20
3.82979
 30
0.0
 10
5.87389
 20
3.82979
 30
0.0
  0
SPLINE
  5
139
330
1F
100
AcDbEntity
  8
Layer 1
 62
   177
100
AcDbSpline
210
0.0
220
0.0
230
1.0
 70
    11
 71
     3
 72
    16
 73
    12
 74
     0
 42
0.0000000001
 43
0.0000000001
 12
1.0
 22
0.0
 32
0.0
 13
1.0
 23
0.0
 33
0.0
 40
0.0
 40
0.0
 40
0.0
 40
0.0
 40
0.25
 40
0.25
 40
0.25
 40
0.25
 40
0.5
 40
0.5
 40
0.5
 40
0.5
 40
1.0
 40
1.0
 40
1.0
 40
1.0
 10
8.61123
 20
4.00321
 30
0.0
 10
8.61123
 20
4.00321
 30
0.0
 10
8.61123
 20
5.23996
 30
0.0
 10
8.61123
 20
5.23996
 30
0.0
 10
8.61123
 20
5.23996
 30
0.0
 10
8.61123
 20
5.23996
 30
0.0
 10
7.41224
 20
4.62159
 30
0.0
 10
7.41224
 20
4.62159
 30
0.0
 10
7.41224
 20
4.62159
 30
0.0
 10
7.41224
 20
4.62159
 30
0.0
 10
8.61123
 20
4.00321
 30
0.0
 10
8.61123
 20
4.00321
 30
0.0
  0
SPLINE
  5
13A
330
1F
100
AcDbEntity
  8
Layer 1
 62
   177
100
AcDbSpline
210
0.0
220
0.0
230
1.0
 70
    11
 71
     3
 72
    16
 73
    12
 74
     0
 42
0.0000000001
 43
0.0000000001
 12
1.0
 22
0.0
 32
0.0
 13
1.0
 23
0.0
 33
0.0
 40
0.0
 40
0.0
 40
0.0
 40
0.0
 40
0.25
 40
0.25
 40
0.25
 40
0.25
 40
0.5
 40
0.5
 40
0.5
 40
0.5
 40
1.0
 40
1.0
 40
1.0
 40
1.0
 10
5.76831
 20
4.00321
 30
0.0
 10
5.76831
 20
4.00321
 30
0.0
 10
5.76831
 20
5.23996
 30
0.0
 10
5.76831
 20
5.23996
 30
0.0
 10
5.76831
 20
5.23996
 30
0.0
 10
5.76831
 20
5.23996
 30
0.0
 10
6.96732
 20
4.62159
 30
0.0
 10
6.96732
 20
4.62159
 30
0.0
 10
6.96732
 20
4.62159
 30
0.0
 10
6.96732
 20
4.62159
 30
0.0
 10
5.76831
 20
4.00321
 30
0.0
 10
5.76831
 20
4.00321
 30
0.0
  0
SPLINE
  5
13B
330
1F
100
AcDbEntity
  8
Layer 1
 62
   177
100
AcDbSpline
210
0.0
220
0.0
230
1.0
 70
    11
 71
     3
 72
    16
 73
    12
 74
     0
 42
0.0000000001
 43
0.0000000001
 12
1.0
 22
0.0
 32
0.0
 13
1.0
 23
0.0
 33
0.0
 40
0.0
 40
0.0
 40
0.0
 40
0.0
 40
0.25
 40
0.25
 40
0.25
 40
0.25
 40
0.5
 40
0.5
 40
0.5
 40
0.5
 40
1.0
 40
1.0
 40
1.0
 40
1.0
 10
11.57479
 20
3.82979
 30
0.0
 10
11.57479
 20
3.82979
 30
0.0
 10
10.36825
 20
3.21144
 30
0.0
 10
10.36825
 20
3.21144
 30
0.0
 10
10.36825
 20
3.21144
 30
0.0
 10
10.36825
 20
3.21144
 30
0.0
 10
10.36825
 20
4.44815
 30
0.0
 10
10.36825
 20
4.44815
 30
0.0
 10
10.36825
 20
4.44815
 30
0.0
 10
10.36825
 20
4.44815
 30
0.0
 10
11.57479
 20
3.82979
 30
0.0
 10
11.57479
 20
3.82979
 30
0.0
  0
SPLINE
  5
13C
330
1F
100
AcDbEntity
  8
Layer 1
 62
   177
100
AcDbSpline
210
0.0
220
0.0
230
1.0
 70
    11
 71
     3
 72
    16
 73
    12
 74
     0
 42
0.0000000001
 43
0.0000000001
 12
1.0
 22
0.0
 32
0.0
 13
1.0
 23
0.0
 33
0.0
 40
0.0
 40
0.0
 40
0.0
 40
0.0
 40
0.25
 40
0.25
 40
0.25
 40
0.25
 40
0.5
 40
0.5
 40
0.5
 40
0.5
 40
1.0
 40
1.0
 40
1.0
 40
1.0
 10
8.94303
 20
3.82979
 30
0.0
 10
8.94303
 20
3.82979
 30
0.0
 10
10.14956
 20
3.21144
 30
0.0
 10
10.14956
 20
3.21144
 30
0.0
 10
10.14956
 20
3.21144
 30
0.0
 10
10.14956
 20
3.21144
 30
0.0
 10
10.14956
 20
4.44815
 30
0.0
 10
10.14956
 20
4.44815
 30
0.0
 10
10.14956
 20
4.44815
 30
0.0
 10
10.14956
 20
4.44815
 30
0.0
 10
8.94303
 20
3.82979
 30
0.0
 10
8.94303
 20
3.82979
 30
0.0
  0
SPLINE
  5
13D
330
1F
100
AcDbEntity
  8
Layer 1
 62
   177
100
AcDbSpline
210
0.0
220
0.0
230
1.0
 70
    11
 71
     3
 72
    16
 73
    12
 74
     0
 42
0.0000000001
 43
0.0000000001
 12
1.0
 22
0.0
 32
0.0
 13
1.0
 23
0.0
 33
0.0
 40
0.0
 40
0.0
 40
0.0
 40
0.0
 40
0.25
 40
0.25
 40
0.25
 40
0.25
 40
0.5
 40
0.5
 40
0.5
 40
0.5
 40
1.0
 40
1.0
 40
1.0
 40
1.0
 10
11.68037
 20
4.00321
 30
0.0
 10
11.68037
 20
4.00321
 30
0.0
 10
11.68037
 20
5.23996
 30
0.0
 10
11.68037
 20
5.23996
 30
0.0
 10
11.68037
 20
5.23996
 30
0.0
 10
11.68037
 20
5.23996
 30
0.0
 10
10.47382
 20
4.62159
 30
0.0
 10
10.47382
 20
4.62159
 30
0.0
 10
10.47382
 20
4.62159
 30
0.0
 10
10.47382
 20
4.62159
 30
0.0
 10
11.68037
 20
4.00321
 30
0.0
 10
11.68037
 20
4.00321
 30
0.0
  0
SPLINE
  5
13E
330
1F
100
AcDbEntity
  8
Layer 1
 62
   177
100
AcDbSpline
210
0.0
220
0.0
230
1.0
 70
    11
 71
     3
 72
    16
 73
    12
 74
     0
 42
0.0000000001
 43
0.0000000001
 12
1.0
 22
0.0
 32
0.0
 13
1.0
 23
0.0
 33
0.0
 40
0.0
 40
0.0
 40
0.0
 40
0.0
 40
0.25
 40
0.25
 40
0.25
 40
0.25
 40
0.5
 40
0.5
 40
0.5
 40
0.5
 40
1.0
 40
1.0
 40
1.0
 40
1.0
 10
8.82992
 20
4.00321
 30
0.0
 10
8.82992
 20
4.00321
 30
0.0
 10
8.82992
 20
5.23996
 30
0.0
 10
8.82992
 20
5.23996
 30
0.0
 10
8.82992
 20
5.23996
 30
0.0
 10
8.82992
 20
5.23996
 30
0.0
 10
10.03645
 20
4.62159
 30
0.0
 10
10.03645
 20
4.62159
 30
0.0
 10
10.03645
 20
4.62159
 30
0.0
 10
10.03645
 20
4.62159
 30
0.0
 10
8.82992
 20
4.00321
 30
0.0
 10
8.82992
 20
4.00321
 30
0.0
  0
SPLINE
  5
13F
330
1F
100
AcDbEntity
  8
Layer 1
 62
   177
100
AcDbSpline
210
0.0
220
0.0
230
1.0
 70
    11
 71
     3
 72
    16
 73
    12
 74
     0
 42
0.0000000001
 43
0.0000000001
 12
1.0
 22
0.0
 32
0.0
 13
1.0
 23
0.0
 33
0.0
 40
0.0
 40
0.0
 40
0.0
 40
0.0
 40
0.25
 40
0.25
 40
0.25
 40
0.25
 40
0.5
 40
0.5
 40
0.5
 40
0.5
 40
1.0
 40
1.0
 40
1.0
 40
1.0
 10
5.76831
 20
-5.80745
 30
0.0
 10
5.76831
 20
-5.80745
 30
0.0
 10
6.96732
 20
-6.4258
 30
0.0
 10
6.96732
 20
-6.4258
 30
0.0
 10
6.96732
 20
-6.4258
 30
0.0
 10
6.96732
 20
-6.4258
 30
0.0
 10
5.76831
 20
-7.05169
 30
0.0
 10
5.76831
 20
-7.05169
 30
0.0
 10
5.76831
 20
-7.05169
 30
0.0
 10
5.76831
 20
-7.05169
 30
0.0
 10
5.76831
 20
-5.80745
 30
0.0
 10
5.76831
 20
-5.80745
 30
0.0
  0
SPLINE
  5
140
330
1F
100
AcDbEntity
  8
Layer 1
 62
   177
100
AcDbSpline
210
0.0
220
0.0
230
1.0
 70
    11
 71
     3
 72
    16
 73
    12
 74
     0
 42
0.0000000001
 43
0.0000000001
 12
1.0
 22
0.0
 32
0.0
 13
1.0
 23
0.0
 33
0.0
 40
0.0
 40
0.0
 40
0.0
 40
0.0
 40
0.25
 40
0.25
 40
0.25
 40
0.25
 40
0.5
 40
0.5
 40
0.5
 40
0.5
 40
1.0
 40
1.0
 40
1.0
 40
1.0
 10
5.54209
 20
-5.80745
 30
0.0
 10
5.54209
 20
-5.80745
 30
0.0
 10
4.3431
 20
-6.4258
 30
0.0
 10
4.3431
 20
-6.4258
 30
0.0
 10
4.3431
 20
-6.4258
 30
0.0
 10
4.3431
 20
-6.4258
 30
0.0
 10
5.54209
 20
-7.05169
 30
0.0
 10
5.54209
 20
-7.05169
 30
0.0
 10
5.54209
 20
-7.05169
 30
0.0
 10
5.54209
 20
-7.05169
 30
0.0
 10
5.54209
 20
-5.80745
 30
0.0
 10
5.54209
 20
-5.80745
 30
0.0
  0
SPLINE
  5
141
330
1F
100
AcDbEntity
  8
Layer 1
 62
   177
100
AcDbSpline
210
0.0
220
0.0
230
1.0
 70
    11
 71
     3
 72
    16
 73
    12
 74
     0
 42
0.0000000001
 43
0.0000000001
 12
1.0
 22
0.0
 32
0.0
 13
1.0
 23
0.0
 33
0.0
 40
0.0
 40
0.0
 40
0.0
 40
0.0
 40
0.25
 40
0.25
 40
0.25
 40
0.25
 40
0.5
 40
0.5
 40
0.5
 40
0.5
 40
1.0
 40
1.0
 40
1.0
 40
1.0
 10
8.49811
 20
-5.64156
 30
0.0
 10
8.49811
 20
-5.64156
 30
0.0
 10
7.29912
 20
-6.25989
 30
0.0
 10
7.29912
 20
-6.25989
 30
0.0
 10
7.29912
 20
-6.25989
 30
0.0
 10
7.29912
 20
-6.25989
 30
0.0
 10
7.29912
 20
-5.01566
 30
0.0
 10
7.29912
 20
-5.01566
 30
0.0
 10
7.29912
 20
-5.01566
 30
0.0
 10
7.29912
 20
-5.01566
 30
0.0
 10
8.49811
 20
-5.64156
 30
0.0
 10
8.49811
 20
-5.64156
 30
0.0
  0
SPLINE
  5
142
330
1F
100
AcDbEntity
  8
Layer 1
 62
   177
100
AcDbSpline
210
0.0
220
0.0
230
1.0
 70
    11
 71
     3
 72
    16
 73
    12
 74
     0
 42
0.0000000001
 43
0.0000000001
 12
1.0
 22
0.0
 32
0.0
 13
1.0
 23
0.0
 33
0.0
 40
0.0
 40
0.0
 40
0.0
 40
0.0
 40
0.25
 40
0.25
 40
0.25
 40
0.25
 40
0.5
 40
0.5
 40
0.5
 40
0.5
 40
1.0
 40
1.0
 40
1.0
 40
1.0
 10
5.87389
 20
-5.64156
 30
0.0
 10
5.87389
 20
-5.64156
 30
0.0
 10
7.08043
 20
-6.25989
 30
0.0
 10
7.08043
 20
-6.25989
 30
0.0
 10
7.08043
 20
-6.25989
 30
0.0
 10
7.08043
 20
-6.25989
 30
0.0
 10
7.08043
 20
-5.01566
 30
0.0
 10
7.08043
 20
-5.01566
 30
0.0
 10
7.08043
 20
-5.01566
 30
0.0
 10
7.08043
 20
-5.01566
 30
0.0
 10
5.87389
 20
-5.64156
 30
0.0
 10
5.87389
 20
-5.64156
 30
0.0
  0
SPLINE
  5
143
330
1F
100
AcDbEntity
  8
Layer 1
 62
   177
100
AcDbSpline
210
0.0
220
0.0
230
1.0
 70
    11
 71
     3
 72
    16
 73
    12
 74
     0
 42
0.0000000001
 43
0.0000000001
 12
1.0
 22
0.0
 32
0.0
 13
1.0
 23
0.0
 33
0.0
 40
0.0
 40
0.0
 40
0.0
 40
0.0
 40
0.25
 40
0.25
 40
0.25
 40
0.25
 40
0.5
 40
0.5
 40
0.5
 40
0.5
 40
1.0
 40
1.0
 40
1.0
 40
1.0
 10
8.61123
 20
-5.46811
 30
0.0
 10
8.61123
 20
-5.46811
 30
0.0
 10
8.61123
 20
-4.23142
 30
0.0
 10
8.61123
 20
-4.23142
 30
0.0
 10
8.61123
 20
-4.23142
 30
0.0
 10
8.61123
 20
-4.23142
 30
0.0
 10
7.41224
 20
-4.84975
 30
0.0
 10
7.41224
 20
-4.84975
 30
0.0
 10
7.41224
 20
-4.84975
 30
0.0
 10
7.41224
 20
-4.84975
 30
0.0
 10
8.61123
 20
-5.46811
 30
0.0
 10
8.61123
 20
-5.46811
 30
0.0
  0
SPLINE
  5
144
330
1F
100
AcDbEntity
  8
Layer 1
 62
   177
100
AcDbSpline
210
0.0
220
0.0
230
1.0
 70
    11
 71
     3
 72
    16
 73
    12
 74
     0
 42
0.0000000001
 43
0.0000000001
 12
1.0
 22
0.0
 32
0.0
 13
1.0
 23
0.0
 33
0.0
 40
0.0
 40
0.0
 40
0.0
 40
0.0
 40
0.25
 40
0.25
 40
0.25
 40
0.25
 40
0.5
 40
0.5
 40
0.5
 40
0.5
 40
1.0
 40
1.0
 40
1.0
 40
1.0
 10
7.29912
 20
-3.43961
 30
0.0
 10
7.29912
 20
-3.43961
 30
0.0
 10
8.49811
 20
-4.05797
 30
0.0
 10
8.49811
 20
-4.05797
 30
0.0
 10
8.49811
 20
-4.05797
 30
0.0
 10
8.49811
 20
-4.05797
 30
0.0
 10
7.29912
 20
-4.68386
 30
0.0
 10
7.29912
 20
-4.68386
 30
0.0
 10
7.29912
 20
-4.68386
 30
0.0
 10
7.29912
 20
-4.68386
 30
0.0
 10
7.29912
 20
-3.43961
 30
0.0
 10
7.29912
 20
-3.43961
 30
0.0
  0
SPLINE
  5
145
330
1F
100
AcDbEntity
  8
Layer 1
 62
   177
100
AcDbSpline
210
0.0
220
0.0
230
1.0
 70
    11
 71
     3
 72
    16
 73
    12
 74
     0
 42
0.0000000001
 43
0.0000000001
 12
1.0
 22
0.0
 32
0.0
 13
1.0
 23
0.0
 33
0.0
 40
0.0
 40
0.0
 40
0.0
 40
0.0
 40
0.25
 40
0.25
 40
0.25
 40
0.25
 40
0.5
 40
0.5
 40
0.5
 40
0.5
 40
1.0
 40
1.0
 40
1.0
 40
1.0
 10
7.08043
 20
-3.43961
 30
0.0
 10
7.08043
 20
-3.43961
 30
0.0
 10
5.87389
 20
-4.05797
 30
0.0
 10
5.87389
 20
-4.05797
 30
0.0
 10
5.87389
 20
-4.05797
 30
0.0
 10
5.87389
 20
-4.05797
 30
0.0
 10
7.08043
 20
-4.68386
 30
0.0
 10
7.08043
 20
-4.68386
 30
0.0
 10
7.08043
 20
-4.68386
 30
0.0
 10
7.08043
 20
-4.68386
 30
0.0
 10
7.08043
 20
-3.43961
 30
0.0
 10
7.08043
 20
-3.43961
 30
0.0
  0
SPLINE
  5
146
330
1F
100
AcDbEntity
  8
Layer 1
 62
   177
100
AcDbSpline
210
0.0
220
0.0
230
1.0
 70
    11
 71
     3
 72
    16
 73
    12
 74
     0
 42
0.0000000001
 43
0.0000000001
 12
1.0
 22
0.0
 32
0.0
 13
1.0
 23
0.0
 33
0.0
 40
0.0
 40
0.0
 40
0.0
 40
0.0
 40
0.25
 40
0.25
 40
0.25
 40
0.25
 40
0.5
 40
0.5
 40
0.5
 40
0.5
 40
1.0
 40
1.0
 40
1.0
 40
1.0
 10
5.76831
 20
-5.46811
 30
0.0
 10
5.76831
 20
-5.46811
 30
0.0
 10
5.76831
 20
-4.23142
 30
0.0
 10
5.76831
 20
-4.23142
 30
0.0
 10
5.76831
 20
-4.23142
 30
0.0
 10
5.76831
 20
-4.23142
 30
0.0
 10
6.96732
 20
-4.84975
 30
0.0
 10
6.96732
 20
-4.84975
 30
0.0
 10
6.96732
 20
-4.84975
 30
0.0
 10
6.96732
 20
-4.84975
 30
0.0
 10
5.76831
 20
-5.46811
 30
0.0
 10
5.76831
 20
-5.46811
 30
0.0
  0
SPLINE
  5
147
330
1F
100
AcDbEntity
  8
Layer 1
 62
   177
100
AcDbSpline
210
0.0
220
0.0
230
1.0
 70
    11
 71
     3
 72
    16
 73
    12
 74
     0
 42
0.0000000001
 43
0.0000000001
 12
1.0
 22
0.0
 32
0.0
 13
1.0
 23
0.0
 33
0.0
 40
0.0
 40
0.0
 40
0.0
 40
0.0
 40
0.25
 40
0.25
 40
0.25
 40
0.25
 40
0.5
 40
0.5
 40
0.5
 40
0.5
 40
1.0
 40
1.0
 40
1.0
 40
1.0
 10
10.03645
 20
-3.27372
 30
0.0
 10
10.03645
 20
-3.27372
 30
0.0
 10
8.82992
 20
-3.89206
 30
0.0
 10
8.82992
 20
-3.89206
 30
0.0
 10
8.82992
 20
-3.89206
 30
0.0
 10
8.82992
 20
-3.89206
 30
0.0
 10
8.82992
 20
-2.65537
 30
0.0
 10
8.82992
 20
-2.65537
 30
0.0
 10
8.82992
 20
-2.65537
 30
0.0
 10
8.82992
 20
-2.65537
 30
0.0
 10
10.03645
 20
-3.27372
 30
0.0
 10
10.03645
 20
-3.27372
 30
0.0
  0
SPLINE
  5
148
330
1F
100
AcDbEntity
  8
Layer 1
 62
   177
100
AcDbSpline
210
0.0
220
0.0
230
1.0
 70
    11
 71
     3
 72
    16
 73
    12
 74
     0
 42
0.0000000001
 43
0.0000000001
 12
1.0
 22
0.0
 32
0.0
 13
1.0
 23
0.0
 33
0.0
 40
0.0
 40
0.0
 40
0.0
 40
0.0
 40
0.25
 40
0.25
 40
0.25
 40
0.25
 40
0.5
 40
0.5
 40
0.5
 40
0.5
 40
1.0
 40
1.0
 40
1.0
 40
1.0
 10
7.41224
 20
-3.27372
 30
0.0
 10
7.41224
 20
-3.27372
 30
0.0
 10
8.61123
 20
-3.89206
 30
0.0
 10
8.61123
 20
-3.89206
 30
0.0
 10
8.61123
 20
-3.89206
 30
0.0
 10
8.61123
 20
-3.89206
 30
0.0
 10
8.61123
 20
-2.65537
 30
0.0
 10
8.61123
 20
-2.65537
 30
0.0
 10
8.61123
 20
-2.65537
 30
0.0
 10
8.61123
 20
-2.65537
 30
0.0
 10
7.41224
 20
-3.27372
 30
0.0
 10
7.41224
 20
-3.27372
 30
0.0
  0
SPLINE
  5
149
330
1F
100
AcDbEntity
  8
Layer 1
 62
   177
100
AcDbSpline
210
0.0
220
0.0
230
1.0
 70
    11
 71
     3
 72
    16
 73
    12
 74
     0
 42
0.0000000001
 43
0.0000000001
 12
1.0
 22
0.0
 32
0.0
 13
1.0
 23
0.0
 33
0.0
 40
0.0
 40
0.0
 40
0.0
 40
0.0
 40
0.25
 40
0.25
 40
0.25
 40
0.25
 40
0.5
 40
0.5
 40
0.5
 40
0.5
 40
1.0
 40
1.0
 40
1.0
 40
1.0
 10
10.14956
 20
-3.10027
 30
0.0
 10
10.14956
 20
-3.10027
 30
0.0
 10
10.14956
 20
-1.87112
 30
0.0
 10
10.14956
 20
-1.87112
 30
0.0
 10
10.14956
 20
-1.87112
 30
0.0
 10
10.14956
 20
-1.87112
 30
0.0
 10
8.94303
 20
-2.48945
 30
0.0
 10
8.94303
 20
-2.48945
 30
0.0
 10
8.94303
 20
-2.48945
 30
0.0
 10
8.94303
 20
-2.48945
 30
0.0
 10
10.14956
 20
-3.10027
 30
0.0
 10
10.14956
 20
-3.10027
 30
0.0
  0
SPLINE
  5
14A
330
1F
100
AcDbEntity
  8
Layer 1
 62
   177
100
AcDbSpline
210
0.0
220
0.0
230
1.0
 70
    11
 71
     3
 72
    16
 73
    12
 74
     0
 42
0.0000000001
 43
0.0000000001
 12
1.0
 22
0.0
 32
0.0
 13
1.0
 23
0.0
 33
0.0
 40
0.0
 40
0.0
 40
0.0
 40
0.0
 40
0.25
 40
0.25
 40
0.25
 40
0.25
 40
0.5
 40
0.5
 40
0.5
 40
0.5
 40
1.0
 40
1.0
 40
1.0
 40
1.0
 10
8.82992
 20
-1.07932
 30
0.0
 10
8.82992
 20
-1.07932
 30
0.0
 10
10.03645
 20
-1.69767
 30
0.0
 10
10.03645
 20
-1.69767
 30
0.0
 10
10.03645
 20
-1.69767
 30
0.0
 10
10.03645
 20
-1.69767
 30
0.0
 10
8.82992
 20
-2.32357
 30
0.0
 10
8.82992
 20
-2.32357
 30
0.0
 10
8.82992
 20
-2.32357
 30
0.0
 10
8.82992
 20
-2.32357
 30
0.0
 10
8.82992
 20
-1.07932
 30
0.0
 10
8.82992
 20
-1.07932
 30
0.0
  0
SPLINE
  5
14B
330
1F
100
AcDbEntity
  8
Layer 1
 62
   177
100
AcDbSpline
210
0.0
220
0.0
230
1.0
 70
    11
 71
     3
 72
    16
 73
    12
 74
     0
 42
0.0000000001
 43
0.0000000001
 12
1.0
 22
0.0
 32
0.0
 13
1.0
 23
0.0
 33
0.0
 40
0.0
 40
0.0
 40
0.0
 40
0.0
 40
0.25
 40
0.25
 40
0.25
 40
0.25
 40
0.5
 40
0.5
 40
0.5
 40
0.5
 40
1.0
 40
1.0
 40
1.0
 40
1.0
 10
8.61123
 20
-1.07932
 30
0.0
 10
8.61123
 20
-1.07932
 30
0.0
 10
7.41224
 20
-1.69767
 30
0.0
 10
7.41224
 20
-1.69767
 30
0.0
 10
7.41224
 20
-1.69767
 30
0.0
 10
7.41224
 20
-1.69767
 30
0.0
 10
8.61123
 20
-2.32357
 30
0.0
 10
8.61123
 20
-2.32357
 30
0.0
 10
8.61123
 20
-2.32357
 30
0.0
 10
8.61123
 20
-2.32357
 30
0.0
 10
8.61123
 20
-1.07932
 30
0.0
 10
8.61123
 20
-1.07932
 30
0.0
  0
SPLINE
  5
14C
330
1F
100
AcDbEntity
  8
Layer 1
 62
   177
100
AcDbSpline
210
0.0
220
0.0
230
1.0
 70
    11
 71
     3
 72
    16
 73
    12
 74
     0
 42
0.0000000001
 43
0.0000000001
 12
1.0
 22
0.0
 32
0.0
 13
1.0
 23
0.0
 33
0.0
 40
0.0
 40
0.0
 40
0.0
 40
0.0
 40
0.25
 40
0.25
 40
0.25
 40
0.25
 40
0.5
 40
0.5
 40
0.5
 40
0.5
 40
1.0
 40
1.0
 40
1.0
 40
1.0
 10
7.29912
 20
-3.10027
 30
0.0
 10
7.29912
 20
-3.10027
 30
0.0
 10
7.29912
 20
-1.87112
 30
0.0
 10
7.29912
 20
-1.87112
 30
0.0
 10
7.29912
 20
-1.87112
 30
0.0
 10
7.29912
 20
-1.87112
 30
0.0
 10
8.49811
 20
-2.48945
 30
0.0
 10
8.49811
 20
-2.48945
 30
0.0
 10
8.49811
 20
-2.48945
 30
0.0
 10
8.49811
 20
-2.48945
 30
0.0
 10
7.29912
 20
-3.10027
 30
0.0
 10
7.29912
 20
-3.10027
 30
0.0
  0
SPLINE
  5
14D
330
1F
100
AcDbEntity
  8
Layer 1
 62
   177
100
AcDbSpline
210
0.0
220
0.0
230
1.0
 70
    11
 71
     3
 72
    16
 73
    12
 74
     0
 42
0.0000000001
 43
0.0000000001
 12
1.0
 22
0.0
 32
0.0
 13
1.0
 23
0.0
 33
0.0
 40
0.0
 40
0.0
 40
0.0
 40
0.0
 40
0.25
 40
0.25
 40
0.25
 40
0.25
 40
0.5
 40
0.5
 40
0.5
 40
0.5
 40
1.0
 40
1.0
 40
1.0
 40
1.0
 10
11.57479
 20
-0.91343
 30
0.0
 10
11.57479
 20
-0.91343
 30
0.0
 10
10.36825
 20
-1.53175
 30
0.0
 10
10.36825
 20
-1.53175
 30
0.0
 10
10.36825
 20
-1.53175
 30
0.0
 10
10.36825
 20
-1.53175
 30
0.0
 10
10.36825
 20
-0.28753
 30
0.0
 10
10.36825
 20
-0.28753
 30
0.0
 10
10.36825
 20
-0.28753
 30
0.0
 10
10.36825
 20
-0.28753
 30
0.0
 10
11.57479
 20
-0.91343
 30
0.0
 10
11.57479
 20
-0.91343
 30
0.0
  0
SPLINE
  5
14E
330
1F
100
AcDbEntity
  8
Layer 1
 62
   177
100
AcDbSpline
210
0.0
220
0.0
230
1.0
 70
    11
 71
     3
 72
    16
 73
    12
 74
     0
 42
0.0000000001
 43
0.0000000001
 12
1.0
 22
0.0
 32
0.0
 13
1.0
 23
0.0
 33
0.0
 40
0.0
 40
0.0
 40
0.0
 40
0.0
 40
0.25
 40
0.25
 40
0.25
 40
0.25
 40
0.5
 40
0.5
 40
0.5
 40
0.5
 40
1.0
 40
1.0
 40
1.0
 40
1.0
 10
8.94303
 20
-0.91343
 30
0.0
 10
8.94303
 20
-0.91343
 30
0.0
 10
10.14956
 20
-1.53175
 30
0.0
 10
10.14956
 20
-1.53175
 30
0.0
 10
10.14956
 20
-1.53175
 30
0.0
 10
10.14956
 20
-1.53175
 30
0.0
 10
10.14956
 20
-0.28753
 30
0.0
 10
10.14956
 20
-0.28753
 30
0.0
 10
10.14956
 20
-0.28753
 30
0.0
 10
10.14956
 20
-0.28753
 30
0.0
 10
8.94303
 20
-0.91343
 30
0.0
 10
8.94303
 20
-0.91343
 30
0.0
  0
SPLINE
  5
14F
330
1F
100
AcDbEntity
  8
Layer 1
 62
   177
100
AcDbSpline
210
0.0
220
0.0
230
1.0
 70
    11
 71
     3
 72
    16
 73
    12
 74
     0
 42
0.0000000001
 43
0.0000000001
 12
1.0
 22
0.0
 32
0.0
 13
1.0
 23
0.0
 33
0.0
 40
0.0
 40
0.0
 40
0.0
 40
0.0
 40
0.25
 40
0.25
 40
0.25
 40
0.25
 40
0.5
 40
0.5
 40
0.5
 40
0.5
 40
1.0
 40
1.0
 40
1.0
 40
1.0
 10
11.68037
 20
-0.73997
 30
0.0
 10
11.68037
 20
-0.73997
 30
0.0
 10
11.68037
 20
0.49673
 30
0.0
 10
11.68037
 20
0.49673
 30
0.0
 10
11.68037
 20
0.49673
 30
0.0
 10
11.68037
 20
0.49673
 30
0.0
 10
10.47382
 20
-0.12163
 30
0.0
 10
10.47382
 20
-0.12163
 30
0.0
 10
10.47382
 20
-0.12163
 30
0.0
 10
10.47382
 20
-0.12163
 30
0.0
 10
11.68037
 20
-0.73997
 30
0.0
 10
11.68037
 20
-0.73997
 30
0.0
  0
SPLINE
  5
150
330
1F
100
AcDbEntity
  8
Layer 1
 62
   177
100
AcDbSpline
210
0.0
220
0.0
230
1.0
 70
    11
 71
     3
 72
    16
 73
    12
 74
     0
 42
0.0000000001
 43
0.0000000001
 12
1.0
 22
0.0
 32
0.0
 13
1.0
 23
0.0
 33
0.0
 40
0.0
 40
0.0
 40
0.0
 40
0.0
 40
0.25
 40
0.25
 40
0.25
 40
0.25
 40
0.5
 40
0.5
 40
0.5
 40
0.5
 40
1.0
 40
1.0
 40
1.0
 40
1.0
 10
10.36825
 20
1.28851
 30
0.0
 10
10.36825
 20
1.28851
 30
0.0
 10
11.57479
 20
0.67015
 30
0.0
 10
11.57479
 20
0.67015
 30
0.0
 10
11.57479
 20
0.67015
 30
0.0
 10
11.57479
 20
0.67015
 30
0.0
 10
10.36825
 20
0.04427
 30
0.0
 10
10.36825
 20
0.04427
 30
0.0
 10
10.36825
 20
0.04427
 30
0.0
 10
10.36825
 20
0.04427
 30
0.0
 10
10.36825
 20
1.28851
 30
0.0
 10
10.36825
 20
1.28851
 30
0.0
  0
SPLINE
  5
151
330
1F
100
AcDbEntity
  8
Layer 1
 62
   177
100
AcDbSpline
210
0.0
220
0.0
230
1.0
 70
    11
 71
     3
 72
    16
 73
    12
 74
     0
 42
0.0000000001
 43
0.0000000001
 12
1.0
 22
0.0
 32
0.0
 13
1.0
 23
0.0
 33
0.0
 40
0.0
 40
0.0
 40
0.0
 40
0.0
 40
0.25
 40
0.25
 40
0.25
 40
0.25
 40
0.5
 40
0.5
 40
0.5
 40
0.5
 40
1.0
 40
1.0
 40
1.0
 40
1.0
 10
10.14956
 20
1.28851
 30
0.0
 10
10.14956
 20
1.28851
 30
0.0
 10
8.94303
 20
0.67015
 30
0.0
 10
8.94303
 20
0.67015
 30
0.0
 10
8.94303
 20
0.67015
 30
0.0
 10
8.94303
 20
0.67015
 30
0.0
 10
10.14956
 20
0.04427
 30
0.0
 10
10.14956
 20
0.04427
 30
0.0
 10
10.14956
 20
0.04427
 30
0.0
 10
10.14956
 20
0.04427
 30
0.0
 10
10.14956
 20
1.28851
 30
0.0
 10
10.14956
 20
1.28851
 30
0.0
  0
SPLINE
  5
152
330
1F
100
AcDbEntity
  8
Layer 1
 62
   177
100
AcDbSpline
210
0.0
220
0.0
230
1.0
 70
    11
 71
     3
 72
    16
 73
    12
 74
     0
 42
0.0000000001
 43
0.0000000001
 12
1.0
 22
0.0
 32
0.0
 13
1.0
 23
0.0
 33
0.0
 40
0.0
 40
0.0
 40
0.0
 40
0.0
 40
0.25
 40
0.25
 40
0.25
 40
0.25
 40
0.5
 40
0.5
 40
0.5
 40
0.5
 40
1.0
 40
1.0
 40
1.0
 40
1.0
 10
8.82992
 20
-0.73997
 30
0.0
 10
8.82992
 20
-0.73997
 30
0.0
 10
8.82992
 20
0.49673
 30
0.0
 10
8.82992
 20
0.49673
 30
0.0
 10
8.82992
 20
0.49673
 30
0.0
 10
8.82992
 20
0.49673
 30
0.0
 10
10.03645
 20
-0.12163
 30
0.0
 10
10.03645
 20
-0.12163
 30
0.0
 10
10.03645
 20
-0.12163
 30
0.0
 10
10.03645
 20
-0.12163
 30
0.0
 10
8.82992
 20
-0.73997
 30
0.0
 10
8.82992
 20
-0.73997
 30
0.0
  0
SPLINE
  5
153
330
1F
100
AcDbEntity
  8
Layer 1
 62
   177
100
AcDbSpline
210
0.0
220
0.0
230
1.0
 70
    11
 71
     3
 72
    16
 73
    12
 74
     0
 42
0.0000000001
 43
0.0000000001
 12
1.0
 22
0.0
 32
0.0
 13
1.0
 23
0.0
 33
0.0
 40
0.0
 40
0.0
 40
0.0
 40
0.0
 40
0.25
 40
0.25
 40
0.25
 40
0.25
 40
0.5
 40
0.5
 40
0.5
 40
0.5
 40
1.0
 40
1.0
 40
1.0
 40
1.0
 10
10.47382
 20
1.45442
 30
0.0
 10
10.47382
 20
1.45442
 30
0.0
 10
11.68037
 20
0.84359
 30
0.0
 10
11.68037
 20
0.84359
 30
0.0
 10
11.68037
 20
0.84359
 30
0.0
 10
11.68037
 20
0.84359
 30
0.0
 10
11.68037
 20
2.08031
 30
0.0
 10
11.68037
 20
2.08031
 30
0.0
 10
11.68037
 20
2.08031
 30
0.0
 10
11.68037
 20
2.08031
 30
0.0
 10
10.47382
 20
1.45442
 30
0.0
 10
10.47382
 20
1.45442
 30
0.0
  0
SPLINE
  5
154
330
1F
100
AcDbEntity
  8
Layer 1
 62
   177
100
AcDbSpline
210
0.0
220
0.0
230
1.0
 70
    11
 71
     3
 72
    16
 73
    12
 74
     0
 42
0.0000000001
 43
0.0000000001
 12
1.0
 22
0.0
 32
0.0
 13
1.0
 23
0.0
 33
0.0
 40
0.0
 40
0.0
 40
0.0
 40
0.0
 40
0.25
 40
0.25
 40
0.25
 40
0.25
 40
0.5
 40
0.5
 40
0.5
 40
0.5
 40
1.0
 40
1.0
 40
1.0
 40
1.0
 10
11.68037
 20
3.6639
 30
0.0
 10
11.68037
 20
3.6639
 30
0.0
 10
10.47382
 20
3.04554
 30
0.0
 10
10.47382
 20
3.04554
 30
0.0
 10
10.47382
 20
3.04554
 30
0.0
 10
10.47382
 20
3.04554
 30
0.0
 10
11.68037
 20
2.41966
 30
0.0
 10
11.68037
 20
2.41966
 30
0.0
 10
11.68037
 20
2.41966
 30
0.0
 10
11.68037
 20
2.41966
 30
0.0
 10
11.68037
 20
3.6639
 30
0.0
 10
11.68037
 20
3.6639
 30
0.0
  0
SPLINE
  5
155
330
1F
100
AcDbEntity
  8
Layer 1
 62
   177
100
AcDbSpline
210
0.0
220
0.0
230
1.0
 70
    11
 71
     3
 72
    16
 73
    12
 74
     0
 42
0.0000000001
 43
0.0000000001
 12
1.0
 22
0.0
 32
0.0
 13
1.0
 23
0.0
 33
0.0
 40
0.0
 40
0.0
 40
0.0
 40
0.0
 40
0.25
 40
0.25
 40
0.25
 40
0.25
 40
0.5
 40
0.5
 40
0.5
 40
0.5
 40
1.0
 40
1.0
 40
1.0
 40
1.0
 10
10.36825
 20
1.63541
 30
0.0
 10
10.36825
 20
1.63541
 30
0.0
 10
10.36825
 20
2.87209
 30
0.0
 10
10.36825
 20
2.87209
 30
0.0
 10
10.36825
 20
2.87209
 30
0.0
 10
10.36825
 20
2.87209
 30
0.0
 10
11.57479
 20
2.25375
 30
0.0
 10
11.57479
 20
2.25375
 30
0.0
 10
11.57479
 20
2.25375
 30
0.0
 10
11.57479
 20
2.25375
 30
0.0
 10
10.36825
 20
1.63541
 30
0.0
 10
10.36825
 20
1.63541
 30
0.0
  0
SPLINE
  5
156
330
1F
100
AcDbEntity
  8
Layer 1
 62
   177
100
AcDbSpline
210
0.0
220
0.0
230
1.0
 70
    11
 71
     3
 72
    16
 73
    12
 74
     0
 42
0.0000000001
 43
0.0000000001
 12
1.0
 22
0.0
 32
0.0
 13
1.0
 23
0.0
 33
0.0
 40
0.0
 40
0.0
 40
0.0
 40
0.0
 40
0.25
 40
0.25
 40
0.25
 40
0.25
 40
0.5
 40
0.5
 40
0.5
 40
0.5
 40
1.0
 40
1.0
 40
1.0
 40
1.0
 10
8.82992
 20
-5.80745
 30
0.0
 10
8.82992
 20
-5.80745
 30
0.0
 10
10.03645
 20
-6.4258
 30
0.0
 10
10.03645
 20
-6.4258
 30
0.0
 10
10.03645
 20
-6.4258
 30
0.0
 10
10.03645
 20
-6.4258
 30
0.0
 10
8.82992
 20
-7.05169
 30
0.0
 10
8.82992
 20
-7.05169
 30
0.0
 10
8.82992
 20
-7.05169
 30
0.0
 10
8.82992
 20
-7.05169
 30
0.0
 10
8.82992
 20
-5.80745
 30
0.0
 10
8.82992
 20
-5.80745
 30
0.0
  0
SPLINE
  5
157
330
1F
100
AcDbEntity
  8
Layer 1
 62
   177
100
AcDbSpline
210
0.0
220
0.0
230
1.0
 70
    11
 71
     3
 72
    16
 73
    12
 74
     0
 42
0.0000000001
 43
0.0000000001
 12
1.0
 22
0.0
 32
0.0
 13
1.0
 23
0.0
 33
0.0
 40
0.0
 40
0.0
 40
0.0
 40
0.0
 40
0.25
 40
0.25
 40
0.25
 40
0.25
 40
0.5
 40
0.5
 40
0.5
 40
0.5
 40
1.0
 40
1.0
 40
1.0
 40
1.0
 10
8.61123
 20
-5.80745
 30
0.0
 10
8.61123
 20
-5.80745
 30
0.0
 10
7.41224
 20
-6.4258
 30
0.0
 10
7.41224
 20
-6.4258
 30
0.0
 10
7.41224
 20
-6.4258
 30
0.0
 10
7.41224
 20
-6.4258
 30
0.0
 10
8.61123
 20
-7.05169
 30
0.0
 10
8.61123
 20
-7.05169
 30
0.0
 10
8.61123
 20
-7.05169
 30
0.0
 10
8.61123
 20
-7.05169
 30
0.0
 10
8.61123
 20
-5.80745
 30
0.0
 10
8.61123
 20
-5.80745
 30
0.0
  0
SPLINE
  5
158
330
1F
100
AcDbEntity
  8
Layer 1
 62
   177
100
AcDbSpline
210
0.0
220
0.0
230
1.0
 70
    11
 71
     3
 72
    16
 73
    12
 74
     0
 42
0.0000000001
 43
0.0000000001
 12
1.0
 22
0.0
 32
0.0
 13
1.0
 23
0.0
 33
0.0
 40
0.0
 40
0.0
 40
0.0
 40
0.0
 40
0.25
 40
0.25
 40
0.25
 40
0.25
 40
0.5
 40
0.5
 40
0.5
 40
0.5
 40
1.0
 40
1.0
 40
1.0
 40
1.0
 10
11.57479
 20
-5.64156
 30
0.0
 10
11.57479
 20
-5.64156
 30
0.0
 10
10.36825
 20
-6.25989
 30
0.0
 10
10.36825
 20
-6.25989
 30
0.0
 10
10.36825
 20
-6.25989
 30
0.0
 10
10.36825
 20
-6.25989
 30
0.0
 10
10.36825
 20
-5.01566
 30
0.0
 10
10.36825
 20
-5.01566
 30
0.0
 10
10.36825
 20
-5.01566
 30
0.0
 10
10.36825
 20
-5.01566
 30
0.0
 10
11.57479
 20
-5.64156
 30
0.0
 10
11.57479
 20
-5.64156
 30
0.0
  0
SPLINE
  5
159
330
1F
100
AcDbEntity
  8
Layer 1
 62
   177
100
AcDbSpline
210
0.0
220
0.0
230
1.0
 70
    11
 71
     3
 72
    16
 73
    12
 74
     0
 42
0.0000000001
 43
0.0000000001
 12
1.0
 22
0.0
 32
0.0
 13
1.0
 23
0.0
 33
0.0
 40
0.0
 40
0.0
 40
0.0
 40
0.0
 40
0.25
 40
0.25
 40
0.25
 40
0.25
 40
0.5
 40
0.5
 40
0.5
 40
0.5
 40
1.0
 40
1.0
 40
1.0
 40
1.0
 10
8.94303
 20
-5.64156
 30
0.0
 10
8.94303
 20
-5.64156
 30
0.0
 10
10.14956
 20
-6.25989
 30
0.0
 10
10.14956
 20
-6.25989
 30
0.0
 10
10.14956
 20
-6.25989
 30
0.0
 10
10.14956
 20
-6.25989
 30
0.0
 10
10.14956
 20
-5.01566
 30
0.0
 10
10.14956
 20
-5.01566
 30
0.0
 10
10.14956
 20
-5.01566
 30
0.0
 10
10.14956
 20
-5.01566
 30
0.0
 10
8.94303
 20
-5.64156
 30
0.0
 10
8.94303
 20
-5.64156
 30
0.0
  0
SPLINE
  5
15A
330
1F
100
AcDbEntity
  8
Layer 1
 62
   177
100
AcDbSpline
210
0.0
220
0.0
230
1.0
 70
    11
 71
     3
 72
    16
 73
    12
 74
     0
 42
0.0000000001
 43
0.0000000001
 12
1.0
 22
0.0
 32
0.0
 13
1.0
 23
0.0
 33
0.0
 40
0.0
 40
0.0
 40
0.0
 40
0.0
 40
0.25
 40
0.25
 40
0.25
 40
0.25
 40
0.5
 40
0.5
 40
0.5
 40
0.5
 40
1.0
 40
1.0
 40
1.0
 40
1.0
 10
11.68037
 20
-5.46811
 30
0.0
 10
11.68037
 20
-5.46811
 30
0.0
 10
11.68037
 20
-4.23142
 30
0.0
 10
11.68037
 20
-4.23142
 30
0.0
 10
11.68037
 20
-4.23142
 30
0.0
 10
11.68037
 20
-4.23142
 30
0.0
 10
10.47382
 20
-4.84975
 30
0.0
 10
10.47382
 20
-4.84975
 30
0.0
 10
10.47382
 20
-4.84975
 30
0.0
 10
10.47382
 20
-4.84975
 30
0.0
 10
11.68037
 20
-5.46811
 30
0.0
 10
11.68037
 20
-5.46811
 30
0.0
  0
SPLINE
  5
15B
330
1F
100
AcDbEntity
  8
Layer 1
 62
   177
100
AcDbSpline
210
0.0
220
0.0
230
1.0
 70
    11
 71
     3
 72
    16
 73
    12
 74
     0
 42
0.0000000001
 43
0.0000000001
 12
1.0
 22
0.0
 32
0.0
 13
1.0
 23
0.0
 33
0.0
 40
0.0
 40
0.0
 40
0.0
 40
0.0
 40
0.25
 40
0.25
 40
0.25
 40
0.25
 40
0.5
 40
0.5
 40
0.5
 40
0.5
 40
1.0
 40
1.0
 40
1.0
 40
1.0
 10
10.36825
 20
-3.43961
 30
0.0
 10
10.36825
 20
-3.43961
 30
0.0
 10
11.57479
 20
-4.05797
 30
0.0
 10
11.57479
 20
-4.05797
 30
0.0
 10
11.57479
 20
-4.05797
 30
0.0
 10
11.57479
 20
-4.05797
 30
0.0
 10
10.36825
 20
-4.68386
 30
0.0
 10
10.36825
 20
-4.68386
 30
0.0
 10
10.36825
 20
-4.68386
 30
0.0
 10
10.36825
 20
-4.68386
 30
0.0
 10
10.36825
 20
-3.43961
 30
0.0
 10
10.36825
 20
-3.43961
 30
0.0
  0
SPLINE
  5
15C
330
1F
100
AcDbEntity
  8
Layer 1
 62
   177
100
AcDbSpline
210
0.0
220
0.0
230
1.0
 70
    11
 71
     3
 72
    16
 73
    12
 74
     0
 42
0.0000000001
 43
0.0000000001
 12
1.0
 22
0.0
 32
0.0
 13
1.0
 23
0.0
 33
0.0
 40
0.0
 40
0.0
 40
0.0
 40
0.0
 40
0.25
 40
0.25
 40
0.25
 40
0.25
 40
0.5
 40
0.5
 40
0.5
 40
0.5
 40
1.0
 40
1.0
 40
1.0
 40
1.0
 10
10.14956
 20
-3.43961
 30
0.0
 10
10.14956
 20
-3.43961
 30
0.0
 10
8.94303
 20
-4.05797
 30
0.0
 10
8.94303
 20
-4.05797
 30
0.0
 10
8.94303
 20
-4.05797
 30
0.0
 10
8.94303
 20
-4.05797
 30
0.0
 10
10.14956
 20
-4.68386
 30
0.0
 10
10.14956
 20
-4.68386
 30
0.0
 10
10.14956
 20
-4.68386
 30
0.0
 10
10.14956
 20
-4.68386
 30
0.0
 10
10.14956
 20
-3.43961
 30
0.0
 10
10.14956
 20
-3.43961
 30
0.0
  0
SPLINE
  5
15D
330
1F
100
AcDbEntity
  8
Layer 1
 62
   177
100
AcDbSpline
210
0.0
220
0.0
230
1.0
 70
    11
 71
     3
 72
    16
 73
    12
 74
     0
 42
0.0000000001
 43
0.0000000001
 12
1.0
 22
0.0
 32
0.0
 13
1.0
 23
0.0
 33
0.0
 40
0.0
 40
0.0
 40
0.0
 40
0.0
 40
0.25
 40
0.25
 40
0.25
 40
0.25
 40
0.5
 40
0.5
 40
0.5
 40
0.5
 40
1.0
 40
1.0
 40
1.0
 40
1.0
 10
8.82992
 20
-5.46811
 30
0.0
 10
8.82992
 20
-5.46811
 30
0.0
 10
8.82992
 20
-4.23142
 30
0.0
 10
8.82992
 20
-4.23142
 30
0.0
 10
8.82992
 20
-4.23142
 30
0.0
 10
8.82992
 20
-4.23142
 30
0.0
 10
10.03645
 20
-4.84975
 30
0.0
 10
10.03645
 20
-4.84975
 30
0.0
 10
10.03645
 20
-4.84975
 30
0.0
 10
10.03645
 20
-4.84975
 30
0.0
 10
8.82992
 20
-5.46811
 30
0.0
 10
8.82992
 20
-5.46811
 30
0.0
  0
SPLINE
  5
15E
330
1F
100
AcDbEntity
  8
Layer 1
 62
   177
100
AcDbSpline
210
0.0
220
0.0
230
1.0
 70
    11
 71
     3
 72
    16
 73
    12
 74
     0
 42
0.0000000001
 43
0.0000000001
 12
1.0
 22
0.0
 32
0.0
 13
1.0
 23
0.0
 33
0.0
 40
0.0
 40
0.0
 40
0.0
 40
0.0
 40
0.25
 40
0.25
 40
0.25
 40
0.25
 40
0.5
 40
0.5
 40
0.5
 40
0.5
 40
1.0
 40
1.0
 40
1.0
 40
1.0
 10
10.47382
 20
-3.27372
 30
0.0
 10
10.47382
 20
-3.27372
 30
0.0
 10
11.68037
 20
-3.89206
 30
0.0
 10
11.68037
 20
-3.89206
 30
0.0
 10
11.68037
 20
-3.89206
 30
0.0
 10
11.68037
 20
-3.89206
 30
0.0
 10
11.68037
 20
-2.65537
 30
0.0
 10
11.68037
 20
-2.65537
 30
0.0
 10
11.68037
 20
-2.65537
 30
0.0
 10
11.68037
 20
-2.65537
 30
0.0
 10
10.47382
 20
-3.27372
 30
0.0
 10
10.47382
 20
-3.27372
 30
0.0
  0
SPLINE
  5
15F
330
1F
100
AcDbEntity
  8
Layer 1
 62
   177
100
AcDbSpline
210
0.0
220
0.0
230
1.0
 70
    11
 71
     3
 72
    16
 73
    12
 74
     0
 42
0.0000000001
 43
0.0000000001
 12
1.0
 22
0.0
 32
0.0
 13
1.0
 23
0.0
 33
0.0
 40
0.0
 40
0.0
 40
0.0
 40
0.0
 40
0.25
 40
0.25
 40
0.25
 40
0.25
 40
0.5
 40
0.5
 40
0.5
 40
0.5
 40
1.0
 40
1.0
 40
1.0
 40
1.0
 10
11.68037
 20
-1.07932
 30
0.0
 10
11.68037
 20
-1.07932
 30
0.0
 10
10.47382
 20
-1.69767
 30
0.0
 10
10.47382
 20
-1.69767
 30
0.0
 10
10.47382
 20
-1.69767
 30
0.0
 10
10.47382
 20
-1.69767
 30
0.0
 10
11.68037
 20
-2.32357
 30
0.0
 10
11.68037
 20
-2.32357
 30
0.0
 10
11.68037
 20
-2.32357
 30
0.0
 10
11.68037
 20
-2.32357
 30
0.0
 10
11.68037
 20
-1.07932
 30
0.0
 10
11.68037
 20
-1.07932
 30
0.0
  0
SPLINE
  5
160
330
1F
100
AcDbEntity
  8
Layer 1
 62
   177
100
AcDbSpline
210
0.0
220
0.0
230
1.0
 70
    11
 71
     3
 72
    16
 73
    12
 74
     0
 42
0.0000000001
 43
0.0000000001
 12
1.0
 22
0.0
 32
0.0
 13
1.0
 23
0.0
 33
0.0
 40
0.0
 40
0.0
 40
0.0
 40
0.0
 40
0.25
 40
0.25
 40
0.25
 40
0.25
 40
0.5
 40
0.5
 40
0.5
 40
0.5
 40
1.0
 40
1.0
 40
1.0
 40
1.0
 10
10.36825
 20
-3.10027
 30
0.0
 10
10.36825
 20
-3.10027
 30
0.0
 10
10.36825
 20
-1.87112
 30
0.0
 10
10.36825
 20
-1.87112
 30
0.0
 10
10.36825
 20
-1.87112
 30
0.0
 10
10.36825
 20
-1.87112
 30
0.0
 10
11.57479
 20
-2.48945
 30
0.0
 10
11.57479
 20
-2.48945
 30
0.0
 10
11.57479
 20
-2.48945
 30
0.0
 10
11.57479
 20
-2.48945
 30
0.0
 10
10.36825
 20
-3.10027
 30
0.0
 10
10.36825
 20
-3.10027
 30
0.0
  0
SPLINE
  5
161
330
1F
100
AcDbEntity
  8
Layer 1
 62
   177
100
AcDbSpline
210
0.0
220
0.0
230
1.0
 70
    11
 71
     3
 72
    16
 73
    12
 74
     0
 42
0.0000000001
 43
0.0000000001
 12
1.0
 22
0.0
 32
0.0
 13
1.0
 23
0.0
 33
0.0
 40
0.0
 40
0.0
 40
0.0
 40
0.0
 40
0.25
 40
0.25
 40
0.25
 40
0.25
 40
0.5
 40
0.5
 40
0.5
 40
0.5
 40
1.0
 40
1.0
 40
1.0
 40
1.0
 10
11.68037
 20
-5.80745
 30
0.0
 10
11.68037
 20
-5.80745
 30
0.0
 10
10.47382
 20
-6.4258
 30
0.0
 10
10.47382
 20
-6.4258
 30
0.0
 10
10.47382
 20
-6.4258
 30
0.0
 10
10.47382
 20
-6.4258
 30
0.0
 10
11.68037
 20
-7.05169
 30
0.0
 10
11.68037
 20
-7.05169
 30
0.0
 10
11.68037
 20
-7.05169
 30
0.0
 10
11.68037
 20
-7.05169
 30
0.0
 10
11.68037
 20
-5.80745
 30
0.0
 10
11.68037
 20
-5.80745
 30
0.0
  0
SPLINE
  5
162
330
1F
100
AcDbEntity
  8
Layer 1
 62
   177
100
AcDbSpline
210
0.0
220
0.0
230
1.0
 70
    11
 71
     3
 72
    20
 73
    16
 74
     0
 42
0.0000000001
 43
0.0000000001
 12
1.0
 22
0.0
 32
0.0
 13
1.0
 23
0.0
 33
0.0
 40
0.0
 40
0.0
 40
0.0
 40
0.0
 40
0.2
 40
0.2
 40
0.2
 40
0.2
 40
0.4
 40
0.4
 40
0.4
 40
0.4
 40
0.6
 40
0.6
 40
0.6
 40
0.6
 40
1.0
 40
1.0
 40
1.0
 40
1.0
 10
10.36825
 20
5.44353
 30
0.0
 10
10.36825
 20
5.44353
 30
0.0
 10
11.50692
 20
5.44353
 30
0.0
 10
11.50692
 20
5.44353
 30
0.0
 10
11.50692
 20
5.44353
 30
0.0
 10
11.50692
 20
5.44353
 30
0.0
 10
11.57479
 20
5.40583
 30
0.0
 10
11.57479
 20
5.40583
 30
0.0
 10
11.57479
 20
5.40583
 30
0.0
 10
11.57479
 20
5.40583
 30
0.0
 10
10.36825
 20
4.78748
 30
0.0
 10
10.36825
 20
4.78748
 30
0.0
 10
10.36825
 20
4.78748
 30
0.0
 10
10.36825
 20
4.78748
 30
0.0
 10
10.36825
 20
5.44353
 30
0.0
 10
10.36825
 20
5.44353
 30
0.0
  0
SPLINE
  5
163
330
1F
100
AcDbEntity
  8
Layer 1
 62
   177
100
AcDbSpline
210
0.0
220
0.0
230
1.0
 70
    11
 71
     3
 72
    20
 73
    16
 74
     0
 42
0.0000000001
 43
0.0000000001
 12
1.0
 22
0.0
 32
0.0
 13
1.0
 23
0.0
 33
0.0
 40
0.0
 40
0.0
 40
0.0
 40
0.0
 40
0.2
 40
0.2
 40
0.2
 40
0.2
 40
0.4
 40
0.4
 40
0.4
 40
0.4
 40
0.6
 40
0.6
 40
0.6
 40
0.6
 40
1.0
 40
1.0
 40
1.0
 40
1.0
 10
10.14956
 20
5.44353
 30
0.0
 10
10.14956
 20
5.44353
 30
0.0
 10
9.00336
 20
5.44353
 30
0.0
 10
9.00336
 20
5.44353
 30
0.0
 10
9.00336
 20
5.44353
 30
0.0
 10
9.00336
 20
5.44353
 30
0.0
 10
8.94303
 20
5.40583
 30
0.0
 10
8.94303
 20
5.40583
 30
0.0
 10
8.94303
 20
5.40583
 30
0.0
 10
8.94303
 20
5.40583
 30
0.0
 10
10.14956
 20
4.78748
 30
0.0
 10
10.14956
 20
4.78748
 30
0.0
 10
10.14956
 20
4.78748
 30
0.0
 10
10.14956
 20
4.78748
 30
0.0
 10
10.14956
 20
5.44353
 30
0.0
 10
10.14956
 20
5.44353
 30
0.0
  0
SPLINE
  5
164
330
1F
100
AcDbEntity
  8
Layer 1
 62
   177
100
AcDbSpline
210
0.0
220
0.0
230
1.0
 70
    11
 71
     3
 72
    20
 73
    16
 74
     0
 42
0.0000000001
 43
0.0000000001
 12
1.0
 22
0.0
 32
0.0
 13
1.0
 23
0.0
 33
0.0
 40
0.0
 40
0.0
 40
0.0
 40
0.0
 40
0.2
 40
0.2
 40
0.2
 40
0.2
 40
0.4
 40
0.4
 40
0.4
 40
0.4
 40
0.6
 40
0.6
 40
0.6
 40
0.6
 40
1.0
 40
1.0
 40
1.0
 40
1.0
 10
7.29912
 20
5.44353
 30
0.0
 10
7.29912
 20
5.44353
 30
0.0
 10
8.4378
 20
5.44353
 30
0.0
 10
8.4378
 20
5.44353
 30
0.0
 10
8.4378
 20
5.44353
 30
0.0
 10
8.4378
 20
5.44353
 30
0.0
 10
8.49811
 20
5.40583
 30
0.0
 10
8.49811
 20
5.40583
 30
0.0
 10
8.49811
 20
5.40583
 30
0.0
 10
8.49811
 20
5.40583
 30
0.0
 10
7.29912
 20
4.78748
 30
0.0
 10
7.29912
 20
4.78748
 30
0.0
 10
7.29912
 20
4.78748
 30
0.0
 10
7.29912
 20
4.78748
 30
0.0
 10
7.29912
 20
5.44353
 30
0.0
 10
7.29912
 20
5.44353
 30
0.0
  0
SPLINE
  5
165
330
1F
100
AcDbEntity
  8
Layer 1
 62
   177
100
AcDbSpline
210
0.0
220
0.0
230
1.0
 70
    11
 71
     3
 72
    20
 73
    16
 74
     0
 42
0.0000000001
 43
0.0000000001
 12
1.0
 22
0.0
 32
0.0
 13
1.0
 23
0.0
 33
0.0
 40
0.0
 40
0.0
 40
0.0
 40
0.0
 40
0.2
 40
0.2
 40
0.2
 40
0.2
 40
0.4
 40
0.4
 40
0.4
 40
0.4
 40
0.6
 40
0.6
 40
0.6
 40
0.6
 40
1.0
 40
1.0
 40
1.0
 40
1.0
 10
7.08043
 20
5.44353
 30
0.0
 10
7.08043
 20
5.44353
 30
0.0
 10
5.94176
 20
5.44353
 30
0.0
 10
5.94176
 20
5.44353
 30
0.0
 10
5.94176
 20
5.44353
 30
0.0
 10
5.94176
 20
5.44353
 30
0.0
 10
5.87389
 20
5.40583
 30
0.0
 10
5.87389
 20
5.40583
 30
0.0
 10
5.87389
 20
5.40583
 30
0.0
 10
5.87389
 20
5.40583
 30
0.0
 10
7.08043
 20
4.78748
 30
0.0
 10
7.08043
 20
4.78748
 30
0.0
 10
7.08043
 20
4.78748
 30
0.0
 10
7.08043
 20
4.78748
 30
0.0
 10
7.08043
 20
5.44353
 30
0.0
 10
7.08043
 20
5.44353
 30
0.0
  0
SPLINE
  5
166
330
1F
100
AcDbEntity
  8
Layer 1
 62
   177
100
AcDbSpline
210
0.0
220
0.0
230
1.0
 70
    11
 71
     3
 72
    20
 73
    16
 74
     0
 42
0.0000000001
 43
0.0000000001
 12
1.0
 22
0.0
 32
0.0
 13
1.0
 23
0.0
 33
0.0
 40
0.0
 40
0.0
 40
0.0
 40
0.0
 40
0.2
 40
0.2
 40
0.2
 40
0.2
 40
0.4
 40
0.4
 40
0.4
 40
0.4
 40
0.6
 40
0.6
 40
0.6
 40
0.6
 40
1.0
 40
1.0
 40
1.0
 40
1.0
 10
5.36865
 20
5.44353
 30
0.0
 10
5.36865
 20
5.44353
 30
0.0
 10
5.43652
 20
5.40583
 30
0.0
 10
5.43652
 20
5.40583
 30
0.0
 10
5.43652
 20
5.40583
 30
0.0
 10
5.43652
 20
5.40583
 30
0.0
 10
4.22998
 20
4.78748
 30
0.0
 10
4.22998
 20
4.78748
 30
0.0
 10
4.22998
 20
4.78748
 30
0.0
 10
4.22998
 20
4.78748
 30
0.0
 10
4.22998
 20
5.44353
 30
0.0
 10
4.22998
 20
5.44353
 30
0.0
 10
4.22998
 20
5.44353
 30
0.0
 10
4.22998
 20
5.44353
 30
0.0
 10
5.36865
 20
5.44353
 30
0.0
 10
5.36865
 20
5.44353
 30
0.0
  0
SPLINE
  5
167
330
1F
100
AcDbEntity
  8
Layer 1
 62
   177
100
AcDbSpline
210
0.0
220
0.0
230
1.0
 70
    11
 71
     3
 72
    20
 73
    16
 74
     0
 42
0.0000000001
 43
0.0000000001
 12
1.0
 22
0.0
 32
0.0
 13
1.0
 23
0.0
 33
0.0
 40
0.0
 40
0.0
 40
0.0
 40
0.0
 40
0.2
 40
0.2
 40
0.2
 40
0.2
 40
0.4
 40
0.4
 40
0.4
 40
0.4
 40
0.6
 40
0.6
 40
0.6
 40
0.6
 40
1.0
 40
1.0
 40
1.0
 40
1.0
 10
4.01129
 20
5.44353
 30
0.0
 10
4.01129
 20
5.44353
 30
0.0
 10
2.87262
 20
5.44353
 30
0.0
 10
2.87262
 20
5.44353
 30
0.0
 10
2.87262
 20
5.44353
 30
0.0
 10
2.87262
 20
5.44353
 30
0.0
 10
2.80475
 20
5.40583
 30
0.0
 10
2.80475
 20
5.40583
 30
0.0
 10
2.80475
 20
5.40583
 30
0.0
 10
2.80475
 20
5.40583
 30
0.0
 10
4.01129
 20
4.78748
 30
0.0
 10
4.01129
 20
4.78748
 30
0.0
 10
4.01129
 20
4.78748
 30
0.0
 10
4.01129
 20
4.78748
 30
0.0
 10
4.01129
 20
5.44353
 30
0.0
 10
4.01129
 20
5.44353
 30
0.0
  0
SPLINE
  5
168
330
1F
100
AcDbEntity
  8
Layer 1
 62
   177
100
AcDbSpline
210
0.0
220
0.0
230
1.0
 70
    11
 71
     3
 72
    20
 73
    16
 74
     0
 42
0.0000000001
 43
0.0000000001
 12
1.0
 22
0.0
 32
0.0
 13
1.0
 23
0.0
 33
0.0
 40
0.0
 40
0.0
 40
0.0
 40
0.0
 40
0.2
 40
0.2
 40
0.2
 40
0.2
 40
0.4
 40
0.4
 40
0.4
 40
0.4
 40
0.6
 40
0.6
 40
0.6
 40
0.6
 40
1.0
 40
1.0
 40
1.0
 40
1.0
 10
1.16085
 20
5.44353
 30
0.0
 10
1.16085
 20
5.44353
 30
0.0
 10
2.29951
 20
5.44353
 30
0.0
 10
2.29951
 20
5.44353
 30
0.0
 10
2.29951
 20
5.44353
 30
0.0
 10
2.29951
 20
5.44353
 30
0.0
 10
2.36737
 20
5.40583
 30
0.0
 10
2.36737
 20
5.40583
 30
0.0
 10
2.36737
 20
5.40583
 30
0.0
 10
2.36737
 20
5.40583
 30
0.0
 10
1.16085
 20
4.78748
 30
0.0
 10
1.16085
 20
4.78748
 30
0.0
 10
1.16085
 20
4.78748
 30
0.0
 10
1.16085
 20
4.78748
 30
0.0
 10
1.16085
 20
5.44353
 30
0.0
 10
1.16085
 20
5.44353
 30
0.0
  0
SPLINE
  5
169
330
1F
100
AcDbEntity
  8
Layer 1
 62
   177
100
AcDbSpline
210
0.0
220
0.0
230
1.0
 70
    11
 71
     3
 72
    20
 73
    16
 74
     0
 42
0.0000000001
 43
0.0000000001
 12
1.0
 22
0.0
 32
0.0
 13
1.0
 23
0.0
 33
0.0
 40
0.0
 40
0.0
 40
0.0
 40
0.0
 40
0.2
 40
0.2
 40
0.2
 40
0.2
 40
0.4
 40
0.4
 40
0.4
 40
0.4
 40
0.6
 40
0.6
 40
0.6
 40
0.6
 40
1.0
 40
1.0
 40
1.0
 40
1.0
 10
0.94217
 20
5.44353
 30
0.0
 10
0.94217
 20
5.44353
 30
0.0
 10
-0.19651
 20
5.44353
 30
0.0
 10
-0.19651
 20
5.44353
 30
0.0
 10
-0.19651
 20
5.44353
 30
0.0
 10
-0.19651
 20
5.44353
 30
0.0
 10
-0.25682
 20
5.40583
 30
0.0
 10
-0.25682
 20
5.40583
 30
0.0
 10
-0.25682
 20
5.40583
 30
0.0
 10
-0.25682
 20
5.40583
 30
0.0
 10
0.94217
 20
4.78748
 30
0.0
 10
0.94217
 20
4.78748
 30
0.0
 10
0.94217
 20
4.78748
 30
0.0
 10
0.94217
 20
4.78748
 30
0.0
 10
0.94217
 20
5.44353
 30
0.0
 10
0.94217
 20
5.44353
 30
0.0
  0
SPLINE
  5
16A
330
1F
100
AcDbEntity
  8
Layer 1
 62
   177
100
AcDbSpline
210
0.0
220
0.0
230
1.0
 70
    11
 71
     3
 72
    20
 73
    16
 74
     0
 42
0.0000000001
 43
0.0000000001
 12
1.0
 22
0.0
 32
0.0
 13
1.0
 23
0.0
 33
0.0
 40
0.0
 40
0.0
 40
0.0
 40
0.0
 40
0.2
 40
0.2
 40
0.2
 40
0.2
 40
0.4
 40
0.4
 40
0.4
 40
0.4
 40
0.6
 40
0.6
 40
0.6
 40
0.6
 40
1.0
 40
1.0
 40
1.0
 40
1.0
 10
-0.76961
 20
5.44353
 30
0.0
 10
-0.76961
 20
5.44353
 30
0.0
 10
-0.70174
 20
5.40583
 30
0.0
 10
-0.70174
 20
5.40583
 30
0.0
 10
-0.70174
 20
5.40583
 30
0.0
 10
-0.70174
 20
5.40583
 30
0.0
 10
-1.90076
 20
4.78748
 30
0.0
 10
-1.90076
 20
4.78748
 30
0.0
 10
-1.90076
 20
4.78748
 30
0.0
 10
-1.90076
 20
4.78748
 30
0.0
 10
-1.90076
 20
5.44353
 30
0.0
 10
-1.90076
 20
5.44353
 30
0.0
 10
-1.90076
 20
5.44353
 30
0.0
 10
-1.90076
 20
5.44353
 30
0.0
 10
-0.76961
 20
5.44353
 30
0.0
 10
-0.76961
 20
5.44353
 30
0.0
  0
SPLINE
  5
16B
330
1F
100
AcDbEntity
  8
Layer 1
 62
   177
100
AcDbSpline
210
0.0
220
0.0
230
1.0
 70
    11
 71
     3
 72
    16
 73
    12
 74
     0
 42
0.0000000001
 43
0.0000000001
 12
1.0
 22
0.0
 32
0.0
 13
1.0
 23
0.0
 33
0.0
 40
0.0
 40
0.0
 40
0.0
 40
0.0
 40
0.25
 40
0.25
 40
0.25
 40
0.25
 40
0.5
 40
0.5
 40
0.5
 40
0.5
 40
1.0
 40
1.0
 40
1.0
 40
1.0
 10
8.49811
 20
-7.21758
 30
0.0
 10
8.49811
 20
-7.21758
 30
0.0
 10
7.29912
 20
-7.21758
 30
0.0
 10
7.29912
 20
-7.21758
 30
0.0
 10
7.29912
 20
-7.21758
 30
0.0
 10
7.29912
 20
-7.21758
 30
0.0
 10
7.29912
 20
-6.59924
 30
0.0
 10
7.29912
 20
-6.59924
 30
0.0
 10
7.29912
 20
-6.59924
 30
0.0
 10
7.29912
 20
-6.59924
 30
0.0
 10
8.49811
 20
-7.21758
 30
0.0
 10
8.49811
 20
-7.21758
 30
0.0
  0
SPLINE
  5
16C
330
1F
100
AcDbEntity
  8
Layer 1
 62
   177
100
AcDbSpline
210
0.0
220
0.0
230
1.0
 70
    11
 71
     3
 72
    16
 73
    12
 74
     0
 42
0.0000000001
 43
0.0000000001
 12
1.0
 22
0.0
 32
0.0
 13
1.0
 23
0.0
 33
0.0
 40
0.0
 40
0.0
 40
0.0
 40
0.0
 40
0.25
 40
0.25
 40
0.25
 40
0.25
 40
0.5
 40
0.5
 40
0.5
 40
0.5
 40
1.0
 40
1.0
 40
1.0
 40
1.0
 10
5.87389
 20
-7.21758
 30
0.0
 10
5.87389
 20
-7.21758
 30
0.0
 10
7.08043
 20
-7.21758
 30
0.0
 10
7.08043
 20
-7.21758
 30
0.0
 10
7.08043
 20
-7.21758
 30
0.0
 10
7.08043
 20
-7.21758
 30
0.0
 10
7.08043
 20
-6.59924
 30
0.0
 10
7.08043
 20
-6.59924
 30
0.0
 10
7.08043
 20
-6.59924
 30
0.0
 10
7.08043
 20
-6.59924
 30
0.0
 10
5.87389
 20
-7.21758
 30
0.0
 10
5.87389
 20
-7.21758
 30
0.0
  0
SPLINE
  5
16D
330
1F
100
AcDbEntity
  8
Layer 1
 62
   177
100
AcDbSpline
210
0.0
220
0.0
230
1.0
 70
    11
 71
     3
 72
    16
 73
    12
 74
     0
 42
0.0000000001
 43
0.0000000001
 12
1.0
 22
0.0
 32
0.0
 13
1.0
 23
0.0
 33
0.0
 40
0.0
 40
0.0
 40
0.0
 40
0.0
 40
0.25
 40
0.25
 40
0.25
 40
0.25
 40
0.5
 40
0.5
 40
0.5
 40
0.5
 40
1.0
 40
1.0
 40
1.0
 40
1.0
 10
4.22998
 20
-7.21758
 30
0.0
 10
4.22998
 20
-7.21758
 30
0.0
 10
4.22998
 20
-6.59924
 30
0.0
 10
4.22998
 20
-6.59924
 30
0.0
 10
4.22998
 20
-6.59924
 30
0.0
 10
4.22998
 20
-6.59924
 30
0.0
 10
5.43652
 20
-7.21758
 30
0.0
 10
5.43652
 20
-7.21758
 30
0.0
 10
5.43652
 20
-7.21758
 30
0.0
 10
5.43652
 20
-7.21758
 30
0.0
 10
4.22998
 20
-7.21758
 30
0.0
 10
4.22998
 20
-7.21758
 30
0.0
  0
SPLINE
  5
16E
330
1F
100
AcDbEntity
  8
Layer 1
 62
   177
100
AcDbSpline
210
0.0
220
0.0
230
1.0
 70
    11
 71
     3
 72
    16
 73
    12
 74
     0
 42
0.0000000001
 43
0.0000000001
 12
1.0
 22
0.0
 32
0.0
 13
1.0
 23
0.0
 33
0.0
 40
0.0
 40
0.0
 40
0.0
 40
0.0
 40
0.25
 40
0.25
 40
0.25
 40
0.25
 40
0.5
 40
0.5
 40
0.5
 40
0.5
 40
1.0
 40
1.0
 40
1.0
 40
1.0
 10
2.80475
 20
-7.21758
 30
0.0
 10
2.80475
 20
-7.21758
 30
0.0
 10
4.01129
 20
-7.21758
 30
0.0
 10
4.01129
 20
-7.21758
 30
0.0
 10
4.01129
 20
-7.21758
 30
0.0
 10
4.01129
 20
-7.21758
 30
0.0
 10
4.01129
 20
-6.59924
 30
0.0
 10
4.01129
 20
-6.59924
 30
0.0
 10
4.01129
 20
-6.59924
 30
0.0
 10
4.01129
 20
-6.59924
 30
0.0
 10
2.80475
 20
-7.21758
 30
0.0
 10
2.80475
 20
-7.21758
 30
0.0
  0
SPLINE
  5
16F
330
1F
100
AcDbEntity
  8
Layer 1
 62
   177
100
AcDbSpline
210
0.0
220
0.0
230
1.0
 70
    11
 71
     3
 72
    16
 73
    12
 74
     0
 42
0.0000000001
 43
0.0000000001
 12
1.0
 22
0.0
 32
0.0
 13
1.0
 23
0.0
 33
0.0
 40
0.0
 40
0.0
 40
0.0
 40
0.0
 40
0.25
 40
0.25
 40
0.25
 40
0.25
 40
0.5
 40
0.5
 40
0.5
 40
0.5
 40
1.0
 40
1.0
 40
1.0
 40
1.0
 10
2.36737
 20
-7.21758
 30
0.0
 10
2.36737
 20
-7.21758
 30
0.0
 10
1.16085
 20
-7.21758
 30
0.0
 10
1.16085
 20
-7.21758
 30
0.0
 10
1.16085
 20
-7.21758
 30
0.0
 10
1.16085
 20
-7.21758
 30
0.0
 10
1.16085
 20
-6.59924
 30
0.0
 10
1.16085
 20
-6.59924
 30
0.0
 10
1.16085
 20
-6.59924
 30
0.0
 10
1.16085
 20
-6.59924
 30
0.0
 10
2.36737
 20
-7.21758
 30
0.0
 10
2.36737
 20
-7.21758
 30
0.0
  0
SPLINE
  5
170
330
1F
100
AcDbEntity
  8
Layer 1
 62
   177
100
AcDbSpline
210
0.0
220
0.0
230
1.0
 70
    11
 71
     3
 72
    16
 73
    12
 74
     0
 42
0.0000000001
 43
0.0000000001
 12
1.0
 22
0.0
 32
0.0
 13
1.0
 23
0.0
 33
0.0
 40
0.0
 40
0.0
 40
0.0
 40
0.0
 40
0.25
 40
0.25
 40
0.25
 40
0.25
 40
0.5
 40
0.5
 40
0.5
 40
0.5
 40
1.0
 40
1.0
 40
1.0
 40
1.0
 10
-0.25682
 20
-7.21758
 30
0.0
 10
-0.25682
 20
-7.21758
 30
0.0
 10
0.94217
 20
-7.21758
 30
0.0
 10
0.94217
 20
-7.21758
 30
0.0
 10
0.94217
 20
-7.21758
 30
0.0
 10
0.94217
 20
-7.21758
 30
0.0
 10
0.94217
 20
-6.59924
 30
0.0
 10
0.94217
 20
-6.59924
 30
0.0
 10
0.94217
 20
-6.59924
 30
0.0
 10
0.94217
 20
-6.59924
 30
0.0
 10
-0.25682
 20
-7.21758
 30
0.0
 10
-0.25682
 20
-7.21758
 30
0.0
  0
SPLINE
  5
171
330
1F
100
AcDbEntity
  8
Layer 1
 62
   177
100
AcDbSpline
210
0.0
220
0.0
230
1.0
 70
    11
 71
     3
 72
    16
 73
    12
 74
     0
 42
0.0000000001
 43
0.0000000001
 12
1.0
 22
0.0
 32
0.0
 13
1.0
 23
0.0
 33
0.0
 40
0.0
 40
0.0
 40
0.0
 40
0.0
 40
0.25
 40
0.25
 40
0.25
 40
0.25
 40
0.5
 40
0.5
 40
0.5
 40
0.5
 40
1.0
 40
1.0
 40
1.0
 40
1.0
 10
-0.70174
 20
-7.21758
 30
0.0
 10
-0.70174
 20
-7.21758
 30
0.0
 10
-1.90076
 20
-7.21758
 30
0.0
 10
-1.90076
 20
-7.21758
 30
0.0
 10
-1.90076
 20
-7.21758
 30
0.0
 10
-1.90076
 20
-7.21758
 30
0.0
 10
-1.90076
 20
-6.59924
 30
0.0
 10
-1.90076
 20
-6.59924
 30
0.0
 10
-1.90076
 20
-6.59924
 30
0.0
 10
-1.90076
 20
-6.59924
 30
0.0
 10
-0.70174
 20
-7.21758
 30
0.0
 10
-0.70174
 20
-7.21758
 30
0.0
  0
SPLINE
  5
172
330
1F
100
AcDbEntity
  8
Layer 1
 62
   177
100
AcDbSpline
210
0.0
220
0.0
230
1.0
 70
    11
 71
     3
 72
    16
 73
    12
 74
     0
 42
0.0000000001
 43
0.0000000001
 12
1.0
 22
0.0
 32
0.0
 13
1.0
 23
0.0
 33
0.0
 40
0.0
 40
0.0
 40
0.0
 40
0.0
 40
0.25
 40
0.25
 40
0.25
 40
0.25
 40
0.5
 40
0.5
 40
0.5
 40
0.5
 40
1.0
 40
1.0
 40
1.0
 40
1.0
 10
11.57479
 20
-7.21758
 30
0.0
 10
11.57479
 20
-7.21758
 30
0.0
 10
10.36825
 20
-7.21758
 30
0.0
 10
10.36825
 20
-7.21758
 30
0.0
 10
10.36825
 20
-7.21758
 30
0.0
 10
10.36825
 20
-7.21758
 30
0.0
 10
10.36825
 20
-6.59924
 30
0.0
 10
10.36825
 20
-6.59924
 30
0.0
 10
10.36825
 20
-6.59924
 30
0.0
 10
10.36825
 20
-6.59924
 30
0.0
 10
11.57479
 20
-7.21758
 30
0.0
 10
11.57479
 20
-7.21758
 30
0.0
  0
SPLINE
  5
173
330
1F
100
AcDbEntity
  8
Layer 1
 62
   177
100
AcDbSpline
210
0.0
220
0.0
230
1.0
 70
    11
 71
     3
 72
    16
 73
    12
 74
     0
 42
0.0000000001
 43
0.0000000001
 12
1.0
 22
0.0
 32
0.0
 13
1.0
 23
0.0
 33
0.0
 40
0.0
 40
0.0
 40
0.0
 40
0.0
 40
0.25
 40
0.25
 40
0.25
 40
0.25
 40
0.5
 40
0.5
 40
0.5
 40
0.5
 40
1.0
 40
1.0
 40
1.0
 40
1.0
 10
8.94303
 20
-7.21758
 30
0.0
 10
8.94303
 20
-7.21758
 30
0.0
 10
10.14956
 20
-7.21758
 30
0.0
 10
10.14956
 20
-7.21758
 30
0.0
 10
10.14956
 20
-7.21758
 30
0.0
 10
10.14956
 20
-7.21758
 30
0.0
 10
10.14956
 20
-6.59924
 30
0.0
 10
10.14956
 20
-6.59924
 30
0.0
 10
10.14956
 20
-6.59924
 30
0.0
 10
10.14956
 20
-6.59924
 30
0.0
 10
8.94303
 20
-7.21758
 30
0.0
 10
8.94303
 20
-7.21758
 30
0.0
  0
SPLINE
  5
174
330
1F
100
AcDbEntity
  8
Layer 1
 62
   177
100
AcDbSpline
210
0.0
220
0.0
230
1.0
 70
    11
 71
     3
 72
    20
 73
    16
 74
     0
 42
0.0000000001
 43
0.0000000001
 12
1.0
 22
0.0
 32
0.0
 13
1.0
 23
0.0
 33
0.0
 40
0.0
 40
0.0
 40
0.0
 40
0.0
 40
0.2
 40
0.2
 40
0.2
 40
0.2
 40
0.4
 40
0.4
 40
0.4
 40
0.4
 40
0.6
 40
0.6
 40
0.6
 40
0.6
 40
1.0
 40
1.0
 40
1.0
 40
1.0
 10
-2.25517
 20
5.72256
 30
0.0
 10
-2.25517
 20
5.72256
 30
0.0
 10
11.98955
 20
5.72256
 30
0.0
 10
11.98955
 20
5.72256
 30
0.0
 10
11.98955
 20
5.72256
 30
0.0
 10
11.98955
 20
5.72256
 30
0.0
 10
11.98955
 20
-7.54186
 30
0.0
 10
11.98955
 20
-7.54186
 30
0.0
 10
11.98955
 20
-7.54186
 30
0.0
 10
11.98955
 20
-7.54186
 30
0.0
 10
-2.25517
 20
-7.54186
 30
0.0
 10
-2.25517
 20
-7.54186
 30
0.0
 10
-2.25517
 20
-7.54186
 30
0.0
 10
-2.25517
 20
-7.54186
 30
0.0
 10
-2.25517
 20
5.72256
 30
0.0
 10
-2.25517
 20
5.72256
 30
0.0
  0
ENDSEC
  0
SECTION
  2
OBJECTS
  0
DICTIONARY
  5
C
330
0
100
AcDbDictionary
281
     1
  3
ACAD_GROUP
350
D
  3
ACAD_LAYOUT
350
1A
  3
ACAD_MATERIAL
350
3B
  3
ACAD_MLEADERSTYLE
350
177
  3
ACAD_MLINESTYLE
350
17
  3
ACAD_PLOTSETTINGS
350
19
  3
ACAD_PLOTSTYLENAME
350
E
  3
ACAD_VISUALSTYLE
350
2A
  3
AcDbVariableDictionary
350
175
  0
DICTIONARY
  5
D
102
{ACAD_REACTORS
330
C
102
}
330
C
100
AcDbDictionary
281
     1
  0
DICTIONARY
  5
1A
102
{ACAD_REACTORS
330
C
102
}
330
C
100
AcDbDictionary
281
     1
  3
Layout1
350
1E
  3
Layout2
350
26
  3
Model
350
22
  0
DICTIONARY
  5
3B
102
{ACAD_REACTORS
330
C
102
}
330
C
100
AcDbDictionary
281
     1
  3
ByBlock
350
3D
  3
ByLayer
350
3C
  3
Global
350
3E
  0
DICTIONARY
  5
177
102
{ACAD_REACTORS
330
C
102
}
330
C
100
AcDbDictionary
281
     1
  0
DICTIONARY
  5
17
102
{ACAD_REACTORS
330
C
102
}
330
C
100
AcDbDictionary
281
     1
  3
Standard
350
18
  0
DICTIONARY
  5
19
102
{ACAD_REACTORS
330
C
102
}
330
C
100
AcDbDictionary
281
     1
  0
ACDBDICTIONARYWDFLT
  5
E
102
{ACAD_REACTORS
330
C
102
}
330
C
100
AcDbDictionary
281
     1
  3
Normal
350
F
100
AcDbDictionaryWithDefault
340
F
  0
DICTIONARY
  5
2A
102
{ACAD_REACTORS
330
C
102
}
330
C
100
AcDbDictionary
281
     1
  3
2dWireframe
350
2F
  3
3D Hidden
350
31
  3
3dWireframe
350
30
  3
Basic
350
32
  3
Brighten
350
36
  3
ColorChange
350
3A
  3
Conceptual
350
34
  3
Dim
350
35
  3
Facepattern
350
39
  3
Flat
350
2B
  3
FlatWithEdges
350
2C
  3
Gouraud
350
2D
  3
GouraudWithEdges
350
2E
  3
Linepattern
350
38
  3
Realistic
350
33
  3
Thicken
350
37
  0
DICTIONARY
  5
175
102
{ACAD_REACTORS
330
C
102
}
330
C
100
AcDbDictionary
281
     1
  3
DIMASSOC
350
178
  3
HIDETEXT
350
179
  0
LAYOUT
  5
1E
102
{ACAD_REACTORS
330
1A
102
}
330
1A
100
AcDbPlotSettings
  1

  2
none_device
  4

  6

 40
0.0
 41
0.0
 42
0.0
 43
0.0
 44
0.0
 45
0.0
 46
0.0
 47
0.0
 48
0.0
 49
0.0
140
0.0
141
0.0
142
1.0
143
1.0
 70
   688
 72
     0
 73
     0
 74
     5
  7

 75
    16
147
1.0
148
0.0
149
0.0
100
AcDbLayout
  1
Layout1
 70
     1
 71
     1
 10
0.0
 20
0.0
 11
12.0
 21
9.0
 12
0.0
 22
0.0
 32
0.0
 14
1.000000000000000E+20
 24
1.000000000000000E+20
 34
1.000000000000000E+20
 15
-1.000000000000000E+20
 25
-1.000000000000000E+20
 35
-1.000000000000000E+20
146
0.0
 13
0.0
 23
0.0
 33
0.0
 16
1.0
 26
0.0
 36
0.0
 17
0.0
 27
1.0
 37
0.0
 76
     0
330
1B
  0
LAYOUT
  5
26
102
{ACAD_REACTORS
330
1A
102
}
330
1A
100
AcDbPlotSettings
  1

  2
none_device
  4

  6

 40
0.0
 41
0.0
 42
0.0
 43
0.0
 44
0.0
 45
0.0
 46
0.0
 47
0.0
 48
0.0
 49
0.0
140
0.0
141
0.0
142
1.0
143
1.0
 70
   688
 72
     0
 73
     0
 74
     5
  7

 75
    16
147
1.0
148
0.0
149
0.0
100
AcDbLayout
  1
Layout2
 70
     1
 71
     2
 10
0.0
 20
0.0
 11
0.0
 21
0.0
 12
0.0
 22
0.0
 32
0.0
 14
0.0
 24
0.0
 34
0.0
 15
0.0
 25
0.0
 35
0.0
146
0.0
 13
0.0
 23
0.0
 33
0.0
 16
1.0
 26
0.0
 36
0.0
 17
0.0
 27
1.0
 37
0.0
 76
     0
330
23
  0
LAYOUT
  5
22
102
{ACAD_REACTORS
330
1A
102
}
330
1A
100
AcDbPlotSettings
  1

  2
none_device
  4

  6

 40
0.0
 41
0.0
 42
0.0
 43
0.0
 44
0.0
 45
0.0
 46
0.0
 47
0.0
 48
0.0
 49
0.0
140
0.0
141
0.0
142
1.0
143
1.0
 70
  1712
 72
     0
 73
     0
 74
     0
  7

 75
     0
147
1.0
148
0.0
149
0.0
100
AcDbLayout
  1
Model
 70
     1
 71
     0
 10
0.0
 20
0.0
 11
12.0
 21
9.0
 12
0.0
 22
0.0
 32
0.0
 14
-17.21137
 24
-7.60485
 34
0.0
 15
11.98955
 25
5.72256
 35
0.0
146
0.0
 13
0.0
 23
0.0
 33
0.0
 16
1.0
 26
0.0
 36
0.0
 17
0.0
 27
1.0
 37
0.0
 76
     0
330
1F
331
29
  0
MATERIAL
  5
3D
102
{ACAD_REACTORS
330
3B
102
}
102
{ACAD_XDICTIONARY
360
19C
102
}
330
3B
100
AcDbMaterial
  1
ByBlock
  0
MATERIAL
  5
3C
102
{ACAD_REACTORS
330
3B
102
}
102
{ACAD_XDICTIONARY
360
19A
102
}
330
3B
100
AcDbMaterial
  1
ByLayer
  0
MATERIAL
  5
3E
102
{ACAD_REACTORS
330
3B
102
}
102
{ACAD_XDICTIONARY
360
19E
102
}
330
3B
100
AcDbMaterial
  1
Global
  0
MLINESTYLE
  5
18
102
{ACAD_REACTORS
330
17
102
}
330
17
100
AcDbMlineStyle
  2
Standard
 70
     0
  3

 62
   256
 51
90.0
 52
90.0
 71
     2
 49
0.5
 62
   256
  6
BYLAYER
 49
-0.5
 62
   256
  6
BYLAYER
  0
ACDBPLACEHOLDER
  5
F
102
{ACAD_REACTORS
330
E
102
}
330
E
  0
VISUALSTYLE
  5
2F
102
{ACAD_REACTORS
330
2A
102
}
102
{ACAD_XDICTIONARY
360
182
102
}
330
2A
100
AcDbVisualStyle
  2
2dWireframe
 70
     4
 71
     0
 72
     2
 73
     0
 90
        0
 40
-0.6
 41
-30.0
 62
     5
 63
     7
 74
     1
 91
        4
 64
     7
 65
   257
 75
     1
175
     1
 42
1.0
 92
        0
 66
   257
 43
1.0
 76
     1
 77
     6
 78
     2
 67
     7
 79
     5
170
     0
171
     0
290
     0
174
     0
 93
        1
 44
0.0
173
     0
291
     0
 45
0.0
1001
ACAD
1000
AcDbSavedByObjectVersion
1070
     0
  0
VISUALSTYLE
  5
31
102
{ACAD_REACTORS
330
2A
102
}
102
{ACAD_XDICTIONARY
360
186
102
}
330
2A
100
AcDbVisualStyle
  2
3D Hidden
 70
     6
 71
     1
 72
     2
 73
     2
 90
        0
 40
-0.6
 41
-30.0
 62
     5
 63
     7
 74
     2
 91
        2
 64
     7
 65
   257
 75
     2
175
     1
 42
40.0
 92
        0
 66
   257
 43
1.0
 76
     1
 77
     6
 78
     2
 67
     7
 79
     3
170
     0
171
     0
290
     0
174
     0
 93
        1
 44
0.0
173
     0
291
     0
 45
0.0
1001
ACAD
1000
AcDbSavedByObjectVersion
1070
     0
  0
VISUALSTYLE
  5
30
102
{ACAD_REACTORS
330
2A
102
}
102
{ACAD_XDICTIONARY
360
184
102
}
330
2A
100
AcDbVisualStyle
  2
3dWireframe
 70
     5
 71
     0
 72
     2
 73
     0
 90
        0
 40
-0.6
 41
-30.0
 62
     5
 63
     7
 74
     1
 91
        4
 64
     7
 65
   257
 75
     1
175
     1
 42
1.0
 92
        0
 66
   257
 43
1.0
 76
     1
 77
     6
 78
     2
 67
     7
 79
     5
170
     0
171
     0
290
     0
174
     0
 93
        1
 44
0.0
173
     0
291
     0
 45
0.0
1001
ACAD
1000
AcDbSavedByObjectVersion
1070
     0
  0
VISUALSTYLE
  5
32
102
{ACAD_REACTORS
330
2A
102
}
102
{ACAD_XDICTIONARY
360
188
102
}
330
2A
100
AcDbVisualStyle
  2
Basic
 70
     7
 71
     1
 72
     0
 73
     1
 90
        0
 40
-0.6
 41
-30.0
 62
     5
 63
     7
 74
     0
 91
        4
 64
     7
 65
   257
 75
     1
175
     1
 42
1.0
 92
        8
 66
     7
 43
1.0
 76
     1
 77
     6
 78
     2
 67
     7
 79
     5
170
     0
171
     0
290
     0
174
     0
 93
        1
 44
0.0
173
     0
291
     1
 45
0.0
1001
ACAD
1000
AcDbSavedByObjectVersion
1070
     0
  0
VISUALSTYLE
  5
36
102
{ACAD_REACTORS
330
2A
102
}
102
{ACAD_XDICTIONARY
360
190
102
}
330
2A
100
AcDbVisualStyle
  2
Brighten
 70
    12
 71
     2
 72
     2
 73
     0
 90
        0
 40
-0.6
 41
-30.0
 62
     5
 63
     7
 74
     1
 91
        4
 64
     7
 65
   257
 75
     1
175
     1
 42
1.0
 92
        8
 66
     7
 43
1.0
 76
     1
 77
     6
 78
     2
 67
     7
 79
     5
170
     0
171
     0
290
     0
174
     0
 93
        1
 44
50.0
173
     0
291
     1
 45
0.0
1001
ACAD
1000
AcDbSavedByObjectVersion
1070
     0
  0
VISUALSTYLE
  5
3A
102
{ACAD_REACTORS
330
2A
102
}
102
{ACAD_XDICTIONARY
360
198
102
}
330
2A
100
AcDbVisualStyle
  2
ColorChange
 70
    16
 71
     2
 72
     2
 73
     3
 90
        0
 40
-0.6
 41
-30.0
 62
     5
 63
     8
 74
     1
 91
        4
 64
     7
 65
   257
 75
     1
175
     1
 42
1.0
 92
        8
 66
     8
 43
1.0
 76
     1
 77
     6
 78
     2
 67
     7
 79
     5
170
     0
171
     0
290
     0
174
     0
 93
        1
 44
0.0
173
     0
291
     1
 45
0.0
1001
ACAD
1000
AcDbSavedByObjectVersion
1070
     0
  0
VISUALSTYLE
  5
34
102
{ACAD_REACTORS
330
2A
102
}
102
{ACAD_XDICTIONARY
360
18C
102
}
330
2A
100
AcDbVisualStyle
  2
Conceptual
 70
     9
 71
     3
 72
     2
 73
     0
 90
        0
 40
-0.6
 41
-30.0
 62
     5
 63
     7
 74
     2
 91
        2
 64
     7
 65
   257
 75
     1
175
     1
 42
40.0
 92
        8
 66
     7
 43
1.0
 76
     1
 77
     6
 78
     2
 67
     7
 79
     3
170
     0
171
     0
290
     0
174
     0
 93
        1
 44
0.0
173
     0
291
     0
 45
0.0
1001
ACAD
1000
AcDbSavedByObjectVersion
1070
     0
  0
VISUALSTYLE
  5
35
102
{ACAD_REACTORS
330
2A
102
}
102
{ACAD_XDICTIONARY
360
18E
102
}
330
2A
100
AcDbVisualStyle
  2
Dim
 70
    11
 71
     2
 72
     2
 73
     0
 90
        0
 40
-0.6
 41
-30.0
 62
     5
 63
     7
 74
     1
 91
        4
 64
     7
 65
   257
 75
     1
175
     1
 42
1.0
 92
        8
 66
     7
 43
1.0
 76
     1
 77
     6
 78
     2
 67
     7
 79
     5
170
     0
171
     0
290
     0
174
     0
 93
        1
 44
-50.0
173
     0
291
     1
 45
0.0
1001
ACAD
1000
AcDbSavedByObjectVersion
1070
     0
  0
VISUALSTYLE
  5
39
102
{ACAD_REACTORS
330
2A
102
}
102
{ACAD_XDICTIONARY
360
196
102
}
330
2A
100
AcDbVisualStyle
  2
Facepattern
 70
    15
 71
     2
 72
     2
 73
     0
 90
        0
 40
-0.6
 41
-30.0
 62
     5
 63
     7
 74
     1
 91
        4
 64
     7
 65
   257
 75
     1
175
     1
 42
1.0
 92
        8
 66
     7
 43
1.0
 76
     1
 77
     6
 78
     2
 67
     7
 79
     5
170
     0
171
     0
290
     0
174
     0
 93
        1
 44
0.0
173
     0
291
     1
 45
0.0
1001
ACAD
1000
AcDbSavedByObjectVersion
1070
     0
  0
VISUALSTYLE
  5
2B
102
{ACAD_REACTORS
330
2A
102
}
102
{ACAD_XDICTIONARY
360
17A
102
}
330
2A
100
AcDbVisualStyle
  2
Flat
 70
     0
 71
     2
 72
     1
 73
     1
 90
        2
 40
-0.6
 41
30.0
 62
     5
 63
     7
 74
     0
 91
        4
 64
     7
 65
   257
 75
     1
175
     1
 42
1.0
 92
        8
 66
     7
 43
1.0
 76
     1
 77
     6
 78
     2
 67
     7
 79
     5
170
     0
171
     0
290
     0
174
     0
 93
       13
 44
0.0
173
     0
291
     1
 45
0.0
1001
ACAD
1000
AcDbSavedByObjectVersion
1070
     0
  0
VISUALSTYLE
  5
2C
102
{ACAD_REACTORS
330
2A
102
}
102
{ACAD_XDICTIONARY
360
17C
102
}
330
2A
100
AcDbVisualStyle
  2
FlatWithEdges
 70
     1
 71
     2
 72
     1
 73
     1
 90
        2
 40
-0.6
 41
30.0
 62
     5
 63
     7
 74
     1
 91
        4
 64
     7
 65
   257
 75
     1
175
     1
 42
1.0
 92
        0
 66
   257
 43
1.0
 76
     1
 77
     6
 78
     2
 67
     7
 79
     5
170
     0
171
     0
290
     0
174
     0
 93
       13
 44
0.0
173
     0
291
     1
 45
0.0
1001
ACAD
1000
AcDbSavedByObjectVersion
1070
     0
  0
VISUALSTYLE
  5
2D
102
{ACAD_REACTORS
330
2A
102
}
102
{ACAD_XDICTIONARY
360
17E
102
}
330
2A
100
AcDbVisualStyle
  2
Gouraud
 70
     2
 71
     2
 72
     2
 73
     1
 90
        2
 40
-0.6
 41
30.0
 62
     5
 63
     7
 74
     0
 91
        4
 64
     7
 65
   257
 75
     1
175
     1
 42
1.0
 92
        0
 66
     7
 43
1.0
 76
     1
 77
     6
 78
     2
 67
     7
 79
     5
170
     0
171
     0
290
     0
174
     0
 93
       13
 44
0.0
173
     0
291
     1
 45
0.0
1001
ACAD
1000
AcDbSavedByObjectVersion
1070
     0
  0
VISUALSTYLE
  5
2E
102
{ACAD_REACTORS
330
2A
102
}
102
{ACAD_XDICTIONARY
360
180
102
}
330
2A
100
AcDbVisualStyle
  2
GouraudWithEdges
 70
     3
 71
     2
 72
     2
 73
     1
 90
        2
 40
-0.6
 41
30.0
 62
     5
 63
     7
 74
     1
 91
        4
 64
     7
 65
   257
 75
     1
175
     1
 42
1.0
 92
        0
 66
   257
 43
1.0
 76
     1
 77
     6
 78
     2
 67
     7
 79
     5
170
     0
171
     0
290
     0
174
     0
 93
       13
 44
0.0
173
     0
291
     1
 45
0.0
1001
ACAD
1000
AcDbSavedByObjectVersion
1070
     0
  0
VISUALSTYLE
  5
38
102
{ACAD_REACTORS
330
2A
102
}
102
{ACAD_XDICTIONARY
360
194
102
}
330
2A
100
AcDbVisualStyle
  2
Linepattern
 70
    14
 71
     2
 72
     2
 73
     0
 90
        0
 40
-0.6
 41
-30.0
 62
     5
 63
     7
 74
     1
 91
        4
 64
     7
 65
   257
 75
     7
175
     7
 42
1.0
 92
        8
 66
     7
 43
1.0
 76
     1
 77
     6
 78
     2
 67
     7
 79
     5
170
     0
171
     0
290
     0
174
     0
 93
        1
 44
0.0
173
     0
291
     1
 45
0.0
1001
ACAD
1000
AcDbSavedByObjectVersion
1070
     0
  0
VISUALSTYLE
  5
33
102
{ACAD_REACTORS
330
2A
102
}
102
{ACAD_XDICTIONARY
360
18A
102
}
330
2A
100
AcDbVisualStyle
  2
Realistic
 70
     8
 71
     2
 72
     2
 73
     0
 90
        0
 40
-0.6
 41
-30.0
 62
     5
 63
     7
 74
     1
 91
        0
 64
     7
 65
   257
 75
     1
175
     1
 42
1.0
 92
        8
 66
     8
 43
1.0
 76
     1
 77
     6
 78
     2
 67
     7
 79
     5
170
     0
171
     0
290
     0
174
     0
 93
       13
 44
0.0
173
     0
291
     0
 45
0.0
1001
ACAD
1000
AcDbSavedByObjectVersion
1070
     0
  0
VISUALSTYLE
  5
37
102
{ACAD_REACTORS
330
2A
102
}
102
{ACAD_XDICTIONARY
360
192
102
}
330
2A
100
AcDbVisualStyle
  2
Thicken
 70
    13
 71
     2
 72
     2
 73
     0
 90
        0
 40
-0.6
 41
-30.0
 62
     5
 63
     7
 74
     1
 91
        4
 64
     7
 65
   257
 75
     1
175
     1
 42
1.0
 92
       12
 66
     7
 43
1.0
 76
     1
 77
     6
 78
     2
 67
     7
 79
     5
170
     0
171
     0
290
     0
174
     0
 93
        1
 44
0.0
173
     0
291
     1
 45
0.0
1001
ACAD
1000
AcDbSavedByObjectVersion
1070
     0
  0
DICTIONARYVAR
  5
178
102
{ACAD_REACTORS
330
175
102
}
330
175
100
DictionaryVariables
280
     0
  1
2
  0
DICTIONARYVAR
  5
179
102
{ACAD_REACTORS
330
175
102
}
330
175
100
DictionaryVariables
280
     0
  1
1
  0
DICTIONARY
  5
19C
330
3D
100
AcDbDictionary
280
     1
281
     1
  3
ACAD_XREC_ROUNDTRIP
360
19D
  0
DICTIONARY
  5
19A
330
3C
100
AcDbDictionary
280
     1
281
     1
  3
ACAD_XREC_ROUNDTRIP
360
19B
  0
DICTIONARY
  5
19E
330
3E
100
AcDbDictionary
280
     1
281
     1
  3
ACAD_XREC_ROUNDTRIP
360
19F
  0
DICTIONARY
  5
182
330
2F
100
AcDbDictionary
280
     1
281
     1
  3
ACAD_XREC_ROUNDTRIP
360
183
  0
DICTIONARY
  5
186
330
31
100
AcDbDictionary
280
     1
281
     1
  3
ACAD_XREC_ROUNDTRIP
360
187
  0
DICTIONARY
  5
184
330
30
100
AcDbDictionary
280
     1
281
     1
  3
ACAD_XREC_ROUNDTRIP
360
185
  0
DICTIONARY
  5
188
330
32
100
AcDbDictionary
280
     1
281
     1
  3
ACAD_XREC_ROUNDTRIP
360
189
  0
DICTIONARY
  5
190
330
36
100
AcDbDictionary
280
     1
281
     1
  3
ACAD_XREC_ROUNDTRIP
360
191
  0
DICTIONARY
  5
198
330
3A
100
AcDbDictionary
280
     1
281
     1
  3
ACAD_XREC_ROUNDTRIP
360
199
  0
DICTIONARY
  5
18C
330
34
100
AcDbDictionary
280
     1
281
     1
  3
ACAD_XREC_ROUNDTRIP
360
18D
  0
DICTIONARY
  5
18E
330
35
100
AcDbDictionary
280
     1
281
     1
  3
ACAD_XREC_ROUNDTRIP
360
18F
  0
DICTIONARY
  5
196
330
39
100
AcDbDictionary
280
     1
281
     1
  3
ACAD_XREC_ROUNDTRIP
360
197
  0
DICTIONARY
  5
17A
330
2B
100
AcDbDictionary
280
     1
281
     1
  3
ACAD_XREC_ROUNDTRIP
360
17B
  0
DICTIONARY
  5
17C
330
2C
100
AcDbDictionary
280
     1
281
     1
  3
ACAD_XREC_ROUNDTRIP
360
17D
  0
DICTIONARY
  5
17E
330
2D
100
AcDbDictionary
280
     1
281
     1
  3
ACAD_XREC_ROUNDTRIP
360
17F
  0
DICTIONARY
  5
180
330
2E
100
AcDbDictionary
280
     1
281
     1
  3
ACAD_XREC_ROUNDTRIP
360
181
  0
DICTIONARY
  5
194
330
38
100
AcDbDictionary
280
     1
281
     1
  3
ACAD_XREC_ROUNDTRIP
360
195
  0
DICTIONARY
  5
18A
330
33
100
AcDbDictionary
280
     1
281
     1
  3
ACAD_XREC_ROUNDTRIP
360
18B
  0
DICTIONARY
  5
192
330
37
100
AcDbDictionary
280
     1
281
     1
  3
ACAD_XREC_ROUNDTRIP
360
193
  0
XRECORD
  5
19D
102
{ACAD_REACTORS
330
19C
102
}
330
19C
100
AcDbXrecord
280
     1
102
MATERIAL
148
0.0
149
0.0
149
0.0
 93
        0
 94
      127
282
     0
 72
     1
 77
     1
171
     1
175
     1
179
     1
273
     0
  0
XRECORD
  5
19B
102
{ACAD_REACTORS
330
19A
102
}
330
19A
100
AcDbXrecord
280
     1
102
MATERIAL
148
0.0
149
0.0
149
0.0
 93
        0
 94
      127
282
     0
 72
     1
 77
     1
171
     1
175
     1
179
     1
273
     0
  0
XRECORD
  5
19F
102
{ACAD_REACTORS
330
19E
102
}
330
19E
100
AcDbXrecord
280
     1
102
MATERIAL
148
0.0
149
0.0
149
0.0
 93
        0
 94
      127
282
     0
 72
     1
 77
     1
171
     1
175
     1
179
     1
273
     0
  0
XRECORD
  5
183
102
{ACAD_REACTORS
330
182
102
}
330
182
100
AcDbXrecord
280
     1
102
RTVSPropertyOp0
 70
     1
102
RTVSPropertyOp1
 70
     1
102
RTVSPropertyOp2
 70
     1
102
RTVSPropertyOp3
 70
     1
102
RTVSPropertyOp4
 70
     1
102
RTVSPropertyOp5
 70
     1
102
RTVSPropertyOp6
 70
     1
102
RTVSPropertyOp7
 70
     1
102
RTVSPropertyOp8
 70
     1
102
RTVSPropertyOp9
 70
     1
102
RTVSPropertyOp10
 70
     1
102
RTVSPropertyOp11
 70
     1
102
RTVSPropertyOp12
 70
     1
102
RTVSPropertyOp13
 70
     1
102
RTVSPropertyOp14
 70
     1
102
RTVSPropertyOp15
 70
     1
102
RTVSPropertyOp16
 70
     1
102
RTVSPropertyOp17
 70
     1
102
RTVSPropertyOp18
 70
     1
102
RTVSPropertyOp19
 70
     1
102
RTVSPropertyOp20
 70
     1
102
RTVSPropertyOp21
 70
     1
102
RTVSPropertyOp22
 70
     1
102
RTVSPropertyOp23
 70
     1
102
RTVSPropertyOp24
 70
     1
102
RTVSPropertyOp25
 70
     1
102
RTVSPropertyOp26
 70
     1
102
RTVSPropertyOp27
 70
     1
102
RTVSPropertyOp28
 70
     1
102
RTVSPropertyOp29
 70
     1
102
RTVSPropertyOp30
 70
     1
102
RTVSPropertyOp31
 70
     1
102
RTVSPropertyOp32
 70
     1
  0
XRECORD
  5
187
102
{ACAD_REACTORS
330
186
102
}
330
186
100
AcDbXrecord
280
     1
102
RTVSPropertyOp0
 70
     1
102
RTVSPropertyOp1
 70
     1
102
RTVSPropertyOp2
 70
     1
102
RTVSPropertyOp3
 70
     1
102
RTVSPropertyOp4
 70
     1
102
RTVSPropertyOp5
 70
     1
102
RTVSPropertyOp6
 70
     1
102
RTVSPropertyOp7
 70
     1
102
RTVSPropertyOp8
 70
     1
102
RTVSPropertyOp9
 70
     1
102
RTVSPropertyOp10
 70
     1
102
RTVSPropertyOp11
 70
     1
102
RTVSPropertyOp12
 70
     1
102
RTVSPropertyOp13
 70
     1
102
RTVSPropertyOp14
 70
     1
102
RTVSPropertyOp15
 70
     1
102
RTVSPropertyOp16
 70
     1
102
RTVSPropertyOp17
 70
     1
102
RTVSPropertyOp18
 70
     1
102
RTVSPropertyOp19
 70
     1
102
RTVSPropertyOp20
 70
     1
102
RTVSPropertyOp21
 70
     1
102
RTVSPropertyOp22
 70
     1
102
RTVSPropertyOp23
 70
     1
102
RTVSPropertyOp24
 70
     1
102
RTVSPropertyOp25
 70
     1
102
RTVSPropertyOp26
 70
     1
102
RTVSPropertyOp27
 70
     1
102
RTVSPropertyOp28
 70
     1
102
RTVSPropertyOp29
 70
     1
102
RTVSPropertyOp30
 70
     1
102
RTVSPropertyOp31
 70
     1
102
RTVSPropertyOp32
 70
     1
  0
XRECORD
  5
185
102
{ACAD_REACTORS
330
184
102
}
330
184
100
AcDbXrecord
280
     1
102
RTVSPropertyOp0
 70
     1
102
RTVSPropertyOp1
 70
     1
102
RTVSPropertyOp2
 70
     1
102
RTVSPropertyOp3
 70
     1
102
RTVSPropertyOp4
 70
     1
102
RTVSPropertyOp5
 70
     1
102
RTVSPropertyOp6
 70
     1
102
RTVSPropertyOp7
 70
     1
102
RTVSPropertyOp8
 70
     1
102
RTVSPropertyOp9
 70
     1
102
RTVSPropertyOp10
 70
     1
102
RTVSPropertyOp11
 70
     1
102
RTVSPropertyOp12
 70
     1
102
RTVSPropertyOp13
 70
     1
102
RTVSPropertyOp14
 70
     1
102
RTVSPropertyOp15
 70
     1
102
RTVSPropertyOp16
 70
     1
102
RTVSPropertyOp17
 70
     1
102
RTVSPropertyOp18
 70
     1
102
RTVSPropertyOp19
 70
     1
102
RTVSPropertyOp20
 70
     1
102
RTVSPropertyOp21
 70
     1
102
RTVSPropertyOp22
 70
     1
102
RTVSPropertyOp23
 70
     1
102
RTVSPropertyOp24
 70
     1
102
RTVSPropertyOp25
 70
     1
102
RTVSPropertyOp26
 70
     1
102
RTVSPropertyOp27
 70
     1
102
RTVSPropertyOp28
 70
     1
102
RTVSPropertyOp29
 70
     1
102
RTVSPropertyOp30
 70
     1
102
RTVSPropertyOp31
 70
     1
102
RTVSPropertyOp32
 70
     1
  0
XRECORD
  5
189
102
{ACAD_REACTORS
330
188
102
}
330
188
100
AcDbXrecord
280
     1
102
RTVSPropertyOp0
 70
     1
102
RTVSPropertyOp1
 70
     1
102
RTVSPropertyOp2
 70
     1
102
RTVSPropertyOp3
 70
     1
102
RTVSPropertyOp4
 70
     1
102
RTVSPropertyOp5
 70
     1
102
RTVSPropertyOp6
 70
     1
102
RTVSPropertyOp7
 70
     1
102
RTVSPropertyOp8
 70
     1
102
RTVSPropertyOp9
 70
     1
102
RTVSPropertyOp10
 70
     1
102
RTVSPropertyOp11
 70
     1
102
RTVSPropertyOp12
 70
     1
102
RTVSPropertyOp13
 70
     1
102
RTVSPropertyOp14
 70
     1
102
RTVSPropertyOp15
 70
     1
102
RTVSPropertyOp16
 70
     1
102
RTVSPropertyOp17
 70
     1
102
RTVSPropertyOp18
 70
     1
102
RTVSPropertyOp19
 70
     1
102
RTVSPropertyOp20
 70
     1
102
RTVSPropertyOp21
 70
     1
102
RTVSPropertyOp22
 70
     1
102
RTVSPropertyOp23
 70
     1
102
RTVSPropertyOp24
 70
     1
102
RTVSPropertyOp25
 70
     1
102
RTVSPropertyOp26
 70
     1
102
RTVSPropertyOp27
 70
     1
102
RTVSPropertyOp28
 70
     1
102
RTVSPropertyOp29
 70
     1
102
RTVSPropertyOp30
 70
     1
102
RTVSPropertyOp31
 70
     1
102
RTVSPropertyOp32
 70
     1
  0
XRECORD
  5
191
102
{ACAD_REACTORS
330
190
102
}
330
190
100
AcDbXrecord
280
     1
102
RTVSPropertyOp0
 70
     1
102
RTVSPropertyOp1
 70
     1
102
RTVSPropertyOp2
 70
     1
102
RTVSPropertyOp3
 70
     1
102
RTVSPropertyOp4
 70
     1
102
RTVSPropertyOp5
 70
     1
102
RTVSPropertyOp6
 70
     1
102
RTVSPropertyOp7
 70
     1
102
RTVSPropertyOp8
 70
     1
102
RTVSPropertyOp9
 70
     1
102
RTVSPropertyOp10
 70
     1
102
RTVSPropertyOp11
 70
     1
102
RTVSPropertyOp12
 70
     1
102
RTVSPropertyOp13
 70
     1
102
RTVSPropertyOp14
 70
     1
102
RTVSPropertyOp15
 70
     1
102
RTVSPropertyOp16
 70
     1
102
RTVSPropertyOp17
 70
     1
102
RTVSPropertyOp18
 70
     1
102
RTVSPropertyOp19
 70
     1
102
RTVSPropertyOp20
 70
     1
102
RTVSPropertyOp21
 70
     1
102
RTVSPropertyOp22
 70
     1
102
RTVSPropertyOp23
 70
     1
102
RTVSPropertyOp24
 70
     1
102
RTVSPropertyOp25
 70
     1
102
RTVSPropertyOp26
 70
     1
102
RTVSPropertyOp27
 70
     1
102
RTVSPropertyOp28
 70
     1
102
RTVSPropertyOp29
 70
     1
102
RTVSPropertyOp30
 70
     1
102
RTVSPropertyOp31
 70
     1
102
RTVSPropertyOp32
 70
     1
  0
XRECORD
  5
199
102
{ACAD_REACTORS
330
198
102
}
330
198
100
AcDbXrecord
280
     1
102
RTVSPropertyOp0
 70
     1
102
RTVSPropertyOp1
 70
     1
102
RTVSPropertyOp2
 70
     1
102
RTVSPropertyOp3
 70
     1
102
RTVSPropertyOp4
 70
     1
102
RTVSPropertyOp5
 70
     1
102
RTVSPropertyOp6
 70
     1
102
RTVSPropertyOp7
 70
     1
102
RTVSPropertyOp8
 70
     1
102
RTVSPropertyOp9
 70
     1
102
RTVSPropertyOp10
 70
     1
102
RTVSPropertyOp11
 70
     1
102
RTVSPropertyOp12
 70
     1
102
RTVSPropertyOp13
 70
     1
102
RTVSPropertyOp14
 70
     1
102
RTVSPropertyOp15
 70
     1
102
RTVSPropertyOp16
 70
     1
102
RTVSPropertyOp17
 70
     1
102
RTVSPropertyOp18
 70
     1
102
RTVSPropertyOp19
 70
     1
102
RTVSPropertyOp20
 70
     1
102
RTVSPropertyOp21
 70
     1
102
RTVSPropertyOp22
 70
     1
102
RTVSPropertyOp23
 70
     1
102
RTVSPropertyOp24
 70
     1
102
RTVSPropertyOp25
 70
     1
102
RTVSPropertyOp26
 70
     1
102
RTVSPropertyOp27
 70
     1
102
RTVSPropertyOp28
 70
     1
102
RTVSPropertyOp29
 70
     1
102
RTVSPropertyOp30
 70
     1
102
RTVSPropertyOp31
 70
     1
102
RTVSPropertyOp32
 70
     1
  0
XRECORD
  5
18D
102
{ACAD_REACTORS
330
18C
102
}
330
18C
100
AcDbXrecord
280
     1
102
RTVSPropertyOp0
 70
     1
102
RTVSPropertyOp1
 70
     1
102
RTVSPropertyOp2
 70
     1
102
RTVSPropertyOp3
 70
     1
102
RTVSPropertyOp4
 70
     1
102
RTVSPropertyOp5
 70
     1
102
RTVSPropertyOp6
 70
     1
102
RTVSPropertyOp7
 70
     1
102
RTVSPropertyOp8
 70
     1
102
RTVSPropertyOp9
 70
     1
102
RTVSPropertyOp10
 70
     1
102
RTVSPropertyOp11
 70
     1
102
RTVSPropertyOp12
 70
     1
102
RTVSPropertyOp13
 70
     1
102
RTVSPropertyOp14
 70
     1
102
RTVSPropertyOp15
 70
     1
102
RTVSPropertyOp16
 70
     1
102
RTVSPropertyOp17
 70
     1
102
RTVSPropertyOp18
 70
     1
102
RTVSPropertyOp19
 70
     1
102
RTVSPropertyOp20
 70
     1
102
RTVSPropertyOp21
 70
     1
102
RTVSPropertyOp22
 70
     1
102
RTVSPropertyOp23
 70
     1
102
RTVSPropertyOp24
 70
     1
102
RTVSPropertyOp25
 70
     1
102
RTVSPropertyOp26
 70
     1
102
RTVSPropertyOp27
 70
     1
102
RTVSPropertyOp28
 70
     1
102
RTVSPropertyOp29
 70
     1
102
RTVSPropertyOp30
 70
     1
102
RTVSPropertyOp31
 70
     1
102
RTVSPropertyOp32
 70
     1
  0
XRECORD
  5
18F
102
{ACAD_REACTORS
330
18E
102
}
330
18E
100
AcDbXrecord
280
     1
102
RTVSPropertyOp0
 70
     1
102
RTVSPropertyOp1
 70
     1
102
RTVSPropertyOp2
 70
     1
102
RTVSPropertyOp3
 70
     1
102
RTVSPropertyOp4
 70
     1
102
RTVSPropertyOp5
 70
     1
102
RTVSPropertyOp6
 70
     1
102
RTVSPropertyOp7
 70
     1
102
RTVSPropertyOp8
 70
     1
102
RTVSPropertyOp9
 70
     1
102
RTVSPropertyOp10
 70
     1
102
RTVSPropertyOp11
 70
     1
102
RTVSPropertyOp12
 70
     1
102
RTVSPropertyOp13
 70
     1
102
RTVSPropertyOp14
 70
     1
102
RTVSPropertyOp15
 70
     1
102
RTVSPropertyOp16
 70
     1
102
RTVSPropertyOp17
 70
     1
102
RTVSPropertyOp18
 70
     1
102
RTVSPropertyOp19
 70
     1
102
RTVSPropertyOp20
 70
     1
102
RTVSPropertyOp21
 70
     1
102
RTVSPropertyOp22
 70
     1
102
RTVSPropertyOp23
 70
     1
102
RTVSPropertyOp24
 70
     1
102
RTVSPropertyOp25
 70
     1
102
RTVSPropertyOp26
 70
     1
102
RTVSPropertyOp27
 70
     1
102
RTVSPropertyOp28
 70
     1
102
RTVSPropertyOp29
 70
     1
102
RTVSPropertyOp30
 70
     1
102
RTVSPropertyOp31
 70
     1
102
RTVSPropertyOp32
 70
     1
  0
XRECORD
  5
197
102
{ACAD_REACTORS
330
196
102
}
330
196
100
AcDbXrecord
280
     1
102
RTVSPropertyOp0
 70
     1
102
RTVSPropertyOp1
 70
     1
102
RTVSPropertyOp2
 70
     1
102
RTVSPropertyOp3
 70
     1
102
RTVSPropertyOp4
 70
     1
102
RTVSPropertyOp5
 70
     1
102
RTVSPropertyOp6
 70
     1
102
RTVSPropertyOp7
 70
     1
102
RTVSPropertyOp8
 70
     1
102
RTVSPropertyOp9
 70
     1
102
RTVSPropertyOp10
 70
     1
102
RTVSPropertyOp11
 70
     1
102
RTVSPropertyOp12
 70
     1
102
RTVSPropertyOp13
 70
     1
102
RTVSPropertyOp14
 70
     1
102
RTVSPropertyOp15
 70
     1
102
RTVSPropertyOp16
 70
     1
102
RTVSPropertyOp17
 70
     1
102
RTVSPropertyOp18
 70
     1
102
RTVSPropertyOp19
 70
     1
102
RTVSPropertyOp20
 70
     1
102
RTVSPropertyOp21
 70
     1
102
RTVSPropertyOp22
 70
     1
102
RTVSPropertyOp23
 70
     1
102
RTVSPropertyOp24
 70
     1
102
RTVSPropertyOp25
 70
     1
102
RTVSPropertyOp26
 70
     1
102
RTVSPropertyOp27
 70
     1
102
RTVSPropertyOp28
 70
     1
102
RTVSPropertyOp29
 70
     1
102
RTVSPropertyOp30
 70
     1
102
RTVSPropertyOp31
 70
     1
102
RTVSPropertyOp32
 70
     1
  0
XRECORD
  5
17B
102
{ACAD_REACTORS
330
17A
102
}
330
17A
100
AcDbXrecord
280
     1
102
RTVSPropertyOp0
 70
     1
102
RTVSPropertyOp1
 70
     1
102
RTVSPropertyOp2
 70
     1
102
RTVSPropertyOp3
 70
     1
102
RTVSPropertyOp4
 70
     1
102
RTVSPropertyOp5
 70
     1
102
RTVSPropertyOp6
 70
     1
102
RTVSPropertyOp7
 70
     1
102
RTVSPropertyOp8
 70
     1
102
RTVSPropertyOp9
 70
     1
102
RTVSPropertyOp10
 70
     1
102
RTVSPropertyOp11
 70
     1
102
RTVSPropertyOp12
 70
     1
102
RTVSPropertyOp13
 70
     1
102
RTVSPropertyOp14
 70
     1
102
RTVSPropertyOp15
 70
     1
102
RTVSPropertyOp16
 70
     1
102
RTVSPropertyOp17
 70
     1
102
RTVSPropertyOp18
 70
     1
102
RTVSPropertyOp19
 70
     1
102
RTVSPropertyOp20
 70
     1
102
RTVSPropertyOp21
 70
     1
102
RTVSPropertyOp22
 70
     1
102
RTVSPropertyOp23
 70
     1
102
RTVSPropertyOp24
 70
     1
102
RTVSPropertyOp25
 70
     1
102
RTVSPropertyOp26
 70
     1
102
RTVSPropertyOp27
 70
     1
102
RTVSPropertyOp28
 70
     1
102
RTVSPropertyOp29
 70
     1
102
RTVSPropertyOp30
 70
     1
102
RTVSPropertyOp31
 70
     1
102
RTVSPropertyOp32
 70
     1
  0
XRECORD
  5
17D
102
{ACAD_REACTORS
330
17C
102
}
330
17C
100
AcDbXrecord
280
     1
102
RTVSPropertyOp0
 70
     1
102
RTVSPropertyOp1
 70
     1
102
RTVSPropertyOp2
 70
     1
102
RTVSPropertyOp3
 70
     1
102
RTVSPropertyOp4
 70
     1
102
RTVSPropertyOp5
 70
     1
102
RTVSPropertyOp6
 70
     1
102
RTVSPropertyOp7
 70
     1
102
RTVSPropertyOp8
 70
     1
102
RTVSPropertyOp9
 70
     1
102
RTVSPropertyOp10
 70
     1
102
RTVSPropertyOp11
 70
     1
102
RTVSPropertyOp12
 70
     1
102
RTVSPropertyOp13
 70
     1
102
RTVSPropertyOp14
 70
     1
102
RTVSPropertyOp15
 70
     1
102
RTVSPropertyOp16
 70
     1
102
RTVSPropertyOp17
 70
     1
102
RTVSPropertyOp18
 70
     1
102
RTVSPropertyOp19
 70
     1
102
RTVSPropertyOp20
 70
     1
102
RTVSPropertyOp21
 70
     1
102
RTVSPropertyOp22
 70
     1
102
RTVSPropertyOp23
 70
     1
102
RTVSPropertyOp24
 70
     1
102
RTVSPropertyOp25
 70
     1
102
RTVSPropertyOp26
 70
     1
102
RTVSPropertyOp27
 70
     1
102
RTVSPropertyOp28
 70
     1
102
RTVSPropertyOp29
 70
     1
102
RTVSPropertyOp30
 70
     1
102
RTVSPropertyOp31
 70
     1
102
RTVSPropertyOp32
 70
     1
  0
XRECORD
  5
17F
102
{ACAD_REACTORS
330
17E
102
}
330
17E
100
AcDbXrecord
280
     1
102
RTVSPropertyOp0
 70
     1
102
RTVSPropertyOp1
 70
     1
102
RTVSPropertyOp2
 70
     1
102
RTVSPropertyOp3
 70
     1
102
RTVSPropertyOp4
 70
     1
102
RTVSPropertyOp5
 70
     1
102
RTVSPropertyOp6
 70
     1
102
RTVSPropertyOp7
 70
     1
102
RTVSPropertyOp8
 70
     1
102
RTVSPropertyOp9
 70
     1
102
RTVSPropertyOp10
 70
     1
102
RTVSPropertyOp11
 70
     1
102
RTVSPropertyOp12
 70
     1
102
RTVSPropertyOp13
 70
     1
102
RTVSPropertyOp14
 70
     1
102
RTVSPropertyOp15
 70
     1
102
RTVSPropertyOp16
 70
     1
102
RTVSPropertyOp17
 70
     1
102
RTVSPropertyOp18
 70
     1
102
RTVSPropertyOp19
 70
     1
102
RTVSPropertyOp20
 70
     1
102
RTVSPropertyOp21
 70
     1
102
RTVSPropertyOp22
 70
     1
102
RTVSPropertyOp23
 70
     1
102
RTVSPropertyOp24
 70
     1
102
RTVSPropertyOp25
 70
     1
102
RTVSPropertyOp26
 70
     1
102
RTVSPropertyOp27
 70
     1
102
RTVSPropertyOp28
 70
     1
102
RTVSPropertyOp29
 70
     1
102
RTVSPropertyOp30
 70
     1
102
RTVSPropertyOp31
 70
     1
102
RTVSPropertyOp32
 70
     1
  0
XRECORD
  5
181
102
{ACAD_REACTORS
330
180
102
}
330
180
100
AcDbXrecord
280
     1
102
RTVSPropertyOp0
 70
     1
102
RTVSPropertyOp1
 70
     1
102
RTVSPropertyOp2
 70
     1
102
RTVSPropertyOp3
 70
     1
102
RTVSPropertyOp4
 70
     1
102
RTVSPropertyOp5
 70
     1
102
RTVSPropertyOp6
 70
     1
102
RTVSPropertyOp7
 70
     1
102
RTVSPropertyOp8
 70
     1
102
RTVSPropertyOp9
 70
     1
102
RTVSPropertyOp10
 70
     1
102
RTVSPropertyOp11
 70
     1
102
RTVSPropertyOp12
 70
     1
102
RTVSPropertyOp13
 70
     1
102
RTVSPropertyOp14
 70
     1
102
RTVSPropertyOp15
 70
     1
102
RTVSPropertyOp16
 70
     1
102
RTVSPropertyOp17
 70
     1
102
RTVSPropertyOp18
 70
     1
102
RTVSPropertyOp19
 70
     1
102
RTVSPropertyOp20
 70
     1
102
RTVSPropertyOp21
 70
     1
102
RTVSPropertyOp22
 70
     1
102
RTVSPropertyOp23
 70
     1
102
RTVSPropertyOp24
 70
     1
102
RTVSPropertyOp25
 70
     1
102
RTVSPropertyOp26
 70
     1
102
RTVSPropertyOp27
 70
     1
102
RTVSPropertyOp28
 70
     1
102
RTVSPropertyOp29
 70
     1
102
RTVSPropertyOp30
 70
     1
102
RTVSPropertyOp31
 70
     1
102
RTVSPropertyOp32
 70
     1
  0
XRECORD
  5
195
102
{ACAD_REACTORS
330
194
102
}
330
194
100
AcDbXrecord
280
     1
102
RTVSPropertyOp0
 70
     1
102
RTVSPropertyOp1
 70
     1
102
RTVSPropertyOp2
 70
     1
102
RTVSPropertyOp3
 70
     1
102
RTVSPropertyOp4
 70
     1
102
RTVSPropertyOp5
 70
     1
102
RTVSPropertyOp6
 70
     1
102
RTVSPropertyOp7
 70
     1
102
RTVSPropertyOp8
 70
     1
102
RTVSPropertyOp9
 70
     1
102
RTVSPropertyOp10
 70
     1
102
RTVSPropertyOp11
 70
     1
102
RTVSPropertyOp12
 70
     1
102
RTVSPropertyOp13
 70
     1
102
RTVSPropertyOp14
 70
     1
102
RTVSPropertyOp15
 70
     1
102
RTVSPropertyOp16
 70
     1
102
RTVSPropertyOp17
 70
     1
102
RTVSPropertyOp18
 70
     1
102
RTVSPropertyOp19
 70
     1
102
RTVSPropertyOp20
 70
     1
102
RTVSPropertyOp21
 70
     1
102
RTVSPropertyOp22
 70
     1
102
RTVSPropertyOp23
 70
     1
102
RTVSPropertyOp24
 70
     1
102
RTVSPropertyOp25
 70
     1
102
RTVSPropertyOp26
 70
     1
102
RTVSPropertyOp27
 70
     1
102
RTVSPropertyOp28
 70
     1
102
RTVSPropertyOp29
 70
     1
102
RTVSPropertyOp30
 70
     1
102
RTVSPropertyOp31
 70
     1
102
RTVSPropertyOp32
 70
     1
  0
XRECORD
  5
18B
102
{ACAD_REACTORS
330
18A
102
}
330
18A
100
AcDbXrecord
280
     1
102
RTVSPropertyOp0
 70
     1
102
RTVSPropertyOp1
 70
     1
102
RTVSPropertyOp2
 70
     1
102
RTVSPropertyOp3
 70
     1
102
RTVSPropertyOp4
 70
     1
102
RTVSPropertyOp5
 70
     1
102
RTVSPropertyOp6
 70
     1
102
RTVSPropertyOp7
 70
     1
102
RTVSPropertyOp8
 70
     1
102
RTVSPropertyOp9
 70
     1
102
RTVSPropertyOp10
 70
     1
102
RTVSPropertyOp11
 70
     1
102
RTVSPropertyOp12
 70
     1
102
RTVSPropertyOp13
 70
     1
102
RTVSPropertyOp14
 70
     1
102
RTVSPropertyOp15
 70
     1
102
RTVSPropertyOp16
 70
     1
102
RTVSPropertyOp17
 70
     1
102
RTVSPropertyOp18
 70
     1
102
RTVSPropertyOp19
 70
     1
102
RTVSPropertyOp20
 70
     1
102
RTVSPropertyOp21
 70
     1
102
RTVSPropertyOp22
 70
     1
102
RTVSPropertyOp23
 70
     1
102
RTVSPropertyOp24
 70
     1
102
RTVSPropertyOp25
 70
     1
102
RTVSPropertyOp26
 70
     1
102
RTVSPropertyOp27
 70
     1
102
RTVSPropertyOp28
 70
     1
102
RTVSPropertyOp29
 70
     1
102
RTVSPropertyOp30
 70
     1
102
RTVSPropertyOp31
 70
     1
102
RTVSPropertyOp32
 70
     1
  0
XRECORD
  5
193
102
{ACAD_REACTORS
330
192
102
}
330
192
100
AcDbXrecord
280
     1
102
RTVSPropertyOp0
 70
     1
102
RTVSPropertyOp1
 70
     1
102
RTVSPropertyOp2
 70
     1
102
RTVSPropertyOp3
 70
     1
102
RTVSPropertyOp4
 70
     1
102
RTVSPropertyOp5
 70
     1
102
RTVSPropertyOp6
 70
     1
102
RTVSPropertyOp7
 70
     1
102
RTVSPropertyOp8
 70
     1
102
RTVSPropertyOp9
 70
     1
102
RTVSPropertyOp10
 70
     1
102
RTVSPropertyOp11
 70
     1
102
RTVSPropertyOp12
 70
     1
102
RTVSPropertyOp13
 70
     1
102
RTVSPropertyOp14
 70
     1
102
RTVSPropertyOp15
 70
     1
102
RTVSPropertyOp16
 70
     1
102
RTVSPropertyOp17
 70
     1
102
RTVSPropertyOp18
 70
     1
102
RTVSPropertyOp19
 70
     1
102
RTVSPropertyOp20
 70
     1
102
RTVSPropertyOp21
 70
     1
102
RTVSPropertyOp22
 70
     1
102
RTVSPropertyOp23
 70
     1
102
RTVSPropertyOp24
 70
     1
102
RTVSPropertyOp25
 70
     1
102
RTVSPropertyOp26
 70
     1
102
RTVSPropertyOp27
 70
     1
102
RTVSPropertyOp28
 70
     1
102
RTVSPropertyOp29
 70
     1
102
RTVSPropertyOp30
 70
     1
102
RTVSPropertyOp31
 70
     1
102
RTVSPropertyOp32
 70
     1
  0
ENDSEC
  0
EOF
