  0
SECTION
  2
HEADER
  9
$ACADVER
  1
AC1021
  9
$ACADMAINTVER
 70
    25
  9
$DWGCODEPAGE
  3
ANSI_1252
  9
$INSBASE
 10
0.0
 20
0.0
 30
0.0
  9
$EXTMIN
 10
-39.01927
 20
-24.31865
 30
0.0
  9
$EXTMAX
 10
17.73281
 20
12.04507
 30
0.0
  9
$LIMMIN
 10
0.0
 20
0.0
  9
$LIMMAX
 10
12.0
 20
9.0
  9
$ORTHOMODE
 70
     0
  9
$REGENMODE
 70
     1
  9
$FILLMODE
 70
     1
  9
$QTEXTMODE
 70
     0
  9
$MIRRTEXT
 70
     1
  9
$LTSCALE
 40
1.0
  9
$ATTMODE
 70
     1
  9
$TEXTSIZE
 40
0.2
  9
$TRACEWID
 40
0.05
  9
$TEXTSTYLE
  7
Standard
  9
$CLAYER
  8
0
  9
$CELTYPE
  6
ByLayer
  9
$CECOLOR
 62
   256
  9
$CELTSCALE
 40
1.0
  9
$DISPSILH
 70
     0
  9
$DIMSCALE
 40
1.0
  9
$DIMASZ
 40
0.18
  9
$DIMEXO
 40
0.0625
  9
$DIMDLI
 40
0.38
  9
$DIMRND
 40
0.0
  9
$DIMDLE
 40
0.0
  9
$DIMEXE
 40
0.18
  9
$DIMTP
 40
0.0
  9
$DIMTM
 40
0.0
  9
$DIMTXT
 40
0.18
  9
$DIMCEN
 40
0.09
  9
$DIMTSZ
 40
0.0
  9
$DIMTOL
 70
     0
  9
$DIMLIM
 70
     0
  9
$DIMTIH
 70
     1
  9
$DIMTOH
 70
     1
  9
$DIMSE1
 70
     0
  9
$DIMSE2
 70
     0
  9
$DIMTAD
 70
     0
  9
$DIMZIN
 70
     0
  9
$DIMBLK
  1

  9
$DIMASO
 70
     1
  9
$DIMSHO
 70
     1
  9
$DIMPOST
  1

  9
$DIMAPOST
  1

  9
$DIMALT
 70
     0
  9
$DIMALTD
 70
     2
  9
$DIMALTF
 40
25.4
  9
$DIMLFAC
 40
1.0
  9
$DIMTOFL
 70
     0
  9
$DIMTVP
 40
0.0
  9
$DIMTIX
 70
     0
  9
$DIMSOXD
 70
     0
  9
$DIMSAH
 70
     0
  9
$DIMBLK1
  1

  9
$DIMBLK2
  1

  9
$DIMSTYLE
  2
Standard
  9
$DIMCLRD
 70
     0
  9
$DIMCLRE
 70
     0
  9
$DIMCLRT
 70
     0
  9
$DIMTFAC
 40
1.0
  9
$DIMGAP
 40
0.09
  9
$DIMJUST
 70
     0
  9
$DIMSD1
 70
     0
  9
$DIMSD2
 70
     0
  9
$DIMTOLJ
 70
     1
  9
$DIMTZIN
 70
     0
  9
$DIMALTZ
 70
     0
  9
$DIMALTTZ
 70
     0
  9
$DIMUPT
 70
     0
  9
$DIMDEC
 70
     4
  9
$DIMTDEC
 70
     4
  9
$DIMALTU
 70
     2
  9
$DIMALTTD
 70
     2
  9
$DIMTXSTY
  7
Standard
  9
$DIMAUNIT
 70
     0
  9
$DIMADEC
 70
     0
  9
$DIMALTRND
 40
0.0
  9
$DIMAZIN
 70
     0
  9
$DIMDSEP
 70
    46
  9
$DIMATFIT
 70
     3
  9
$DIMFRAC
 70
     0
  9
$DIMLDRBLK
  1

  9
$DIMLUNIT
 70
     2
  9
$DIMLWD
 70
    -2
  9
$DIMLWE
 70
    -2
  9
$DIMTMOVE
 70
     0
  9
$DIMFXL
 40
1.0
  9
$DIMFXLON
 70
     0
  9
$DIMJOGANG
 40
0.7853981633974483
  9
$DIMTFILL
 70
     0
  9
$DIMTFILLCLR
 70
     0
  9
$DIMARCSYM
 70
     0
  9
$DIMLTYPE
  6

  9
$DIMLTEX1
  6

  9
$DIMLTEX2
  6

  9
$LUNITS
 70
     2
  9
$LUPREC
 70
     4
  9
$SKETCHINC
 40
0.1
  9
$FILLETRAD
 40
0.5
  9
$AUNITS
 70
     0
  9
$AUPREC
 70
     0
  9
$MENU
  1
.
  9
$ELEVATION
 40
0.0
  9
$PELEVATION
 40
0.0
  9
$THICKNESS
 40
0.0
  9
$LIMCHECK
 70
     0
  9
$CHAMFERA
 40
0.5
  9
$CHAMFERB
 40
0.5
  9
$CHAMFERC
 40
1.0
  9
$CHAMFERD
 40
0.0
  9
$SKPOLY
 70
     0
  9
$TDCREATE
 40
2457799.948299687
  9
$TDUCREATE
 40
2457799.906633021
  9
$TDUPDATE
 40
2457799.948299699
  9
$TDUUPDATE
 40
2457799.906633032
  9
$TDINDWG
 40
0.0000000116
  9
$TDUSRTIMER
 40
0.0000000116
  9
$USRTIMER
 70
     1
  9
$ANGBASE
 50
0.0
  9
$ANGDIR
 70
     0
  9
$PDMODE
 70
     0
  9
$PDSIZE
 40
0.0
  9
$PLINEWID
 40
0.0
  9
$SPLFRAME
 70
     0
  9
$SPLINETYPE
 70
     6
  9
$SPLINESEGS
 70
     8
  9
$HANDSEED
  5
E2
  9
$SURFTAB1
 70
     6
  9
$SURFTAB2
 70
     6
  9
$SURFTYPE
 70
     6
  9
$SURFU
 70
     6
  9
$SURFV
 70
     6
  9
$UCSBASE
  2

  9
$UCSNAME
  2

  9
$UCSORG
 10
0.0
 20
0.0
 30
0.0
  9
$UCSXDIR
 10
1.0
 20
0.0
 30
0.0
  9
$UCSYDIR
 10
0.0
 20
1.0
 30
0.0
  9
$UCSORTHOREF
  2

  9
$UCSORTHOVIEW
 70
     0
  9
$UCSORGTOP
 10
0.0
 20
0.0
 30
0.0
  9
$UCSORGBOTTOM
 10
0.0
 20
0.0
 30
0.0
  9
$UCSORGLEFT
 10
0.0
 20
0.0
 30
0.0
  9
$UCSORGRIGHT
 10
0.0
 20
0.0
 30
0.0
  9
$UCSORGFRONT
 10
0.0
 20
0.0
 30
0.0
  9
$UCSORGBACK
 10
0.0
 20
0.0
 30
0.0
  9
$PUCSBASE
  2

  9
$PUCSNAME
  2

  9
$PUCSORG
 10
0.0
 20
0.0
 30
0.0
  9
$PUCSXDIR
 10
1.0
 20
0.0
 30
0.0
  9
$PUCSYDIR
 10
0.0
 20
1.0
 30
0.0
  9
$PUCSORTHOREF
  2

  9
$PUCSORTHOVIEW
 70
     0
  9
$PUCSORGTOP
 10
0.0
 20
0.0
 30
0.0
  9
$PUCSORGBOTTOM
 10
0.0
 20
0.0
 30
0.0
  9
$PUCSORGLEFT
 10
0.0
 20
0.0
 30
0.0
  9
$PUCSORGRIGHT
 10
0.0
 20
0.0
 30
0.0
  9
$PUCSORGFRONT
 10
0.0
 20
0.0
 30
0.0
  9
$PUCSORGBACK
 10
0.0
 20
0.0
 30
0.0
  9
$USERI1
 70
     0
  9
$USERI2
 70
     0
  9
$USERI3
 70
     0
  9
$USERI4
 70
     0
  9
$USERI5
 70
     0
  9
$USERR1
 40
0.0
  9
$USERR2
 40
0.0
  9
$USERR3
 40
0.0
  9
$USERR4
 40
0.0
  9
$USERR5
 40
0.0
  9
$WORLDVIEW
 70
     1
  9
$SHADEDGE
 70
     3
  9
$SHADEDIF
 70
    70
  9
$TILEMODE
 70
     1
  9
$MAXACTVP
 70
    64
  9
$PINSBASE
 10
0.0
 20
0.0
 30
0.0
  9
$PLIMCHECK
 70
     0
  9
$PEXTMIN
 10
1.000000000000000E+20
 20
1.000000000000000E+20
 30
1.000000000000000E+20
  9
$PEXTMAX
 10
-1.000000000000000E+20
 20
-1.000000000000000E+20
 30
-1.000000000000000E+20
  9
$PLIMMIN
 10
0.0
 20
0.0
  9
$PLIMMAX
 10
12.0
 20
9.0
  9
$UNITMODE
 70
     0
  9
$VISRETAIN
 70
     1
  9
$PLINEGEN
 70
     0
  9
$PSLTSCALE
 70
     1
  9
$TREEDEPTH
 70
  3020
  9
$CMLSTYLE
  2
Standard
  9
$CMLJUST
 70
     0
  9
$CMLSCALE
 40
1.0
  9
$PROXYGRAPHICS
 70
     1
  9
$MEASUREMENT
 70
     0
  9
$CELWEIGHT
370
    -1
  9
$ENDCAPS
280
     0
  9
$JOINSTYLE
280
     0
  9
$LWDISPLAY
290
     0
  9
$INSUNITS
 70
     5
  9
$HYPERLINKBASE
  1

  9
$STYLESHEET
  1

  9
$XEDIT
290
     1
  9
$CEPSNTYPE
380
     0
  9
$PSTYLEMODE
290
     1
  9
$FINGERPRINTGUID
  2
{D0741DB9-D1EE-4FF7-8152-A89A34D990A9}
  9
$VERSIONGUID
  2
{FAEB1C32-E019-11D5-929B-00C0DF256EC4}
  9
$EXTNAMES
290
     1
  9
$PSVPSCALE
 40
0.0
  9
$OLESTARTUP
290
     0
  9
$SORTENTS
280
   127
  9
$INDEXCTL
280
     0
  9
$HIDETEXT
280
     1
  9
$XCLIPFRAME
290
     0
  9
$HALOGAP
280
     0
  9
$OBSCOLOR
 70
   257
  9
$OBSLTYPE
280
     0
  9
$INTERSECTIONDISPLAY
280
     0
  9
$INTERSECTIONCOLOR
 70
   257
  9
$DIMASSOC
280
     2
  9
$PROJECTNAME
  1

  9
$CAMERADISPLAY
290
     0
  9
$LENSLENGTH
 40
50.0
  9
$CAMERAHEIGHT
 40
0.0
  9
$STEPSPERSEC
 40
2.0
  9
$STEPSIZE
 40
6.0
  9
$3DDWFPREC
 40
2.0
  9
$PSOLWIDTH
 40
0.25
  9
$PSOLHEIGHT
 40
4.0
  9
$LOFTANG1
 40
1.570796326794897
  9
$LOFTANG2
 40
1.570796326794897
  9
$LOFTMAG1
 40
0.0
  9
$LOFTMAG2
 40
0.0
  9
$LOFTPARAM
 70
     7
  9
$LOFTNORMALS
280
     1
  9
$LATITUDE
 40
37.795
  9
$LONGITUDE
 40
-122.394
  9
$NORTHDIRECTION
 40
0.0
  9
$TIMEZONE
 70
 -8000
  9
$LIGHTGLYPHDISPLAY
280
     1
  9
$TILEMODELIGHTSYNCH
280
     1
  9
$SOLIDHIST
280
     1
  9
$SHOWHIST
280
     1
  9
$DWFFRAME
280
     2
  9
$DGNFRAME
280
     2
  9
$REALWORLDSCALE
290
     1
  9
$INTERFERECOLOR
 62
   256
  9
$CSHADOW
280
     0
  9
$SHADOWPLANELOCATION
 40
0.0
  0
ENDSEC
  0
SECTION
  2
CLASSES
  0
CLASS
  1
ACDBDICTIONARYWDFLT
  2
AcDbDictionaryWithDefault
  3
ObjectDBX Classes
 90
        0
 91
        4
280
     0
281
     0
  0
CLASS
  1
VISUALSTYLE
  2
AcDbVisualStyle
  3
ObjectDBX Classes
 90
     4095
 91
        4
280
     0
281
     0
  0
CLASS
  1
MATERIAL
  2
AcDbMaterial
  3
ObjectDBX Classes
 90
     1153
 91
        4
280
     0
281
     0
  0
CLASS
  1
IMAGEDEF
  2
AcDbRasterImageDef
  3
ISM
 90
        0
 91
        4
280
     0
281
     0
  0
CLASS
  1
IMAGE
  2
AcDbRasterImage
  3
ISM
 90
      127
 91
        5
280
     0
281
     1
  0
CLASS
  1
IMAGEDEF_REACTOR
  2
AcDbRasterImageDefReactor
  3
ISM
 90
        1
 91
        4
280
     0
281
     0
  0
ENDSEC
  0
SECTION
  2
TABLES
  0
TABLE
  2
VPORT
  5
8
330
0
100
AcDbSymbolTable
 70
     1
  0
VPORT
  5
29
330
8
100
AcDbSymbolTableRecord
100
AcDbViewportTableRecord
  2
*Active
 70
     0
 10
0.0
 20
0.0
 11
1.0
 21
1.0
 12
10.42990654205607
 22
4.5
 13
0.0
 23
0.0
 14
0.5
 24
0.5
 15
0.5
 25
0.5
 16
0.0
 26
0.0
 36
1.0
 17
0.0
 27
0.0
 37
0.0
 40
9.0
 41
1.972972972850329
 42
50.0
 43
0.0
 44
0.0
 50
0.0
 51
0.0
 71
     0
 72
   100
 73
     1
 74
     3
 75
     0
 76
     0
 77
     0
 78
     0
281
     0
 65
     1
110
0.0
120
0.0
130
0.0
111
1.0
121
0.0
131
0.0
112
0.0
122
1.0
132
0.0
 79
     0
146
0.0
 60
     3
 61
     5
292
     1
282
     1
141
0.0
142
0.0
 63
   250
  0
ENDTAB
  0
TABLE
  2
LTYPE
  5
5
330
0
100
AcDbSymbolTable
 70
     1
  0
LTYPE
  5
14
330
5
100
AcDbSymbolTableRecord
100
AcDbLinetypeTableRecord
  2
ByBlock
 70
     0
  3

 72
    65
 73
     0
 40
0.0
  0
LTYPE
  5
15
330
5
100
AcDbSymbolTableRecord
100
AcDbLinetypeTableRecord
  2
ByLayer
 70
     0
  3

 72
    65
 73
     0
 40
0.0
  0
LTYPE
  5
16
330
5
100
AcDbSymbolTableRecord
100
AcDbLinetypeTableRecord
  2
Continuous
 70
     0
  3
Solid line
 72
    65
 73
     0
 40
0.0
  0
ENDTAB
  0
TABLE
  2
LAYER
  5
2
330
0
100
AcDbSymbolTable
 70
     2
  0
LAYER
  5
10
330
2
100
AcDbSymbolTableRecord
100
AcDbLayerTableRecord
  2
0
 70
     0
 62
     7
  6
Continuous
370
    -3
390
F
347
3E
  0
LAYER
  5
40
330
2
100
AcDbSymbolTableRecord
100
AcDbLayerTableRecord
  2
Camada 1
 70
     0
 62
     7
  6
Continuous
370
    -3
390
F
347
3E
  0
ENDTAB
  0
TABLE
  2
STYLE
  5
3
330
0
100
AcDbSymbolTable
 70
     1
  0
STYLE
  5
11
330
3
100
AcDbSymbolTableRecord
100
AcDbTextStyleTableRecord
  2
Standard
 70
     0
 40
0.0
 41
1.0
 50
0.0
 71
     0
 42
0.2
  3
txt
  4

  0
ENDTAB
  0
TABLE
  2
VIEW
  5
6
330
0
100
AcDbSymbolTable
 70
     0
  0
ENDTAB
  0
TABLE
  2
UCS
  5
7
330
0
100
AcDbSymbolTable
 70
     0
  0
ENDTAB
  0
TABLE
  2
APPID
  5
9
330
0
100
AcDbSymbolTable
 70
     2
  0
APPID
  5
12
330
9
100
AcDbSymbolTableRecord
100
AcDbRegAppTableRecord
  2
ACAD
 70
     0
  0
APPID
  5
3F
330
9
100
AcDbSymbolTableRecord
100
AcDbRegAppTableRecord
  2
ODA
 70
     0
  0
ENDTAB
  0
TABLE
  2
DIMSTYLE
  5
A
330
0
100
AcDbSymbolTable
 70
     1
100
AcDbDimStyleTable
  0
DIMSTYLE
105
27
330
A
100
AcDbSymbolTableRecord
100
AcDbDimStyleTableRecord
  2
Standard
 70
     0
178
     0
340
11
  0
ENDTAB
  0
TABLE
  2
BLOCK_RECORD
  5
1
330
0
100
AcDbSymbolTable
 70
     1
  0
BLOCK_RECORD
  5
1F
330
1
100
AcDbSymbolTableRecord
100
AcDbBlockTableRecord
  2
*Model_Space
340
22
 70
     0
280
     1
281
     0
  0
BLOCK_RECORD
  5
1B
330
1
100
AcDbSymbolTableRecord
100
AcDbBlockTableRecord
  2
*Paper_Space
340
1E
 70
     0
280
     1
281
     0
  0
BLOCK_RECORD
  5
23
330
1
100
AcDbSymbolTableRecord
100
AcDbBlockTableRecord
  2
*Paper_Space0
340
26
 70
     0
280
     1
281
     0
  0
ENDTAB
  0
ENDSEC
  0
SECTION
  2
BLOCKS
  0
BLOCK
  5
20
330
1F
100
AcDbEntity
  8
0
100
AcDbBlockBegin
  2
*Model_Space
 70
     0
 10
0.0
 20
0.0
 30
0.0
  3
*Model_Space
  1

  0
ENDBLK
  5
21
330
1F
100
AcDbEntity
  8
0
100
AcDbBlockEnd
  0
BLOCK
  5
1C
330
1B
100
AcDbEntity
 67
     1
  8
0
100
AcDbBlockBegin
  2
*Paper_Space
 70
     0
 10
0.0
 20
0.0
 30
0.0
  3
*Paper_Space
  1

  0
ENDBLK
  5
1D
330
1B
100
AcDbEntity
 67
     1
  8
0
100
AcDbBlockEnd
  0
BLOCK
  5
24
330
23
100
AcDbEntity
  8
0
100
AcDbBlockBegin
  2
*Paper_Space0
 70
     0
 10
0.0
 20
0.0
 30
0.0
  3
*Paper_Space0
  1

  0
ENDBLK
  5
25
330
23
100
AcDbEntity
  8
0
100
AcDbBlockEnd
  0
ENDSEC
  0
SECTION
  2
ENTITIES
  0
IMAGE
  5
43
330
1F
100
AcDbEntity
  8
Camada 1
 62
     0
 92
      140
310
8C000000010000008400000006000000050000007C0F971C778243C0D3DEE00B935138C000000000000000005C119DE28C4633C0D3DEE00B935138C000000000000000005C119DE28C4633C0E0443FD5C64C12C000000000000000007C0F971C778243C0E0443FD5C64C12C000000000000000007C0F971C778243C0D3DEE0
310
0B935138C00000000000000000
100
AcDbRasterImage
 90
        0
 10
-39.01926
 20
-24.31865
 30
0.0
 11
0.05893633660391442
 21
0.0
 31
0.0
 12
0.0
 22
0.05893633660391442
 32
0.0
 13
335.0
 23
335.0
340
42
 70
     3
280
     1
281
    50
282
    50
283
     0
360
44
 71
     1
 91
        2
 14
-39.01926
 24
-24.31865
 14
-34.3626
 24
-19.66199
  0
SPLINE
  5
45
330
1F
100
AcDbEntity
  8
Camada 1
 62
   250
370
    20
100
AcDbSpline
210
0.0
220
0.0
230
1.0
 70
    11
 71
     3
 72
   264
 73
   260
 74
     0
 42
0.0000000001
 43
0.0000000001
 40
0.0
 40
0.0
 40
0.0
 40
0.0
 40
0.0151515151515152
 40
0.0151515151515152
 40
0.0151515151515152
 40
0.0151515151515152
 40
0.0303030303030303
 40
0.0303030303030303
 40
0.0303030303030303
 40
0.0303030303030303
 40
0.0454545454545455
 40
0.0454545454545455
 40
0.0454545454545455
 40
0.0454545454545455
 40
0.0606060606060606
 40
0.0606060606060606
 40
0.0606060606060606
 40
0.0606060606060606
 40
0.0757575757575758
 40
0.0757575757575758
 40
0.0757575757575758
 40
0.0757575757575758
 40
0.0909090909090909
 40
0.0909090909090909
 40
0.0909090909090909
 40
0.0909090909090909
 40
0.1060606060606061
 40
0.1060606060606061
 40
0.1060606060606061
 40
0.1060606060606061
 40
0.1212121212121212
 40
0.1212121212121212
 40
0.1212121212121212
 40
0.1212121212121212
 40
0.1363636363636364
 40
0.1363636363636364
 40
0.1363636363636364
 40
0.1363636363636364
 40
0.1515151515151515
 40
0.1515151515151515
 40
0.1515151515151515
 40
0.1515151515151515
 40
0.1666666666666667
 40
0.1666666666666667
 40
0.1666666666666667
 40
0.1666666666666667
 40
0.1818181818181818
 40
0.1818181818181818
 40
0.1818181818181818
 40
0.1818181818181818
 40
0.196969696969697
 40
0.196969696969697
 40
0.196969696969697
 40
0.196969696969697
 40
0.2121212121212121
 40
0.2121212121212121
 40
0.2121212121212121
 40
0.2121212121212121
 40
0.2272727272727273
 40
0.2272727272727273
 40
0.2272727272727273
 40
0.2272727272727273
 40
0.2424242424242424
 40
0.2424242424242424
 40
0.2424242424242424
 40
0.2424242424242424
 40
0.2575757575757576
 40
0.2575757575757576
 40
0.2575757575757576
 40
0.2575757575757576
 40
0.2727272727272727
 40
0.2727272727272727
 40
0.2727272727272727
 40
0.2727272727272727
 40
0.2878787878787879
 40
0.2878787878787879
 40
0.2878787878787879
 40
0.2878787878787879
 40
0.303030303030303
 40
0.303030303030303
 40
0.303030303030303
 40
0.303030303030303
 40
0.3181818181818182
 40
0.3181818181818182
 40
0.3181818181818182
 40
0.3181818181818182
 40
0.3333333333333333
 40
0.3333333333333333
 40
0.3333333333333333
 40
0.3333333333333333
 40
0.3484848484848485
 40
0.3484848484848485
 40
0.3484848484848485
 40
0.3484848484848485
 40
0.3636363636363636
 40
0.3636363636363636
 40
0.3636363636363636
 40
0.3636363636363636
 40
0.3787878787878788
 40
0.3787878787878788
 40
0.3787878787878788
 40
0.3787878787878788
 40
0.3939393939393939
 40
0.3939393939393939
 40
0.3939393939393939
 40
0.3939393939393939
 40
0.4090909090909091
 40
0.4090909090909091
 40
0.4090909090909091
 40
0.4090909090909091
 40
0.4242424242424243
 40
0.4242424242424243
 40
0.4242424242424243
 40
0.4242424242424243
 40
0.4393939393939394
 40
0.4393939393939394
 40
0.4393939393939394
 40
0.4393939393939394
 40
0.4545454545454545
 40
0.4545454545454545
 40
0.4545454545454545
 40
0.4545454545454545
 40
0.4696969696969697
 40
0.4696969696969697
 40
0.4696969696969697
 40
0.4696969696969697
 40
0.4848484848484849
 40
0.4848484848484849
 40
0.4848484848484849
 40
0.4848484848484849
 40
0.5
 40
0.5
 40
0.5
 40
0.5
 40
0.5151515151515151
 40
0.5151515151515151
 40
0.5151515151515151
 40
0.5151515151515151
 40
0.5303030303030303
 40
0.5303030303030303
 40
0.5303030303030303
 40
0.5303030303030303
 40
0.5454545454545454
 40
0.5454545454545454
 40
0.5454545454545454
 40
0.5454545454545454
 40
0.5606060606060606
 40
0.5606060606060606
 40
0.5606060606060606
 40
0.5606060606060606
 40
0.5757575757575758
 40
0.5757575757575758
 40
0.5757575757575758
 40
0.5757575757575758
 40
0.5909090909090909
 40
0.5909090909090909
 40
0.5909090909090909
 40
0.5909090909090909
 40
0.6060606060606061
 40
0.6060606060606061
 40
0.6060606060606061
 40
0.6060606060606061
 40
0.6212121212121212
 40
0.6212121212121212
 40
0.6212121212121212
 40
0.6212121212121212
 40
0.6363636363636364
 40
0.6363636363636364
 40
0.6363636363636364
 40
0.6363636363636364
 40
0.6515151515151515
 40
0.6515151515151515
 40
0.6515151515151515
 40
0.6515151515151515
 40
0.6666666666666666
 40
0.6666666666666666
 40
0.6666666666666666
 40
0.6666666666666666
 40
0.6818181818181818
 40
0.6818181818181818
 40
0.6818181818181818
 40
0.6818181818181818
 40
0.696969696969697
 40
0.696969696969697
 40
0.696969696969697
 40
0.696969696969697
 40
0.7121212121212122
 40
0.7121212121212122
 40
0.7121212121212122
 40
0.7121212121212122
 40
0.7272727272727273
 40
0.7272727272727273
 40
0.7272727272727273
 40
0.7272727272727273
 40
0.7424242424242424
 40
0.7424242424242424
 40
0.7424242424242424
 40
0.7424242424242424
 40
0.7575757575757576
 40
0.7575757575757576
 40
0.7575757575757576
 40
0.7575757575757576
 40
0.7727272727272727
 40
0.7727272727272727
 40
0.7727272727272727
 40
0.7727272727272727
 40
0.7878787878787878
 40
0.7878787878787878
 40
0.7878787878787878
 40
0.7878787878787878
 40
0.803030303030303
 40
0.803030303030303
 40
0.803030303030303
 40
0.803030303030303
 40
0.8181818181818182
 40
0.8181818181818182
 40
0.8181818181818182
 40
0.8181818181818182
 40
0.8333333333333334
 40
0.8333333333333334
 40
0.8333333333333334
 40
0.8333333333333334
 40
0.8484848484848485
 40
0.8484848484848485
 40
0.8484848484848485
 40
0.8484848484848485
 40
0.8636363636363636
 40
0.8636363636363636
 40
0.8636363636363636
 40
0.8636363636363636
 40
0.8787878787878788
 40
0.8787878787878788
 40
0.8787878787878788
 40
0.8787878787878788
 40
0.8939393939393939
 40
0.8939393939393939
 40
0.8939393939393939
 40
0.8939393939393939
 40
0.9090909090909091
 40
0.9090909090909091
 40
0.9090909090909091
 40
0.9090909090909091
 40
0.9242424242424242
 40
0.9242424242424242
 40
0.9242424242424242
 40
0.9242424242424242
 40
0.9393939393939394
 40
0.9393939393939394
 40
0.9393939393939394
 40
0.9393939393939394
 40
0.9545454545454546
 40
0.9545454545454546
 40
0.9545454545454546
 40
0.9545454545454546
 40
0.9696969696969697
 40
0.9696969696969697
 40
0.9696969696969697
 40
0.9696969696969697
 40
1.0
 40
1.0
 40
1.0
 40
1.0
 10
16.2064
 20
11.75818
 30
0.0
 10
15.75669
 20
11.36456
 30
0.0
 10
15.24718
 20
10.90866
 30
0.0
 10
14.87002
 20
10.44624
 30
0.0
 10
14.87002
 20
10.44624
 30
0.0
 10
14.87002
 20
10.44624
 30
0.0
 10
14.48404
 20
9.7861
 30
0.0
 10
14.48404
 20
9.7861
 30
0.0
 10
14.48404
 20
9.7861
 30
0.0
 10
14.31753
 20
9.28554
 30
0.0
 10
14.32996
 20
9.39473
 30
0.0
 10
14.21773
 20
8.82802
 30
0.0
 10
14.21773
 20
8.82802
 30
0.0
 10
14.18069
 20
8.64097
 30
0.0
 10
14.00347
 20
7.6831
 30
0.0
 10
14.03004
 20
7.46966
 30
0.0
 10
14.03004
 20
7.46966
 30
0.0
 10
14.03004
 20
7.46966
 30
0.0
 10
14.0448
 20
6.64678
 30
0.0
 10
14.0448
 20
6.64678
 30
0.0
 10
14.0448
 20
6.64678
 30
0.0
 10
14.09801
 20
6.34134
 30
0.0
 10
14.18323
 20
5.9882
 30
0.0
 10
14.08342
 20
5.68331
 30
0.0
 10
14.08342
 20
5.68331
 30
0.0
 10
14.08342
 20
5.68331
 30
0.0
 10
13.90924
 20
5.18449
 30
0.0
 10
13.90924
 20
5.18449
 30
0.0
 10
13.90924
 20
5.18449
 30
0.0
 10
13.81567
 20
5.07002
 30
0.0
 10
13.78489
 20
5.00398
 30
0.0
 10
13.72854
 20
4.89289
 30
0.0
 10
13.72854
 20
4.89289
 30
0.0
 10
13.73075
 20
4.89378
 30
0.0
 10
14.17869
 20
4.9588
 30
0.0
 10
14.2709
 20
4.97937
 30
0.0
 10
14.2709
 20
4.97937
 30
0.0
 10
14.49079
 20
5.14262
 30
0.0
 10
15.24565
 20
5.48429
 30
0.0
 10
15.50981
 20
5.60179
 30
0.0
 10
15.50981
 20
5.60179
 30
0.0
 10
15.50981
 20
5.60179
 30
0.0
 10
16.30871
 20
5.94989
 30
0.0
 10
16.30871
 20
5.94989
 30
0.0
 10
16.30871
 20
5.94989
 30
0.0
 10
16.53284
 20
6.07654
 30
0.0
 10
17.45083
 20
6.32814
 30
0.0
 10
17.70463
 20
6.24921
 30
0.0
 10
17.70463
 20
6.24921
 30
0.0
 10
17.76645
 20
6.06322
 30
0.0
 10
17.65935
 20
5.99053
 30
0.0
 10
17.56074
 20
5.83934
 30
0.0
 10
17.56074
 20
5.83934
 30
0.0
 10
17.56074
 20
5.83934
 30
0.0
 10
17.35225
 20
5.5471
 30
0.0
 10
17.35225
 20
5.5471
 30
0.0
 10
17.35225
 20
5.5471
 30
0.0
 10
17.025
 20
5.1592
 30
0.0
 10
17.02959
 20
4.87117
 30
0.0
 10
16.95346
 20
4.38992
 30
0.0
 10
16.95346
 20
4.38992
 30
0.0
 10
16.89922
 20
4.21081
 30
0.0
 10
16.96898
 20
3.49591
 30
0.0
 10
17.02623
 20
3.37154
 30
0.0
 10
17.02623
 20
3.37154
 30
0.0
 10
17.02623
 20
3.37154
 30
0.0
 10
17.11003
 20
3.06571
 30
0.0
 10
17.11003
 20
3.06571
 30
0.0
 10
17.11003
 20
3.06571
 30
0.0
 10
17.11003
 20
3.06571
 30
0.0
 10
17.21651
 20
2.87043
 30
0.0
 10
17.21651
 20
2.87043
 30
0.0
 10
17.21651
 20
2.87043
 30
0.0
 10
17.24217
 20
2.80674
 30
0.0
 10
17.26976
 20
2.7492
 30
0.0
 10
17.29891
 20
2.6648
 30
0.0
 10
17.29891
 20
2.6648
 30
0.0
 10
17.29891
 20
2.6648
 30
0.0
 10
17.58237
 20
2.16844
 30
0.0
 10
17.58237
 20
2.16844
 30
0.0
 10
17.58237
 20
2.16844
 30
0.0
 10
17.71718
 20
1.94889
 30
0.0
 10
17.70459
 20
1.97655
 30
0.0
 10
17.67488
 20
1.8299
 30
0.0
 10
17.67488
 20
1.8299
 30
0.0
 10
17.67488
 20
1.8299
 30
0.0
 10
17.33371
 20
1.84318
 30
0.0
 10
17.33371
 20
1.84318
 30
0.0
 10
17.33371
 20
1.84318
 30
0.0
 10
17.11425
 20
1.92246
 30
0.0
 10
16.67467
 20
1.98835
 30
0.0
 10
16.40983
 20
2.06864
 30
0.0
 10
16.40983
 20
2.06864
 30
0.0
 10
15.54341
 20
2.33139
 30
0.0
 10
14.84787
 20
3.03177
 30
0.0
 10
14.36264
 20
3.1718
 30
0.0
 10
14.36264
 20
3.1718
 30
0.0
 10
14.08105
 20
3.2756
 30
0.0
 10
14.22834
 20
3.30844
 30
0.0
 10
13.83433
 20
3.20414
 30
0.0
 10
13.83433
 20
3.20414
 30
0.0
 10
13.8028
 20
2.90828
 30
0.0
 10
14.01858
 20
3.30399
 30
0.0
 10
14.19438
 20
2.26982
 30
0.0
 10
14.19438
 20
2.26982
 30
0.0
 10
14.20572
 20
1.65279
 30
0.0
 10
14.08949
 20
0.34212
 30
0.0
 10
14.19091
 20
-0.14358
 30
0.0
 10
14.19091
 20
-0.14358
 30
0.0
 10
14.22477
 20
-0.39743
 30
0.0
 10
14.30362
 20
-0.78774
 30
0.0
 10
14.40592
 20
-1.01463
 30
0.0
 10
14.40592
 20
-1.01463
 30
0.0
 10
14.40592
 20
-1.01463
 30
0.0
 10
14.62374
 20
-1.58125
 30
0.0
 10
14.62374
 20
-1.58125
 30
0.0
 10
14.62374
 20
-1.58125
 30
0.0
 10
14.68917
 20
-1.71581
 30
0.0
 10
14.71539
 20
-1.79656
 30
0.0
 10
14.76106
 20
-1.92866
 30
0.0
 10
14.76106
 20
-1.92866
 30
0.0
 10
14.77069
 20
-1.93235
 30
0.0
 10
15.41152
 20
-3.01382
 30
0.0
 10
15.50399
 20
-3.14592
 30
0.0
 10
15.50399
 20
-3.14592
 30
0.0
 10
15.56989
 20
-3.23746
 30
0.0
 10
15.62132
 20
-3.31799
 30
0.0
 10
15.69698
 20
-3.37927
 30
0.0
 10
15.69698
 20
-3.37927
 30
0.0
 10
16.18629
 20
-4.0474
 30
0.0
 10
16.84504
 20
-4.41589
 30
0.0
 10
16.67581
 20
-4.54142
 30
0.0
 10
16.67581
 20
-4.54142
 30
0.0
 10
16.21552
 20
-4.3113
 30
0.0
 10
15.80829
 20
-4.45065
 30
0.0
 10
15.19023
 20
-4.22167
 30
0.0
 10
15.19023
 20
-4.22167
 30
0.0
 10
15.18811
 20
-4.21968
 30
0.0
 10
14.51829
 20
-3.77632
 30
0.0
 10
14.44585
 20
-3.74085
 30
0.0
 10
14.44585
 20
-3.74085
 30
0.0
 10
13.69549
 20
-3.40994
 30
0.0
 10
12.846
 20
-2.51336
 30
0.0
 10
12.27593
 20
-1.88249
 30
0.0
 10
12.27593
 20
-1.88249
 30
0.0
 10
12.27593
 20
-1.88249
 30
0.0
 10
12.12556
 20
-1.75371
 30
0.0
 10
12.12556
 20
-1.75371
 30
0.0
 10
12.12556
 20
-1.75371
 30
0.0
 10
11.9666
 20
-1.65644
 30
0.0
 10
11.41321
 20
-1.14544
 30
0.0
 10
11.25094
 20
-0.99227
 30
0.0
 10
11.25094
 20
-0.99227
 30
0.0
 10
11.12674
 20
-0.83658
 30
0.0
 10
10.56941
 20
-0.42729
 30
0.0
 10
10.56389
 20
-0.4603
 30
0.0
 10
10.56389
 20
-0.4603
 30
0.0
 10
10.33742
 20
-0.33352
 30
0.0
 10
10.1432
 20
-0.20601
 30
0.0
 10
9.92271
 20
-0.07556
 30
0.0
 10
9.92271
 20
-0.07556
 30
0.0
 10
9.05271
 20
0.31553
 30
0.0
 10
8.06234
 20
0.97555
 30
0.0
 10
7.04246
 20
1.93794
 30
0.0
 10
7.04246
 20
1.93794
 30
0.0
 10
7.04246
 20
1.93794
 30
0.0
 10
9.97464
 20
1.93794
 30
0.0
 10
9.97464
 20
1.93794
 30
0.0
 10
9.97464
 20
1.93794
 30
0.0
 10
9.97464
 20
1.93794
 30
0.0
 10
9.97464
 20
2.23794
 30
0.0
 10
9.97464
 20
2.23794
 30
0.0
 10
9.97464
 20
2.23794
 30
0.0
 10
9.97464
 20
2.23794
 30
0.0
 10
6.73357
 20
2.23794
 30
0.0
 10
6.73357
 20
2.23794
 30
0.0
 10
6.73357
 20
2.23794
 30
0.0
 10
6.69138
 20
2.28008
 30
0.0
 10
6.64915
 20
2.32267
 30
0.0
 10
6.6069
 20
2.36585
 30
0.0
 10
6.6069
 20
2.36585
 30
0.0
 10
6.29281
 20
2.68683
 30
0.0
 10
5.52569
 20
3.24211
 30
0.0
 10
5.22602
 20
3.38393
 30
0.0
 10
5.22602
 20
3.38393
 30
0.0
 10
5.09867
 20
3.41758
 30
0.0
 10
5.16105
 20
3.38873
 30
0.0
 10
5.07138
 20
3.4733
 30
0.0
 10
5.07138
 20
3.4733
 30
0.0
 10
5.0351
 20
3.54199
 30
0.0
 10
5.07515
 20
3.50402
 30
0.0
 10
4.9934
 20
3.5636
 30
0.0
 10
4.9934
 20
3.5636
 30
0.0
 10
4.97335
 20
3.6522
 30
0.0
 10
4.96439
 20
3.72338
 30
0.0
 10
4.99336
 20
3.77535
 30
0.0
 10
4.99336
 20
3.77535
 30
0.0
 10
4.99336
 20
3.77535
 30
0.0
 10
9.52185
 20
3.77535
 30
0.0
 10
9.52185
 20
3.77535
 30
0.0
 10
9.52185
 20
3.77535
 30
0.0
 10
9.52185
 20
3.77535
 30
0.0
 10
9.52185
 20
4.07535
 30
0.0
 10
9.52185
 20
4.07535
 30
0.0
 10
9.52185
 20
4.07535
 30
0.0
 10
9.52185
 20
4.07535
 30
0.0
 10
5.06693
 20
4.07535
 30
0.0
 10
5.06693
 20
4.07535
 30
0.0
 10
5.06693
 20
4.07535
 30
0.0
 10
5.06693
 20
4.07535
 30
0.0
 10
5.04999
 20
4.08915
 30
0.0
 10
5.04999
 20
4.08915
 30
0.0
 10
5.04999
 20
4.08915
 30
0.0
 10
5.09183
 20
4.1971
 30
0.0
 10
5.08458
 20
4.2411
 30
0.0
 10
5.26022
 20
4.31523
 30
0.0
 10
5.26022
 20
4.31523
 30
0.0
 10
5.49819
 20
4.41569
 30
0.0
 10
6.28506
 20
5.00246
 30
0.0
 10
6.72424
 20
5.39794
 30
0.0
 10
6.72424
 20
5.39794
 30
0.0
 10
6.72424
 20
5.39794
 30
0.0
 10
9.97464
 20
5.39794
 30
0.0
 10
9.97464
 20
5.39794
 30
0.0
 10
9.97464
 20
5.39794
 30
0.0
 10
9.97464
 20
5.39794
 30
0.0
 10
9.97464
 20
5.69794
 30
0.0
 10
9.97464
 20
5.69794
 30
0.0
 10
9.97464
 20
5.69794
 30
0.0
 10
9.97464
 20
5.69794
 30
0.0
 10
7.02265
 20
5.69794
 30
0.0
 10
7.02265
 20
5.69794
 30
0.0
 10
7.02265
 20
5.69794
 30
0.0
 10
7.12938
 20
5.79861
 30
0.0
 10
7.27348
 20
5.8785
 30
0.0
 10
7.41217
 20
5.97496
 30
0.0
 10
7.41217
 20
5.97496
 30
0.0
 10
7.92873
 20
6.33429
 30
0.0
 10
8.36118
 20
6.87232
 30
0.0
 10
8.81148
 20
7.28015
 30
0.0
 10
8.81148
 20
7.28015
 30
0.0
 10
8.87472
 20
7.32852
 30
0.0
 10
8.95628
 20
7.42489
 30
0.0
 10
9.02344
 20
7.52033
 30
0.0
 10
9.02344
 20
7.52033
 30
0.0
 10
9.02374
 20
7.52045
 30
0.0
 10
11.4794
 20
9.60974
 30
0.0
 10
11.75133
 20
9.82111
 30
0.0
 10
11.75133
 20
9.82111
 30
0.0
 10
11.87176
 20
9.89088
 30
0.0
 10
12.01696
 20
10.0264
 30
0.0
 10
12.086
 20
10.05869
 30
0.0
 10
12.086
 20
10.05869
 30
0.0
 10
12.83836
 20
10.41056
 30
0.0
 10
13.49762
 20
10.93047
 30
0.0
 10
14.24446
 20
11.32112
 30
0.0
 10
14.24446
 20
11.32112
 30
0.0
 10
14.34219
 20
11.37216
 30
0.0
 10
16.7359
 20
12.47438
 30
0.0
 10
16.2064
 20
11.75818
 30
0.0
  0
SPLINE
  5
46
330
1F
100
AcDbEntity
  8
Camada 1
 62
   250
370
    20
100
AcDbSpline
210
0.0
220
0.0
230
1.0
 70
    11
 71
     3
 72
    20
 73
    16
 74
     0
 42
0.0000000001
 43
0.0000000001
 40
0.0
 40
0.0
 40
0.0
 40
0.0
 40
0.2
 40
0.2
 40
0.2
 40
0.2
 40
0.4
 40
0.4
 40
0.4
 40
0.4
 40
0.6
 40
0.6
 40
0.6
 40
0.6
 40
1.0
 40
1.0
 40
1.0
 40
1.0
 10
13.92644
 20
4.50889
 30
0.0
 10
13.92644
 20
4.50889
 30
0.0
 10
14.22644
 20
4.50889
 30
0.0
 10
14.22644
 20
4.50889
 30
0.0
 10
14.22644
 20
4.50889
 30
0.0
 10
14.22644
 20
4.50889
 30
0.0
 10
14.22644
 20
3.68125
 30
0.0
 10
14.22644
 20
3.68125
 30
0.0
 10
14.22644
 20
3.68125
 30
0.0
 10
14.22644
 20
3.68125
 30
0.0
 10
13.92644
 20
3.68125
 30
0.0
 10
13.92644
 20
3.68125
 30
0.0
 10
13.92644
 20
3.68125
 30
0.0
 10
13.92644
 20
3.68125
 30
0.0
 10
13.92644
 20
4.50889
 30
0.0
 10
13.92644
 20
4.50889
 30
0.0
  0
SPLINE
  5
47
330
1F
100
AcDbEntity
  8
Camada 1
 62
   242
370
    20
100
AcDbSpline
210
0.0
220
0.0
230
1.0
 70
     8
 71
     3
 72
    20
 73
    16
 74
     0
 42
0.0000000001
 43
0.0000000001
 40
0.0
 40
0.0
 40
0.0
 40
0.0
 40
0.2
 40
0.2
 40
0.2
 40
0.2
 40
0.4
 40
0.4
 40
0.4
 40
0.4
 40
0.6
 40
0.6
 40
0.6
 40
0.6
 40
1.0
 40
1.0
 40
1.0
 40
1.0
 10
11.60845
 20
7.36214
 30
0.0
 10
11.61027
 20
8.66091
 30
0.0
 10
12.26737
 20
9.6055
 30
0.0
 10
13.58288
 20
10.4025
 30
0.0
 10
13.58288
 20
10.4025
 30
0.0
 10
11.79847
 20
9.60292
 30
0.0
 10
10.50355
 20
8.62238
 30
0.0
 10
9.6982
 20
7.46092
 30
0.0
 10
9.6982
 20
7.46092
 30
0.0
 10
10.92802
 20
7.73161
 30
0.0
 10
11.87111
 20
7.46215
 30
0.0
 10
12.52749
 20
6.65255
 30
0.0
 10
12.52749
 20
6.65255
 30
0.0
 10
12.8839
 20
5.72748
 30
0.0
 10
13.28422
 20
5.14092
 30
0.0
 10
13.72854
 20
4.89289
 30
0.0
  0
SPLINE
  5
48
330
1F
100
AcDbEntity
  8
Camada 1
 62
   242
370
    20
100
AcDbSpline
210
0.0
220
0.0
230
1.0
 70
     8
 71
     3
 72
     8
 73
     4
 74
     0
 42
0.0000000001
 43
0.0000000001
 40
0.0
 40
0.0
 40
0.0
 40
0.0
 40
1.0
 40
1.0
 40
1.0
 40
1.0
 10
9.22691
 20
7.41021
 30
0.0
 10
9.17073
 20
7.44832
 30
0.0
 10
9.16081
 20
7.53421
 30
0.0
 10
9.19708
 20
7.66792
 30
0.0
  0
SPLINE
  5
49
330
1F
100
AcDbEntity
  8
Camada 1
 62
   242
370
    20
100
AcDbSpline
210
0.0
220
0.0
230
1.0
 70
     8
 71
     3
 72
     8
 73
     4
 74
     0
 42
0.0000000001
 43
0.0000000001
 40
0.0
 40
0.0
 40
0.0
 40
0.0
 40
1.0
 40
1.0
 40
1.0
 40
1.0
 10
9.41779
 20
7.39897
 30
0.0
 10
9.36288
 20
7.53892
 30
0.0
 10
9.34403
 20
7.67509
 30
0.0
 10
9.36135
 20
7.80748
 30
0.0
  0
SPLINE
  5
4A
330
1F
100
AcDbEntity
  8
Camada 1
 62
   242
370
    20
100
AcDbSpline
210
0.0
220
0.0
230
1.0
 70
     8
 71
     3
 72
     8
 73
     4
 74
     0
 42
0.0000000001
 43
0.0000000001
 40
0.0
 40
0.0
 40
0.0
 40
0.0
 40
1.0
 40
1.0
 40
1.0
 40
1.0
 10
9.6982
 20
7.46092
 30
0.0
 10
9.60696
 20
7.5838
 30
0.0
 10
9.56953
 20
7.76293
 30
0.0
 10
9.58599
 20
7.99826
 30
0.0
  0
SPLINE
  5
4B
330
1F
100
AcDbEntity
  8
Camada 1
 62
   242
370
    20
100
AcDbSpline
210
0.0
220
0.0
230
1.0
 70
     8
 71
     3
 72
     8
 73
     4
 74
     0
 42
0.0000000001
 43
0.0000000001
 40
0.0
 40
0.0
 40
0.0
 40
0.0
 40
1.0
 40
1.0
 40
1.0
 40
1.0
 10
9.81077
 20
7.71336
 30
0.0
 10
9.79196
 20
7.93029
 30
0.0
 10
9.78391
 20
8.08199
 30
0.0
 10
9.78658
 20
8.1685
 30
0.0
  0
SPLINE
  5
4C
330
1F
100
AcDbEntity
  8
Camada 1
 62
   242
370
    20
100
AcDbSpline
210
0.0
220
0.0
230
1.0
 70
     8
 71
     3
 72
     8
 73
     4
 74
     0
 42
0.0000000001
 43
0.0000000001
 40
0.0
 40
0.0
 40
0.0
 40
0.0
 40
1.0
 40
1.0
 40
1.0
 40
1.0
 10
10.04255
 20
7.91119
 30
0.0
 10
10.03067
 20
8.0937
 30
0.0
 10
10.02027
 20
8.24298
 30
0.0
 10
10.01132
 20
8.35913
 30
0.0
  0
SPLINE
  5
4D
330
1F
100
AcDbEntity
  8
Camada 1
 62
   242
370
    20
100
AcDbSpline
210
0.0
220
0.0
230
1.0
 70
     8
 71
     3
 72
     8
 73
     4
 74
     0
 42
0.0000000001
 43
0.0000000001
 40
0.0
 40
0.0
 40
0.0
 40
0.0
 40
1.0
 40
1.0
 40
1.0
 40
1.0
 10
10.24861
 20
8.22983
 30
0.0
 10
10.21843
 20
8.36498
 30
0.0
 10
10.2183
 20
8.47502
 30
0.0
 10
10.24827
 20
8.55993
 30
0.0
  0
SPLINE
  5
4E
330
1F
100
AcDbEntity
  8
Camada 1
 62
   242
370
    20
100
AcDbSpline
210
0.0
220
0.0
230
1.0
 70
     8
 71
     3
 72
     8
 73
     4
 74
     0
 42
0.0000000001
 43
0.0000000001
 40
0.0
 40
0.0
 40
0.0
 40
0.0
 40
1.0
 40
1.0
 40
1.0
 40
1.0
 10
10.55142
 20
8.45379
 30
0.0
 10
10.50712
 20
8.59704
 30
0.0
 10
10.50674
 20
8.7176
 30
0.0
 10
10.55018
 20
8.8155
 30
0.0
  0
SPLINE
  5
4F
330
1F
100
AcDbEntity
  8
Camada 1
 62
   242
370
    20
100
AcDbSpline
210
0.0
220
0.0
230
1.0
 70
     8
 71
     3
 72
     8
 73
     4
 74
     0
 42
0.0000000001
 43
0.0000000001
 40
0.0
 40
0.0
 40
0.0
 40
0.0
 40
1.0
 40
1.0
 40
1.0
 40
1.0
 10
10.77967
 20
8.66388
 30
0.0
 10
10.70737
 20
8.74752
 30
0.0
 10
10.71615
 20
8.87011
 30
0.0
 10
10.80602
 20
9.03171
 30
0.0
  0
SPLINE
  5
50
330
1F
100
AcDbEntity
  8
Camada 1
 62
   242
370
    20
100
AcDbSpline
210
0.0
220
0.0
230
1.0
 70
     8
 71
     3
 72
     8
 73
     4
 74
     0
 42
0.0000000001
 43
0.0000000001
 40
0.0
 40
0.0
 40
0.0
 40
0.0
 40
1.0
 40
1.0
 40
1.0
 40
1.0
 10
11.04182
 20
8.8859
 30
0.0
 10
11.01055
 20
9.03675
 30
0.0
 10
11.03046
 20
9.16838
 30
0.0
 10
11.10149
 20
9.28084
 30
0.0
  0
SPLINE
  5
51
330
1F
100
AcDbEntity
  8
Camada 1
 62
   242
370
    20
100
AcDbSpline
210
0.0
220
0.0
230
1.0
 70
     8
 71
     3
 72
     8
 73
     4
 74
     0
 42
0.0000000001
 43
0.0000000001
 40
0.0
 40
0.0
 40
0.0
 40
0.0
 40
1.0
 40
1.0
 40
1.0
 40
1.0
 10
11.27593
 20
9.1055
 30
0.0
 10
11.35576
 20
9.34326
 30
0.0
 10
11.45564
 20
9.53404
 30
0.0
 10
11.5756
 20
9.67781
 30
0.0
  0
SPLINE
  5
52
330
1F
100
AcDbEntity
  8
Camada 1
 62
   242
370
    20
100
AcDbSpline
210
0.0
220
0.0
230
1.0
 70
     8
 71
     3
 72
     8
 73
     4
 74
     0
 42
0.0000000001
 43
0.0000000001
 40
0.0
 40
0.0
 40
0.0
 40
0.0
 40
1.0
 40
1.0
 40
1.0
 40
1.0
 10
11.579
 20
9.3525
 30
0.0
 10
11.75294
 20
9.65036
 30
0.0
 10
11.92191
 20
9.88578
 30
0.0
 10
12.086
 20
10.05869
 30
0.0
  0
SPLINE
  5
53
330
1F
100
AcDbEntity
  8
Camada 1
 62
   242
370
    20
100
AcDbSpline
210
0.0
220
0.0
230
1.0
 70
     8
 71
     3
 72
     8
 73
     4
 74
     0
 42
0.0000000001
 43
0.0000000001
 40
0.0
 40
0.0
 40
0.0
 40
0.0
 40
1.0
 40
1.0
 40
1.0
 40
1.0
 10
12.03386
 20
9.58777
 30
0.0
 10
12.18017
 20
9.91021
 30
0.0
 10
12.35826
 20
10.15116
 30
0.0
 10
12.56813
 20
10.31055
 30
0.0
  0
SPLINE
  5
54
330
1F
100
AcDbEntity
  8
Camada 1
 62
   242
370
    20
100
AcDbSpline
210
0.0
220
0.0
230
1.0
 70
     8
 71
     3
 72
     8
 73
     4
 74
     0
 42
0.0000000001
 43
0.0000000001
 40
0.0
 40
0.0
 40
0.0
 40
0.0
 40
1.0
 40
1.0
 40
1.0
 40
1.0
 10
12.47342
 20
9.84691
 30
0.0
 10
12.77916
 20
10.23179
 30
0.0
 10
13.11876
 20
10.57643
 30
0.0
 10
13.49223
 20
10.8809
 30
0.0
  0
SPLINE
  5
55
330
1F
100
AcDbEntity
  8
Camada 1
 62
   242
370
    20
100
AcDbSpline
210
0.0
220
0.0
230
1.0
 70
     8
 71
     3
 72
     8
 73
     4
 74
     0
 42
0.0000000001
 43
0.0000000001
 40
0.0
 40
0.0
 40
0.0
 40
0.0
 40
1.0
 40
1.0
 40
1.0
 40
1.0
 10
13.06267
 20
10.1574
 30
0.0
 10
14.05126
 20
11.00303
 30
0.0
 10
14.69257
 20
11.54016
 30
0.0
 10
14.99028
 20
11.64744
 30
0.0
  0
SPLINE
  5
56
330
1F
100
AcDbEntity
  8
Camada 1
 62
   242
370
    20
100
AcDbSpline
210
0.0
220
0.0
230
1.0
 70
     8
 71
     3
 72
     8
 73
     4
 74
     0
 42
0.0000000001
 43
0.0000000001
 40
0.0
 40
0.0
 40
0.0
 40
0.0
 40
1.0
 40
1.0
 40
1.0
 40
1.0
 10
13.58288
 20
10.4025
 30
0.0
 10
14.75342
 20
11.26455
 30
0.0
 10
15.95367
 20
11.92079
 30
0.0
 10
16.27366
 20
11.95623
 30
0.0
  0
SPLINE
  5
57
330
1F
100
AcDbEntity
  8
Camada 1
 62
   242
370
    20
100
AcDbSpline
210
0.0
220
0.0
230
1.0
 70
     8
 71
     3
 72
     8
 73
     4
 74
     0
 42
0.0000000001
 43
0.0000000001
 40
0.0
 40
0.0
 40
0.0
 40
0.0
 40
1.0
 40
1.0
 40
1.0
 40
1.0
 10
13.31302
 20
5.23776
 30
0.0
 10
13.53262
 20
5.17512
 30
0.0
 10
13.73135
 20
5.15739
 30
0.0
 10
13.90924
 20
5.18449
 30
0.0
  0
SPLINE
  5
58
330
1F
100
AcDbEntity
  8
Camada 1
 62
   242
370
    20
100
AcDbSpline
210
0.0
220
0.0
230
1.0
 70
     8
 71
     3
 72
     8
 73
     4
 74
     0
 42
0.0000000001
 43
0.0000000001
 40
0.0
 40
0.0
 40
0.0
 40
0.0
 40
1.0
 40
1.0
 40
1.0
 40
1.0
 10
13.04077
 20
5.60082
 30
0.0
 10
13.36671
 20
5.52783
 30
0.0
 10
13.69442
 20
5.4986
 30
0.0
 10
14.02397
 20
5.51315
 30
0.0
  0
SPLINE
  5
59
330
1F
100
AcDbEntity
  8
Camada 1
 62
   242
370
    20
100
AcDbSpline
210
0.0
220
0.0
230
1.0
 70
     8
 71
     3
 72
     8
 73
     4
 74
     0
 42
0.0000000001
 43
0.0000000001
 40
0.0
 40
0.0
 40
0.0
 40
0.0
 40
1.0
 40
1.0
 40
1.0
 40
1.0
 10
12.9209
 20
5.80021
 30
0.0
 10
13.57761
 20
5.72282
 30
0.0
 10
13.9731
 20
5.71374
 30
0.0
 10
14.10735
 20
5.77293
 30
0.0
  0
SPLINE
  5
5A
330
1F
100
AcDbEntity
  8
Camada 1
 62
   242
370
    20
100
AcDbSpline
210
0.0
220
0.0
230
1.0
 70
     8
 71
     3
 72
     8
 73
     4
 74
     0
 42
0.0000000001
 43
0.0000000001
 40
0.0
 40
0.0
 40
0.0
 40
0.0
 40
1.0
 40
1.0
 40
1.0
 40
1.0
 10
12.83446
 20
5.96044
 30
0.0
 10
13.5174
 20
5.9845
 30
0.0
 10
13.94899
 20
6.0076
 30
0.0
 10
14.12933
 20
6.02966
 30
0.0
  0
SPLINE
  5
5B
330
1F
100
AcDbEntity
  8
Camada 1
 62
   242
370
    20
100
AcDbSpline
210
0.0
220
0.0
230
1.0
 70
     8
 71
     3
 72
     8
 73
     4
 74
     0
 42
0.0000000001
 43
0.0000000001
 40
0.0
 40
0.0
 40
0.0
 40
0.0
 40
1.0
 40
1.0
 40
1.0
 40
1.0
 10
12.69969
 20
6.23949
 30
0.0
 10
13.38347
 20
6.27373
 30
0.0
 10
13.84888
 20
6.31351
 30
0.0
 10
14.09594
 20
6.35878
 30
0.0
  0
SPLINE
  5
5C
330
1F
100
AcDbEntity
  8
Camada 1
 62
   242
370
    20
100
AcDbSpline
210
0.0
220
0.0
230
1.0
 70
     8
 71
     3
 72
     8
 73
     4
 74
     0
 42
0.0000000001
 43
0.0000000001
 40
0.0
 40
0.0
 40
0.0
 40
0.0
 40
1.0
 40
1.0
 40
1.0
 40
1.0
 10
12.62394
 20
6.41304
 30
0.0
 10
13.29067
 20
6.64936
 30
0.0
 10
13.76431
 20
6.72728
 30
0.0
 10
14.0448
 20
6.64678
 30
0.0
  0
SPLINE
  5
5D
330
1F
100
AcDbEntity
  8
Camada 1
 62
   242
370
    20
100
AcDbSpline
210
0.0
220
0.0
230
1.0
 70
     8
 71
     3
 72
     8
 73
     4
 74
     0
 42
0.0000000001
 43
0.0000000001
 40
0.0
 40
0.0
 40
0.0
 40
0.0
 40
1.0
 40
1.0
 40
1.0
 40
1.0
 10
12.52749
 20
6.65255
 30
0.0
 10
13.04607
 20
6.93108
 30
0.0
 10
13.54939
 20
7.06632
 30
0.0
 10
14.03742
 20
7.05823
 30
0.0
  0
SPLINE
  5
5E
330
1F
100
AcDbEntity
  8
Camada 1
 62
   242
370
    20
100
AcDbSpline
210
0.0
220
0.0
230
1.0
 70
     8
 71
     3
 72
     8
 73
     4
 74
     0
 42
0.0000000001
 43
0.0000000001
 40
0.0
 40
0.0
 40
0.0
 40
0.0
 40
1.0
 40
1.0
 40
1.0
 40
1.0
 10
12.31943
 20
6.8817
 30
0.0
 10
13.00037
 20
7.27998
 30
0.0
 10
13.57061
 20
7.47598
 30
0.0
 10
14.03004
 20
7.46966
 30
0.0
  0
SPLINE
  5
5F
330
1F
100
AcDbEntity
  8
Camada 1
 62
   242
370
    20
100
AcDbSpline
210
0.0
220
0.0
230
1.0
 70
     8
 71
     3
 72
     8
 73
     4
 74
     0
 42
0.0000000001
 43
0.0000000001
 40
0.0
 40
0.0
 40
0.0
 40
0.0
 40
1.0
 40
1.0
 40
1.0
 40
1.0
 10
12.03274
 20
7.12285
 30
0.0
 10
12.60319
 20
7.481
 30
0.0
 10
13.27696
 20
7.71977
 30
0.0
 10
14.05401
 20
7.83917
 30
0.0
  0
SPLINE
  5
60
330
1F
100
AcDbEntity
  8
Camada 1
 62
   242
370
    20
100
AcDbSpline
210
0.0
220
0.0
230
1.0
 70
     8
 71
     3
 72
     8
 73
     4
 74
     0
 42
0.0000000001
 43
0.0000000001
 40
0.0
 40
0.0
 40
0.0
 40
0.0
 40
1.0
 40
1.0
 40
1.0
 40
1.0
 10
11.60845
 20
7.36214
 30
0.0
 10
12.33958
 20
7.75605
 30
0.0
 10
13.16973
 20
8.01927
 30
0.0
 10
14.09891
 20
8.15171
 30
0.0
  0
SPLINE
  5
61
330
1F
100
AcDbEntity
  8
Camada 1
 62
   242
370
    20
100
AcDbSpline
210
0.0
220
0.0
230
1.0
 70
     8
 71
     3
 72
     8
 73
     4
 74
     0
 42
0.0000000001
 43
0.0000000001
 40
0.0
 40
0.0
 40
0.0
 40
0.0
 40
1.0
 40
1.0
 40
1.0
 40
1.0
 10
11.64024
 20
7.74782
 30
0.0
 10
12.64635
 20
8.19278
 30
0.0
 10
13.48315
 20
8.43117
 30
0.0
 10
14.15064
 20
8.46292
 30
0.0
  0
SPLINE
  5
62
330
1F
100
AcDbEntity
  8
Camada 1
 62
   242
370
    20
100
AcDbSpline
210
0.0
220
0.0
230
1.0
 70
     8
 71
     3
 72
     8
 73
     4
 74
     0
 42
0.0000000001
 43
0.0000000001
 40
0.0
 40
0.0
 40
0.0
 40
0.0
 40
1.0
 40
1.0
 40
1.0
 40
1.0
 10
11.71347
 20
8.11932
 30
0.0
 10
12.79504
 20
8.62048
 30
0.0
 10
13.62976
 20
8.8567
 30
0.0
 10
14.21773
 20
8.82802
 30
0.0
  0
SPLINE
  5
63
330
1F
100
AcDbEntity
  8
Camada 1
 62
   242
370
    20
100
AcDbSpline
210
0.0
220
0.0
230
1.0
 70
     8
 71
     3
 72
     8
 73
     4
 74
     0
 42
0.0000000001
 43
0.0000000001
 40
0.0
 40
0.0
 40
0.0
 40
0.0
 40
1.0
 40
1.0
 40
1.0
 40
1.0
 10
11.82729
 20
8.47297
 30
0.0
 10
13.04336
 20
9.0584
 30
0.0
 10
13.88326
 20
9.36223
 30
0.0
 10
14.34699
 20
9.38451
 30
0.0
  0
SPLINE
  5
64
330
1F
100
AcDbEntity
  8
Camada 1
 62
   242
370
    20
100
AcDbSpline
210
0.0
220
0.0
230
1.0
 70
     8
 71
     3
 72
     8
 73
     4
 74
     0
 42
0.0000000001
 43
0.0000000001
 40
0.0
 40
0.0
 40
0.0
 40
0.0
 40
1.0
 40
1.0
 40
1.0
 40
1.0
 10
11.98225
 20
8.81151
 30
0.0
 10
13.2198
 20
9.46716
 30
0.0
 10
14.06992
 20
9.81967
 30
0.0
 10
14.53255
 20
9.86906
 30
0.0
  0
SPLINE
  5
65
330
1F
100
AcDbEntity
  8
Camada 1
 62
   242
370
    20
100
AcDbSpline
210
0.0
220
0.0
230
1.0
 70
     8
 71
     3
 72
     8
 73
     4
 74
     0
 42
0.0000000001
 43
0.0000000001
 40
0.0
 40
0.0
 40
0.0
 40
0.0
 40
1.0
 40
1.0
 40
1.0
 40
1.0
 10
12.1544
 20
9.09926
 30
0.0
 10
13.55079
 20
10.02636
 30
0.0
 10
14.45599
 20
10.47536
 30
0.0
 10
14.87002
 20
10.44624
 30
0.0
  0
SPLINE
  5
66
330
1F
100
AcDbEntity
  8
Camada 1
 62
   242
370
    20
100
AcDbSpline
210
0.0
220
0.0
230
1.0
 70
     8
 71
     3
 72
     8
 73
     4
 74
     0
 42
0.0000000001
 43
0.0000000001
 40
0.0
 40
0.0
 40
0.0
 40
0.0
 40
1.0
 40
1.0
 40
1.0
 40
1.0
 10
12.43719
 20
9.46682
 30
0.0
 10
14.23033
 20
10.66109
 30
0.0
 10
15.3042
 20
11.26128
 30
0.0
 10
15.65878
 20
11.26739
 30
0.0
  0
SPLINE
  5
67
330
1F
100
AcDbEntity
  8
Camada 1
 62
   242
370
    20
100
AcDbSpline
210
0.0
220
0.0
230
1.0
 70
     8
 71
     3
 72
    20
 73
    16
 74
     0
 42
0.0000000001
 43
0.0000000001
 40
0.0
 40
0.0
 40
0.0
 40
0.0
 40
0.2
 40
0.2
 40
0.2
 40
0.2
 40
0.4
 40
0.4
 40
0.4
 40
0.4
 40
0.6
 40
0.6
 40
0.6
 40
0.6
 40
1.0
 40
1.0
 40
1.0
 40
1.0
 10
12.50954
 20
0.9965
 30
0.0
 10
12.59463
 20
-0.55396
 30
0.0
 10
13.07349
 20
-2.66357
 30
0.0
 10
14.46122
 20
-3.3269
 30
0.0
 10
14.46122
 20
-3.3269
 30
0.0
 10
12.60664
 20
-2.70728
 30
0.0
 10
12.29915
 20
0.07186
 30
0.0
 10
9.67655
 20
0.17141
 30
0.0
 10
9.67655
 20
0.17141
 30
0.0
 10
10.92708
 20
0.0234
 30
0.0
 10
12.19829
 20
0.46314
 30
0.0
 10
12.77157
 20
1.33356
 30
0.0
 10
12.77157
 20
1.33356
 30
0.0
 10
13.03496
 20
2.28926
 30
0.0
 10
13.37545
 20
2.91249
 30
0.0
 10
13.79317
 20
3.20312
 30
0.0
  0
SPLINE
  5
68
330
1F
100
AcDbEntity
  8
Camada 1
 62
   242
370
    20
100
AcDbSpline
210
0.0
220
0.0
230
1.0
 70
     8
 71
     3
 72
     8
 73
     4
 74
     0
 42
0.0000000001
 43
0.0000000001
 40
0.0
 40
0.0
 40
0.0
 40
0.0
 40
1.0
 40
1.0
 40
1.0
 40
1.0
 10
9.98017
 20
0.14696
 30
0.0
 10
9.94724
 20
0.07534
 30
0.0
 10
9.92806
 20
0.00117
 30
0.0
 10
9.92271
 20
-0.07556
 30
0.0
  0
SPLINE
  5
69
330
1F
100
AcDbEntity
  8
Camada 1
 62
   242
370
    20
100
AcDbSpline
210
0.0
220
0.0
230
1.0
 70
     8
 71
     3
 72
     8
 73
     4
 74
     0
 42
0.0000000001
 43
0.0000000001
 40
0.0
 40
0.0
 40
0.0
 40
0.0
 40
1.0
 40
1.0
 40
1.0
 40
1.0
 10
10.25683
 20
0.09999
 30
0.0
 10
10.17172
 20
0.03481
 30
0.0
 10
10.12932
 20
-0.06545
 30
0.0
 10
10.12962
 20
-0.20082
 30
0.0
  0
SPLINE
  5
6A
330
1F
100
AcDbEntity
  8
Camada 1
 62
   242
370
    20
100
AcDbSpline
210
0.0
220
0.0
230
1.0
 70
     8
 71
     3
 72
     8
 73
     4
 74
     0
 42
0.0000000001
 43
0.0000000001
 40
0.0
 40
0.0
 40
0.0
 40
0.0
 40
1.0
 40
1.0
 40
1.0
 40
1.0
 10
10.45521
 20
0.05005
 30
0.0
 10
10.38872
 20
-0.05333
 30
0.0
 10
10.35774
 20
-0.18436
 30
0.0
 10
10.36224
 20
-0.34297
 30
0.0
  0
SPLINE
  5
6B
330
1F
100
AcDbEntity
  8
Camada 1
 62
   242
370
    20
100
AcDbSpline
210
0.0
220
0.0
230
1.0
 70
     8
 71
     3
 72
     8
 73
     4
 74
     0
 42
0.0000000001
 43
0.0000000001
 40
0.0
 40
0.0
 40
0.0
 40
0.0
 40
1.0
 40
1.0
 40
1.0
 40
1.0
 10
10.7282
 20
-0.04377
 30
0.0
 10
10.62874
 20
-0.13773
 30
0.0
 10
10.58681
 20
-0.28119
 30
0.0
 10
10.6025
 20
-0.47419
 30
0.0
  0
SPLINE
  5
6C
330
1F
100
AcDbEntity
  8
Camada 1
 62
   242
370
    20
100
AcDbSpline
210
0.0
220
0.0
230
1.0
 70
     8
 71
     3
 72
     8
 73
     4
 74
     0
 42
0.0000000001
 43
0.0000000001
 40
0.0
 40
0.0
 40
0.0
 40
0.0
 40
1.0
 40
1.0
 40
1.0
 40
1.0
 10
10.94257
 20
-0.14001
 30
0.0
 10
10.85609
 20
-0.27775
 30
0.0
 10
10.80903
 20
-0.4343
 30
0.0
 10
10.80139
 20
-0.60964
 30
0.0
  0
SPLINE
  5
6D
330
1F
100
AcDbEntity
  8
Camada 1
 62
   242
370
    20
100
AcDbSpline
210
0.0
220
0.0
230
1.0
 70
     8
 71
     3
 72
     8
 73
     4
 74
     0
 42
0.0000000001
 43
0.0000000001
 40
0.0
 40
0.0
 40
0.0
 40
0.0
 40
1.0
 40
1.0
 40
1.0
 40
1.0
 10
11.19289
 20
-0.28042
 30
0.0
 10
11.08655
 20
-0.39433
 30
0.0
 10
11.02863
 20
-0.5602
 30
0.0
 10
11.01912
 20
-0.77805
 30
0.0
  0
SPLINE
  5
6E
330
1F
100
AcDbEntity
  8
Camada 1
 62
   242
370
    20
100
AcDbSpline
210
0.0
220
0.0
230
1.0
 70
     8
 71
     3
 72
     8
 73
     4
 74
     0
 42
0.0000000001
 43
0.0000000001
 40
0.0
 40
0.0
 40
0.0
 40
0.0
 40
1.0
 40
1.0
 40
1.0
 40
1.0
 10
11.3961
 20
-0.41859
 30
0.0
 10
11.28488
 20
-0.55349
 30
0.0
 10
11.23647
 20
-0.74471
 30
0.0
 10
11.25094
 20
-0.99227
 30
0.0
  0
SPLINE
  5
6F
330
1F
100
AcDbEntity
  8
Camada 1
 62
   242
370
    20
100
AcDbSpline
210
0.0
220
0.0
230
1.0
 70
     8
 71
     3
 72
     8
 73
     4
 74
     0
 42
0.0000000001
 43
0.0000000001
 40
0.0
 40
0.0
 40
0.0
 40
0.0
 40
1.0
 40
1.0
 40
1.0
 40
1.0
 10
11.60952
 20
-0.58872
 30
0.0
 10
11.51289
 20
-0.73117
 30
0.0
 10
11.46358
 20
-0.93086
 30
0.0
 10
11.46154
 20
-1.18776
 30
0.0
  0
SPLINE
  5
70
330
1F
100
AcDbEntity
  8
Camada 1
 62
   242
370
    20
100
AcDbSpline
210
0.0
220
0.0
230
1.0
 70
     8
 71
     3
 72
     8
 73
     4
 74
     0
 42
0.0000000001
 43
0.0000000001
 40
0.0
 40
0.0
 40
0.0
 40
0.0
 40
1.0
 40
1.0
 40
1.0
 40
1.0
 10
11.83476
 20
-0.79673
 30
0.0
 10
11.73385
 20
-0.90357
 30
0.0
 10
11.6928
 20
-1.10921
 30
0.0
 10
11.71161
 20
-1.41364
 30
0.0
  0
SPLINE
  5
71
330
1F
100
AcDbEntity
  8
Camada 1
 62
   242
370
    20
100
AcDbSpline
210
0.0
220
0.0
230
1.0
 70
     8
 71
     3
 72
     8
 73
     4
 74
     0
 42
0.0000000001
 43
0.0000000001
 40
0.0
 40
0.0
 40
0.0
 40
0.0
 40
1.0
 40
1.0
 40
1.0
 40
1.0
 10
12.04611
 20
-1.01806
 30
0.0
 10
11.9268
 20
-1.28332
 30
0.0
 10
11.88211
 20
-1.47326
 30
0.0
 10
11.91199
 20
-1.58782
 30
0.0
  0
SPLINE
  5
72
330
1F
100
AcDbEntity
  8
Camada 1
 62
   242
370
    20
100
AcDbSpline
210
0.0
220
0.0
230
1.0
 70
     8
 71
     3
 72
     8
 73
     4
 74
     0
 42
0.0000000001
 43
0.0000000001
 40
0.0
 40
0.0
 40
0.0
 40
0.0
 40
1.0
 40
1.0
 40
1.0
 40
1.0
 10
12.26095
 20
-1.26596
 30
0.0
 10
12.16833
 20
-1.38083
 30
0.0
 10
12.134
 20
-1.5526
 30
0.0
 10
12.15789
 20
-1.78133
 30
0.0
  0
SPLINE
  5
73
330
1F
100
AcDbEntity
  8
Camada 1
 62
   242
370
    20
100
AcDbSpline
210
0.0
220
0.0
230
1.0
 70
     8
 71
     3
 72
     8
 73
     4
 74
     0
 42
0.0000000001
 43
0.0000000001
 40
0.0
 40
0.0
 40
0.0
 40
0.0
 40
1.0
 40
1.0
 40
1.0
 40
1.0
 10
12.4079
 20
-1.44601
 30
0.0
 10
12.37676
 20
-1.6959
 30
0.0
 10
12.37464
 20
-1.88745
 30
0.0
 10
12.40155
 20
-2.0207
 30
0.0
  0
SPLINE
  5
74
330
1F
100
AcDbEntity
  8
Camada 1
 62
   242
370
    20
100
AcDbSpline
210
0.0
220
0.0
230
1.0
 70
     8
 71
     3
 72
     8
 73
     4
 74
     0
 42
0.0000000001
 43
0.0000000001
 40
0.0
 40
0.0
 40
0.0
 40
0.0
 40
1.0
 40
1.0
 40
1.0
 40
1.0
 10
12.63828
 20
-1.73796
 30
0.0
 10
12.61312
 20
-1.98717
 30
0.0
 10
12.6138
 20
-2.1519
 30
0.0
 10
12.64032
 20
-2.23223
 30
0.0
  0
SPLINE
  5
75
330
1F
100
AcDbEntity
  8
Camada 1
 62
   242
370
    20
100
AcDbSpline
210
0.0
220
0.0
230
1.0
 70
     8
 71
     3
 72
     8
 73
     4
 74
     0
 42
0.0000000001
 43
0.0000000001
 40
0.0
 40
0.0
 40
0.0
 40
0.0
 40
1.0
 40
1.0
 40
1.0
 40
1.0
 10
12.82313
 20
-1.97309
 30
0.0
 10
12.82206
 20
-2.20991
 30
0.0
 10
12.86208
 20
-2.4153
 30
0.0
 10
12.94322
 20
-2.58922
 30
0.0
  0
SPLINE
  5
76
330
1F
100
AcDbEntity
  8
Camada 1
 62
   242
370
    20
100
AcDbSpline
210
0.0
220
0.0
230
1.0
 70
     8
 71
     3
 72
     8
 73
     4
 74
     0
 42
0.0000000001
 43
0.0000000001
 40
0.0
 40
0.0
 40
0.0
 40
0.0
 40
1.0
 40
1.0
 40
1.0
 40
1.0
 10
13.09628
 20
-2.30606
 30
0.0
 10
13.11478
 20
-2.52516
 30
0.0
 10
13.19336
 20
-2.74293
 30
0.0
 10
13.33205
 20
-2.9593
 30
0.0
  0
SPLINE
  5
77
330
1F
100
AcDbEntity
  8
Camada 1
 62
   242
370
    20
100
AcDbSpline
210
0.0
220
0.0
230
1.0
 70
     8
 71
     3
 72
     8
 73
     4
 74
     0
 42
0.0000000001
 43
0.0000000001
 40
0.0
 40
0.0
 40
0.0
 40
0.0
 40
1.0
 40
1.0
 40
1.0
 40
1.0
 10
13.39641
 20
-2.63188
 30
0.0
 10
13.47661
 20
-2.92582
 30
0.0
 10
13.58826
 20
-3.14695
 30
0.0
 10
13.73131
 20
-3.29525
 30
0.0
  0
SPLINE
  5
78
330
1F
100
AcDbEntity
  8
Camada 1
 62
   242
370
    20
100
AcDbSpline
210
0.0
220
0.0
230
1.0
 70
     8
 71
     3
 72
     8
 73
     4
 74
     0
 42
0.0000000001
 43
0.0000000001
 40
0.0
 40
0.0
 40
0.0
 40
0.0
 40
1.0
 40
1.0
 40
1.0
 40
1.0
 10
13.79092
 20
-2.97402
 30
0.0
 10
13.86119
 20
-3.13128
 30
0.0
 10
14.04587
 20
-3.37104
 30
0.0
 10
14.34494
 20
-3.69328
 30
0.0
  0
SPLINE
  5
79
330
1F
100
AcDbEntity
  8
Camada 1
 62
   242
370
    20
100
AcDbSpline
210
0.0
220
0.0
230
1.0
 70
     8
 71
     3
 72
     8
 73
     4
 74
     0
 42
0.0000000001
 43
0.0000000001
 40
0.0
 40
0.0
 40
0.0
 40
0.0
 40
1.0
 40
1.0
 40
1.0
 40
1.0
 10
14.21255
 20
-3.22715
 30
0.0
 10
14.47657
 20
-3.52112
 30
0.0
 10
14.8878
 20
-3.87884
 30
0.0
 10
15.44633
 20
-4.30021
 30
0.0
  0
SPLINE
  5
7A
330
1F
100
AcDbEntity
  8
Camada 1
 62
   242
370
    20
100
AcDbSpline
210
0.0
220
0.0
230
1.0
 70
     8
 71
     3
 72
     8
 73
     4
 74
     0
 42
0.0000000001
 43
0.0000000001
 40
0.0
 40
0.0
 40
0.0
 40
0.0
 40
1.0
 40
1.0
 40
1.0
 40
1.0
 10
14.46122
 20
-3.3269
 30
0.0
 10
15.60486
 20
-3.99572
 30
0.0
 10
16.34865
 20
-4.37002
 30
0.0
 10
16.69257
 20
-4.44979
 30
0.0
  0
SPLINE
  5
7B
330
1F
100
AcDbEntity
  8
Camada 1
 62
   242
370
    20
100
AcDbSpline
210
0.0
220
0.0
230
1.0
 70
     8
 71
     3
 72
     8
 73
     4
 74
     0
 42
0.0000000001
 43
0.0000000001
 40
0.0
 40
0.0
 40
0.0
 40
0.0
 40
1.0
 40
1.0
 40
1.0
 40
1.0
 10
13.51473
 20
-2.49731
 30
0.0
 10
14.86421
 20
-3.27752
 30
0.0
 10
15.64182
 20
-3.63523
 30
0.0
 10
15.84753
 20
-3.57039
 30
0.0
  0
SPLINE
  5
7C
330
1F
100
AcDbEntity
  8
Camada 1
 62
   242
370
    20
100
AcDbSpline
210
0.0
220
0.0
230
1.0
 70
     8
 71
     3
 72
     8
 73
     4
 74
     0
 42
0.0000000001
 43
0.0000000001
 40
0.0
 40
0.0
 40
0.0
 40
0.0
 40
1.0
 40
1.0
 40
1.0
 40
1.0
 10
13.23775
 20
-2.04094
 30
0.0
 10
14.532
 20
-2.69179
 30
0.0
 10
15.24298
 20
-2.98952
 30
0.0
 10
15.3708
 20
-2.93409
 30
0.0
  0
SPLINE
  5
7D
330
1F
100
AcDbEntity
  8
Camada 1
 62
   242
370
    20
100
AcDbSpline
210
0.0
220
0.0
230
1.0
 70
     8
 71
     3
 72
     8
 73
     4
 74
     0
 42
0.0000000001
 43
0.0000000001
 40
0.0
 40
0.0
 40
0.0
 40
0.0
 40
1.0
 40
1.0
 40
1.0
 40
1.0
 10
13.04654
 20
-1.62467
 30
0.0
 10
14.03688
 20
-2.09479
 30
0.0
 10
14.70207
 20
-2.35008
 30
0.0
 10
15.04209
 20
-2.39051
 30
0.0
  0
SPLINE
  5
7E
330
1F
100
AcDbEntity
  8
Camada 1
 62
   242
370
    20
100
AcDbSpline
210
0.0
220
0.0
230
1.0
 70
     8
 71
     3
 72
     8
 73
     4
 74
     0
 42
0.0000000001
 43
0.0000000001
 40
0.0
 40
0.0
 40
0.0
 40
0.0
 40
1.0
 40
1.0
 40
1.0
 40
1.0
 10
12.93961
 20
-1.33955
 30
0.0
 10
14.04773
 20
-1.81604
 30
0.0
 10
14.66579
 20
-2.0294
 30
0.0
 10
14.79381
 20
-1.97966
 30
0.0
  0
SPLINE
  5
7F
330
1F
100
AcDbEntity
  8
Camada 1
 62
   242
370
    20
100
AcDbSpline
210
0.0
220
0.0
230
1.0
 70
     8
 71
     3
 72
     8
 73
     4
 74
     0
 42
0.0000000001
 43
0.0000000001
 40
0.0
 40
0.0
 40
0.0
 40
0.0
 40
1.0
 40
1.0
 40
1.0
 40
1.0
 10
12.8483
 20
-1.05435
 30
0.0
 10
13.72783
 20
-1.44474
 30
0.0
 10
14.32729
 20
-1.6365
 30
0.0
 10
14.6467
 20
-1.62966
 30
0.0
  0
SPLINE
  5
80
330
1F
100
AcDbEntity
  8
Camada 1
 62
   242
370
    20
100
AcDbSpline
210
0.0
220
0.0
230
1.0
 70
     8
 71
     3
 72
     8
 73
     4
 74
     0
 42
0.0000000001
 43
0.0000000001
 40
0.0
 40
0.0
 40
0.0
 40
0.0
 40
1.0
 40
1.0
 40
1.0
 40
1.0
 10
12.76648
 20
-0.75425
 30
0.0
 10
13.71022
 20
-1.12644
 30
0.0
 10
14.28469
 20
-1.286
 30
0.0
 10
14.48981
 20
-1.23291
 30
0.0
  0
SPLINE
  5
81
330
1F
100
AcDbEntity
  8
Camada 1
 62
   242
370
    20
100
AcDbSpline
210
0.0
220
0.0
230
1.0
 70
     8
 71
     3
 72
     8
 73
     4
 74
     0
 42
0.0000000001
 43
0.0000000001
 40
0.0
 40
0.0
 40
0.0
 40
0.0
 40
1.0
 40
1.0
 40
1.0
 40
1.0
 10
12.70045
 20
-0.46824
 30
0.0
 10
13.49401
 20
-0.78798
 30
0.0
 10
14.04736
 20
-0.93176
 30
0.0
 10
14.36048
 20
-0.89946
 30
0.0
  0
SPLINE
  5
82
330
1F
100
AcDbEntity
  8
Camada 1
 62
   242
370
    20
100
AcDbSpline
210
0.0
220
0.0
230
1.0
 70
     8
 71
     3
 72
     8
 73
     4
 74
     0
 42
0.0000000001
 43
0.0000000001
 40
0.0
 40
0.0
 40
0.0
 40
0.0
 40
1.0
 40
1.0
 40
1.0
 40
1.0
 10
12.68721
 20
-0.18814
 30
0.0
 10
13.25324
 20
-0.38983
 30
0.0
 10
13.77785
 20
-0.5063
 30
0.0
 10
14.26102
 20
-0.53749
 30
0.0
  0
SPLINE
  5
83
330
1F
100
AcDbEntity
  8
Camada 1
 62
   242
370
    20
100
AcDbSpline
210
0.0
220
0.0
230
1.0
 70
     8
 71
     3
 72
     8
 73
     4
 74
     0
 42
0.0000000001
 43
0.0000000001
 40
0.0
 40
0.0
 40
0.0
 40
0.0
 40
1.0
 40
1.0
 40
1.0
 40
1.0
 10
12.60094
 20
0.08802
 30
0.0
 10
13.36658
 20
-0.07085
 30
0.0
 10
13.89654
 20
-0.14804
 30
0.0
 10
14.19091
 20
-0.14358
 30
0.0
  0
SPLINE
  5
84
330
1F
100
AcDbEntity
  8
Camada 1
 62
   242
370
    20
100
AcDbSpline
210
0.0
220
0.0
230
1.0
 70
     8
 71
     3
 72
     8
 73
     4
 74
     0
 42
0.0000000001
 43
0.0000000001
 40
0.0
 40
0.0
 40
0.0
 40
0.0
 40
1.0
 40
1.0
 40
1.0
 40
1.0
 10
12.60307
 20
0.45737
 30
0.0
 10
12.90024
 20
0.32447
 30
0.0
 10
13.43354
 20
0.24651
 30
0.0
 10
14.20301
 20
0.22348
 30
0.0
  0
SPLINE
  5
85
330
1F
100
AcDbEntity
  8
Camada 1
 62
   242
370
    20
100
AcDbSpline
210
0.0
220
0.0
230
1.0
 70
     8
 71
     3
 72
     8
 73
     4
 74
     0
 42
0.0000000001
 43
0.0000000001
 40
0.0
 40
0.0
 40
0.0
 40
0.0
 40
1.0
 40
1.0
 40
1.0
 40
1.0
 10
12.52808
 20
0.72561
 30
0.0
 10
13.3704
 20
0.67845
 30
0.0
 10
13.91131
 20
0.66937
 30
0.0
 10
14.15085
 20
0.69836
 30
0.0
  0
SPLINE
  5
86
330
1F
100
AcDbEntity
  8
Camada 1
 62
   242
370
    20
100
AcDbSpline
210
0.0
220
0.0
230
1.0
 70
     8
 71
     3
 72
     8
 73
     4
 74
     0
 42
0.0000000001
 43
0.0000000001
 40
0.0
 40
0.0
 40
0.0
 40
0.0
 40
1.0
 40
1.0
 40
1.0
 40
1.0
 10
12.64058
 20
1.07487
 30
0.0
 10
13.52711
 20
1.13551
 30
0.0
 10
14.01676
 20
1.17604
 30
0.0
 10
14.10948
 20
1.19649
 30
0.0
  0
SPLINE
  5
87
330
1F
100
AcDbEntity
  8
Camada 1
 62
   242
370
    20
100
AcDbSpline
210
0.0
220
0.0
230
1.0
 70
     8
 71
     3
 72
     8
 73
     4
 74
     0
 42
0.0000000001
 43
0.0000000001
 40
0.0
 40
0.0
 40
0.0
 40
0.0
 40
1.0
 40
1.0
 40
1.0
 40
1.0
 10
12.80755
 20
1.46043
 30
0.0
 10
13.54956
 20
1.60441
 30
0.0
 10
14.00726
 20
1.64999
 30
0.0
 10
14.18056
 20
1.5972
 30
0.0
  0
SPLINE
  5
88
330
1F
100
AcDbEntity
  8
Camada 1
 62
   242
370
    20
100
AcDbSpline
210
0.0
220
0.0
230
1.0
 70
     8
 71
     3
 72
     8
 73
     4
 74
     0
 42
0.0000000001
 43
0.0000000001
 40
0.0
 40
0.0
 40
0.0
 40
0.0
 40
1.0
 40
1.0
 40
1.0
 40
1.0
 10
12.90205
 20
1.7613
 30
0.0
 10
13.59721
 20
2.07619
 30
0.0
 10
14.02821
 20
2.2279
 30
0.0
 10
14.19507
 20
2.21636
 30
0.0
  0
SPLINE
  5
89
330
1F
100
AcDbEntity
  8
Camada 1
 62
   242
370
    20
100
AcDbSpline
210
0.0
220
0.0
230
1.0
 70
     8
 71
     3
 72
     8
 73
     4
 74
     0
 42
0.0000000001
 43
0.0000000001
 40
0.0
 40
0.0
 40
0.0
 40
0.0
 40
1.0
 40
1.0
 40
1.0
 40
1.0
 10
13.06674
 20
2.19255
 30
0.0
 10
13.57371
 20
2.5826
 30
0.0
 10
13.90944
 20
2.77581
 30
0.0
 10
14.07392
 20
2.77215
 30
0.0
  0
SPLINE
  5
8A
330
1F
100
AcDbEntity
  8
Camada 1
 62
   242
370
    20
100
AcDbSpline
210
0.0
220
0.0
230
1.0
 70
     8
 71
     3
 72
     8
 73
     4
 74
     0
 42
0.0000000001
 43
0.0000000001
 40
0.0
 40
0.0
 40
0.0
 40
0.0
 40
1.0
 40
1.0
 40
1.0
 40
1.0
 10
14.24488
 20
4.85083
 30
0.0
 10
15.86023
 20
5.62021
 30
0.0
 10
16.96551
 20
5.94972
 30
0.0
 10
17.56074
 20
5.83934
 30
0.0
  0
SPLINE
  5
8B
330
1F
100
AcDbEntity
  8
Camada 1
 62
   242
370
    20
100
AcDbSpline
210
0.0
220
0.0
230
1.0
 70
     8
 71
     3
 72
     8
 73
     4
 74
     0
 42
0.0000000001
 43
0.0000000001
 40
0.0
 40
0.0
 40
0.0
 40
0.0
 40
1.0
 40
1.0
 40
1.0
 40
1.0
 10
17.53829
 20
2.24563
 30
0.0
 10
16.66321
 20
2.27882
 30
0.0
 10
15.55296
 20
2.66688
 30
0.0
 10
14.20751
 20
3.40977
 30
0.0
  0
SPLINE
  5
8C
330
1F
100
AcDbEntity
  8
Camada 1
 62
   242
370
    20
100
AcDbSpline
210
0.0
220
0.0
230
1.0
 70
     8
 71
     3
 72
     8
 73
     4
 74
     0
 42
0.0000000001
 43
0.0000000001
 40
0.0
 40
0.0
 40
0.0
 40
0.0
 40
1.0
 40
1.0
 40
1.0
 40
1.0
 10
17.29891
 20
2.6648
 30
0.0
 10
16.58463
 20
2.64188
 30
0.0
 10
15.55105
 20
2.93073
 30
0.0
 10
14.19817
 20
3.53144
 30
0.0
  0
SPLINE
  5
8D
330
1F
100
AcDbEntity
  8
Camada 1
 62
   242
370
    20
100
AcDbSpline
210
0.0
220
0.0
230
1.0
 70
     8
 71
     3
 72
     8
 73
     4
 74
     0
 42
0.0000000001
 43
0.0000000001
 40
0.0
 40
0.0
 40
0.0
 40
0.0
 40
1.0
 40
1.0
 40
1.0
 40
1.0
 10
17.11003
 20
3.06571
 30
0.0
 10
16.40397
 20
3.07985
 30
0.0
 10
15.43647
 20
3.28192
 30
0.0
 10
14.20751
 20
3.67185
 30
0.0
  0
SPLINE
  5
8E
330
1F
100
AcDbEntity
  8
Camada 1
 62
   242
370
    20
100
AcDbSpline
210
0.0
220
0.0
230
1.0
 70
     8
 71
     3
 72
     8
 73
     4
 74
     0
 42
0.0000000001
 43
0.0000000001
 40
0.0
 40
0.0
 40
0.0
 40
0.0
 40
1.0
 40
1.0
 40
1.0
 40
1.0
 10
14.27294
 20
3.8123
 30
0.0
 10
15.37889
 20
3.57841
 30
0.0
 10
16.29667
 20
3.43146
 30
0.0
 10
17.02623
 20
3.37154
 30
0.0
  0
SPLINE
  5
8F
330
1F
100
AcDbEntity
  8
Camada 1
 62
   242
370
    20
100
AcDbSpline
210
0.0
220
0.0
230
1.0
 70
     8
 71
     3
 72
     8
 73
     4
 74
     0
 42
0.0000000001
 43
0.0000000001
 40
0.0
 40
0.0
 40
0.0
 40
0.0
 40
1.0
 40
1.0
 40
1.0
 40
1.0
 10
14.27294
 20
3.95264
 30
0.0
 10
15.39167
 20
3.78718
 30
0.0
 10
16.28907
 20
3.69938
 30
0.0
 10
16.96513
 20
3.68928
 30
0.0
  0
SPLINE
  5
90
330
1F
100
AcDbEntity
  8
Camada 1
 62
   242
370
    20
100
AcDbSpline
210
0.0
220
0.0
230
1.0
 70
     8
 71
     3
 72
     8
 73
     4
 74
     0
 42
0.0000000001
 43
0.0000000001
 40
0.0
 40
0.0
 40
0.0
 40
0.0
 40
1.0
 40
1.0
 40
1.0
 40
1.0
 10
14.24488
 20
4.08362
 30
0.0
 10
15.49805
 20
3.9865
 30
0.0
 10
16.39609
 20
3.95611
 30
0.0
 10
16.93903
 20
3.99252
 30
0.0
  0
SPLINE
  5
91
330
1F
100
AcDbEntity
  8
Camada 1
 62
   242
370
    20
100
AcDbSpline
210
0.0
220
0.0
230
1.0
 70
     8
 71
     3
 72
     8
 73
     4
 74
     0
 42
0.0000000001
 43
0.0000000001
 40
0.0
 40
0.0
 40
0.0
 40
0.0
 40
1.0
 40
1.0
 40
1.0
 40
1.0
 10
14.23551
 20
4.224
 30
0.0
 10
15.35831
 20
4.22506
 30
0.0
 10
16.25834
 20
4.23406
 30
0.0
 10
16.93555
 20
4.25099
 30
0.0
  0
SPLINE
  5
92
330
1F
100
AcDbEntity
  8
Camada 1
 62
   242
370
    20
100
AcDbSpline
210
0.0
220
0.0
230
1.0
 70
     8
 71
     3
 72
     8
 73
     4
 74
     0
 42
0.0000000001
 43
0.0000000001
 40
0.0
 40
0.0
 40
0.0
 40
0.0
 40
1.0
 40
1.0
 40
1.0
 40
1.0
 10
14.24488
 20
4.35494
 30
0.0
 10
15.8352
 20
4.47929
 30
0.0
 10
16.74264
 20
4.52112
 30
0.0
 10
16.96725
 20
4.48047
 30
0.0
  0
SPLINE
  5
93
330
1F
100
AcDbEntity
  8
Camada 1
 62
   242
370
    20
100
AcDbSpline
210
0.0
220
0.0
230
1.0
 70
     8
 71
     3
 72
     8
 73
     4
 74
     0
 42
0.0000000001
 43
0.0000000001
 40
0.0
 40
0.0
 40
0.0
 40
0.0
 40
1.0
 40
1.0
 40
1.0
 40
1.0
 10
14.24488
 20
4.51403
 30
0.0
 10
15.54612
 20
4.74178
 30
0.0
 10
16.46445
 20
4.80565
 30
0.0
 10
16.9998
 20
4.70563
 30
0.0
  0
SPLINE
  5
94
330
1F
100
AcDbEntity
  8
Camada 1
 62
   242
370
    20
100
AcDbSpline
210
0.0
220
0.0
230
1.0
 70
     8
 71
     3
 72
     8
 73
     4
 74
     0
 42
0.0000000001
 43
0.0000000001
 40
0.0
 40
0.0
 40
0.0
 40
0.0
 40
1.0
 40
1.0
 40
1.0
 40
1.0
 10
17.10788
 20
5.29058
 30
0.0
 10
16.51491
 20
5.3668
 30
0.0
 10
15.56687
 20
5.16643
 30
0.0
 10
14.24492
 20
4.64736
 30
0.0
  0
SPLINE
  5
95
330
1F
100
AcDbEntity
  8
Camada 1
 62
   242
370
    20
100
AcDbSpline
210
0.0
220
0.0
230
1.0
 70
     8
 71
     3
 72
     8
 73
     4
 74
     0
 42
0.0000000001
 43
0.0000000001
 40
0.0
 40
0.0
 40
0.0
 40
0.0
 40
1.0
 40
1.0
 40
1.0
 40
1.0
 10
14.25189
 20
4.59708
 30
0.0
 10
15.78117
 20
4.9105
 30
0.0
 10
16.70883
 20
5.07596
 30
0.0
 10
17.06765
 20
5.035
 30
0.0
  0
SPLINE
  5
96
330
1F
100
AcDbEntity
  8
Camada 1
 62
   242
370
    20
100
AcDbSpline
210
0.0
220
0.0
230
1.0
 70
     8
 71
     3
 72
     8
 73
     4
 74
     0
 42
0.0000000001
 43
0.0000000001
 40
0.0
 40
0.0
 40
0.0
 40
0.0
 40
1.0
 40
1.0
 40
1.0
 40
1.0
 10
14.24488
 20
4.72922
 30
0.0
 10
15.54596
 20
5.32674
 30
0.0
 10
16.58177
 20
5.59938
 30
0.0
 10
17.35225
 20
5.5471
 30
0.0
  0
SPLINE
  5
97
330
1F
100
AcDbEntity
  8
Camada 1
 62
   250
370
    20
100
AcDbSpline
210
0.0
220
0.0
230
1.0
 70
    11
 71
     3
 72
    36
 73
    32
 74
     0
 42
0.0000000001
 43
0.0000000001
 40
0.0
 40
0.0
 40
0.0
 40
0.0
 40
0.1111111111111111
 40
0.1111111111111111
 40
0.1111111111111111
 40
0.1111111111111111
 40
0.2222222222222222
 40
0.2222222222222222
 40
0.2222222222222222
 40
0.2222222222222222
 40
0.3333333333333333
 40
0.3333333333333333
 40
0.3333333333333333
 40
0.3333333333333333
 40
0.4444444444444444
 40
0.4444444444444444
 40
0.4444444444444444
 40
0.4444444444444444
 40
0.5555555555555556
 40
0.5555555555555556
 40
0.5555555555555556
 40
0.5555555555555556
 40
0.6666666666666666
 40
0.6666666666666666
 40
0.6666666666666666
 40
0.6666666666666666
 40
0.7777777777777778
 40
0.7777777777777778
 40
0.7777777777777778
 40
0.7777777777777778
 40
1.0
 40
1.0
 40
1.0
 40
1.0
 10
-19.53123
 20
7.34172
 30
0.0
 10
-20.0225
 20
1.58782
 30
0.0
 10
-14.68227
 20
0.66328
 30
0.0
 10
-12.18738
 20
2.51094
 30
0.0
 10
-12.18738
 20
2.51094
 30
0.0
 10
-12.18738
 20
2.51094
 30
0.0
 10
-18.91828
 20
0.60592
 30
0.0
 10
-18.85474
 20
7.03954
 30
0.0
 10
-18.85474
 20
7.03954
 30
0.0
 10
-18.85474
 20
7.03954
 30
0.0
 10
-18.50371
 20
7.66023
 30
0.0
 10
-18.91348
 20
8.10205
 30
0.0
 10
-18.91348
 20
8.10205
 30
0.0
 10
-18.92102
 20
8.11018
 30
0.0
 10
-18.92853
 20
8.11777
 30
0.0
 10
-18.93604
 20
8.12507
 30
0.0
 10
-18.93604
 20
8.12507
 30
0.0
 10
-18.93604
 20
8.12507
 30
0.0
 10
-18.93943
 20
7.70913
 30
0.0
 10
-18.93943
 20
7.70913
 30
0.0
 10
-18.93943
 20
7.70913
 30
0.0
 10
-18.93943
 20
7.70913
 30
0.0
 10
-19.24583
 20
7.70888
 30
0.0
 10
-19.24583
 20
7.70888
 30
0.0
 10
-19.24583
 20
7.70888
 30
0.0
 10
-19.24583
 20
7.70888
 30
0.0
 10
-19.2417
 20
8.21543
 30
0.0
 10
-19.2417
 20
8.21543
 30
0.0
 10
-19.2417
 20
8.21543
 30
0.0
 10
-19.48677
 20
8.12061
 30
0.0
 10
-19.63898
 20
7.63194
 30
0.0
 10
-19.53123
 20
7.34172
 30
0.0
  0
SPLINE
  5
98
330
1F
100
AcDbEntity
  8
Camada 1
 62
   250
370
    20
100
AcDbSpline
210
0.0
220
0.0
230
1.0
 70
    11
 71
     3
 72
    36
 73
    32
 74
     0
 42
0.0000000001
 43
0.0000000001
 40
0.0
 40
0.0
 40
0.0
 40
0.0
 40
0.1111111111111111
 40
0.1111111111111111
 40
0.1111111111111111
 40
0.1111111111111111
 40
0.2222222222222222
 40
0.2222222222222222
 40
0.2222222222222222
 40
0.2222222222222222
 40
0.3333333333333333
 40
0.3333333333333333
 40
0.3333333333333333
 40
0.3333333333333333
 40
0.4444444444444444
 40
0.4444444444444444
 40
0.4444444444444444
 40
0.4444444444444444
 40
0.5555555555555556
 40
0.5555555555555556
 40
0.5555555555555556
 40
0.5555555555555556
 40
0.6666666666666666
 40
0.6666666666666666
 40
0.6666666666666666
 40
0.6666666666666666
 40
0.7777777777777778
 40
0.7777777777777778
 40
0.7777777777777778
 40
0.7777777777777778
 40
1.0
 40
1.0
 40
1.0
 40
1.0
 10
4.73962
 20
7.23786
 30
0.0
 10
5.23089
 20
1.48396
 30
0.0
 10
-0.10934
 20
0.55942
 30
0.0
 10
-2.60423
 20
2.40708
 30
0.0
 10
-2.60423
 20
2.40708
 30
0.0
 10
-2.60423
 20
2.40708
 30
0.0
 10
4.12667
 20
0.50206
 30
0.0
 10
4.06313
 20
6.93568
 30
0.0
 10
4.06313
 20
6.93568
 30
0.0
 10
4.06313
 20
6.93568
 30
0.0
 10
3.7121
 20
7.55637
 30
0.0
 10
4.12187
 20
7.99819
 30
0.0
 10
4.12187
 20
7.99819
 30
0.0
 10
4.12941
 20
8.00632
 30
0.0
 10
4.13692
 20
8.01391
 30
0.0
 10
4.14443
 20
8.02121
 30
0.0
 10
4.14443
 20
8.02121
 30
0.0
 10
4.14443
 20
8.02121
 30
0.0
 10
4.14782
 20
7.60527
 30
0.0
 10
4.14782
 20
7.60527
 30
0.0
 10
4.14782
 20
7.60527
 30
0.0
 10
4.14782
 20
7.60527
 30
0.0
 10
4.45422
 20
7.60502
 30
0.0
 10
4.45422
 20
7.60502
 30
0.0
 10
4.45422
 20
7.60502
 30
0.0
 10
4.45422
 20
7.60502
 30
0.0
 10
4.45009
 20
8.11157
 30
0.0
 10
4.45009
 20
8.11157
 30
0.0
 10
4.45009
 20
8.11157
 30
0.0
 10
4.69516
 20
8.01675
 30
0.0
 10
4.84737
 20
7.52808
 30
0.0
 10
4.73962
 20
7.23786
 30
0.0
  0
SPLINE
  5
99
330
1F
100
AcDbEntity
  8
Camada 1
 62
   250
370
     9
100
AcDbSpline
210
0.0
220
0.0
230
1.0
 70
    11
 71
     3
 72
    40
 73
    36
 74
     0
 42
0.0000000001
 43
0.0000000001
 40
0.0
 40
0.0
 40
0.0
 40
0.0
 40
0.1
 40
0.1
 40
0.1
 40
0.1
 40
0.2
 40
0.2
 40
0.2
 40
0.2
 40
0.3
 40
0.3
 40
0.3
 40
0.3
 40
0.4
 40
0.4
 40
0.4
 40
0.4
 40
0.5
 40
0.5
 40
0.5
 40
0.5
 40
0.6
 40
0.6
 40
0.6
 40
0.6
 40
0.7
 40
0.7
 40
0.7
 40
0.7
 40
0.8
 40
0.8
 40
0.8
 40
0.8
 40
1.0
 40
1.0
 40
1.0
 40
1.0
 10
2.66121
 20
-0.05811
 30
0.0
 10
2.78652
 20
-0.07941
 30
0.0
 10
2.97922
 20
-0.16716
 30
0.0
 10
3.11845
 20
-0.21031
 30
0.0
 10
3.11845
 20
-0.21031
 30
0.0
 10
3.53655
 20
-0.38078
 30
0.0
 10
4.3218
 20
-0.66254
 30
0.0
 10
4.73668
 20
-0.423
 30
0.0
 10
4.73668
 20
-0.423
 30
0.0
 10
4.73668
 20
-0.423
 30
0.0
 10
4.8216
 20
-0.3494
 30
0.0
 10
4.8216
 20
-0.3494
 30
0.0
 10
4.8216
 20
-0.3494
 30
0.0
 10
4.88974
 20
-0.28911
 30
0.0
 10
4.86994
 20
-0.32085
 30
0.0
 10
4.91883
 20
-0.22407
 30
0.0
 10
4.91883
 20
-0.22407
 30
0.0
 10
4.91883
 20
-0.22407
 30
0.0
 10
5.01569
 20
0.00235
 30
0.0
 10
5.01569
 20
0.00235
 30
0.0
 10
5.01569
 20
0.00235
 30
0.0
 10
5.01569
 20
0.00235
 30
0.0
 10
5.06486
 20
0.22149
 30
0.0
 10
5.06486
 20
0.22149
 30
0.0
 10
5.06486
 20
0.22149
 30
0.0
 10
5.08364
 20
0.33177
 30
0.0
 10
5.1282
 20
0.45741
 30
0.0
 10
5.11593
 20
0.56267
 30
0.0
 10
5.11593
 20
0.56267
 30
0.0
 10
5.0327
 20
1.27672
 30
0.0
 10
2.41552
 20
0.77255
 30
0.0
 10
2.32385
 20
0.55729
 30
0.0
 10
2.32385
 20
0.55729
 30
0.0
 10
2.14386
 20
0.01112
 30
0.0
 10
2.27378
 20
0.14957
 30
0.0
 10
2.66121
 20
-0.05811
 30
0.0
  0
SPLINE
  5
9A
330
1F
100
AcDbEntity
  8
Camada 1
 62
   250
370
     9
100
AcDbSpline
210
0.0
220
0.0
230
1.0
 70
    11
 71
     3
 72
    20
 73
    16
 74
     0
 42
0.0000000001
 43
0.0000000001
 40
0.0
 40
0.0
 40
0.0
 40
0.0
 40
0.2
 40
0.2
 40
0.2
 40
0.2
 40
0.4
 40
0.4
 40
0.4
 40
0.4
 40
0.6
 40
0.6
 40
0.6
 40
0.6
 40
1.0
 40
1.0
 40
1.0
 40
1.0
 10
2.82283
 20
0.44248
 30
0.0
 10
2.82283
 20
0.44248
 30
0.0
 10
3.12283
 20
0.44248
 30
0.0
 10
3.12283
 20
0.44248
 30
0.0
 10
3.12283
 20
0.44248
 30
0.0
 10
3.12283
 20
0.44248
 30
0.0
 10
3.12283
 20
0.14248
 30
0.0
 10
3.12283
 20
0.14248
 30
0.0
 10
3.12283
 20
0.14248
 30
0.0
 10
3.12283
 20
0.14248
 30
0.0
 10
2.82283
 20
0.14248
 30
0.0
 10
2.82283
 20
0.14248
 30
0.0
 10
2.82283
 20
0.14248
 30
0.0
 10
2.82283
 20
0.14248
 30
0.0
 10
2.82283
 20
0.44248
 30
0.0
 10
2.82283
 20
0.44248
 30
0.0
  0
SPLINE
  5
9B
330
1F
100
AcDbEntity
  8
Camada 1
 62
   242
370
    20
100
AcDbSpline
210
0.0
220
0.0
230
1.0
 70
     8
 71
     3
 72
     8
 73
     4
 74
     0
 42
0.0000000001
 43
0.0000000001
 40
0.0
 40
0.0
 40
0.0
 40
0.0
 40
1.0
 40
1.0
 40
1.0
 40
1.0
 10
3.04221
 20
0.51509
 30
0.0
 10
3.52506
 20
0.71287
 30
0.0
 10
4.1889
 20
0.78411
 30
0.0
 10
5.03367
 20
0.72883
 30
0.0
  0
SPLINE
  5
9C
330
1F
100
AcDbEntity
  8
Camada 1
 62
   242
370
    20
100
AcDbSpline
210
0.0
220
0.0
230
1.0
 70
     8
 71
     3
 72
     8
 73
     4
 74
     0
 42
0.0000000001
 43
0.0000000001
 40
0.0
 40
0.0
 40
0.0
 40
0.0
 40
1.0
 40
1.0
 40
1.0
 40
1.0
 10
3.12283
 20
0.38162
 30
0.0
 10
3.8488
 20
0.46015
 30
0.0
 10
4.50229
 20
0.43618
 30
0.0
 10
5.08324
 20
0.30966
 30
0.0
  0
SPLINE
  5
9D
330
1F
100
AcDbEntity
  8
Camada 1
 62
   242
370
    20
100
AcDbSpline
210
0.0
220
0.0
230
1.0
 70
     8
 71
     3
 72
     8
 73
     4
 74
     0
 42
0.0000000001
 43
0.0000000001
 40
0.0
 40
0.0
 40
0.0
 40
0.0
 40
1.0
 40
1.0
 40
1.0
 40
1.0
 10
3.12283
 20
0.21742
 30
0.0
 10
3.96056
 20
0.2378
 30
0.0
 10
4.56508
 20
0.10433
 30
0.0
 10
4.93638
 20
-0.18309
 30
0.0
  0
SPLINE
  5
9E
330
1F
100
AcDbEntity
  8
Camada 1
 62
   242
370
    20
100
AcDbSpline
210
0.0
220
0.0
230
1.0
 70
     8
 71
     3
 72
     8
 73
     4
 74
     0
 42
0.0000000001
 43
0.0000000001
 40
0.0
 40
0.0
 40
0.0
 40
0.0
 40
1.0
 40
1.0
 40
1.0
 40
1.0
 10
3.00478
 20
0.12211
 30
0.0
 10
3.77042
 20
-0.06813
 30
0.0
 10
4.24177
 20
-0.2795
 30
0.0
 10
4.41885
 20
-0.51199
 30
0.0
  0
SPLINE
  5
9F
330
1F
100
AcDbEntity
  8
Camada 1
 62
   250
370
     9
100
AcDbSpline
210
0.0
220
0.0
230
1.0
 70
    11
 71
     3
 72
    40
 73
    36
 74
     0
 42
0.0000000001
 43
0.0000000001
 40
0.0
 40
0.0
 40
0.0
 40
0.0
 40
0.1
 40
0.1
 40
0.1
 40
0.1
 40
0.2
 40
0.2
 40
0.2
 40
0.2
 40
0.3
 40
0.3
 40
0.3
 40
0.3
 40
0.4
 40
0.4
 40
0.4
 40
0.4
 40
0.5
 40
0.5
 40
0.5
 40
0.5
 40
0.6
 40
0.6
 40
0.6
 40
0.6
 40
0.7
 40
0.7
 40
0.7
 40
0.7
 40
0.8
 40
0.8
 40
0.8
 40
0.8
 40
1.0
 40
1.0
 40
1.0
 40
1.0
 10
4.5716
 20
-2.33626
 30
0.0
 10
4.44629
 20
-2.35756
 30
0.0
 10
4.25359
 20
-2.44531
 30
0.0
 10
4.11436
 20
-2.48846
 30
0.0
 10
4.11436
 20
-2.48846
 30
0.0
 10
3.69626
 20
-2.65893
 30
0.0
 10
2.91101
 20
-2.94069
 30
0.0
 10
2.49613
 20
-2.70115
 30
0.0
 10
2.49613
 20
-2.70115
 30
0.0
 10
2.49613
 20
-2.70115
 30
0.0
 10
2.41121
 20
-2.62755
 30
0.0
 10
2.41121
 20
-2.62755
 30
0.0
 10
2.41121
 20
-2.62755
 30
0.0
 10
2.34307
 20
-2.56726
 30
0.0
 10
2.36287
 20
-2.599
 30
0.0
 10
2.31398
 20
-2.50222
 30
0.0
 10
2.31398
 20
-2.50222
 30
0.0
 10
2.31398
 20
-2.50222
 30
0.0
 10
2.21712
 20
-2.2758
 30
0.0
 10
2.21712
 20
-2.2758
 30
0.0
 10
2.21712
 20
-2.2758
 30
0.0
 10
2.21712
 20
-2.2758
 30
0.0
 10
2.16795
 20
-2.05666
 30
0.0
 10
2.16795
 20
-2.05666
 30
0.0
 10
2.16795
 20
-2.05666
 30
0.0
 10
2.14917
 20
-1.94638
 30
0.0
 10
2.10461
 20
-1.82074
 30
0.0
 10
2.11688
 20
-1.71548
 30
0.0
 10
2.11688
 20
-1.71548
 30
0.0
 10
2.20011
 20
-1.00143
 30
0.0
 10
4.81729
 20
-1.5056
 30
0.0
 10
4.90896
 20
-1.72086
 30
0.0
 10
4.90896
 20
-1.72086
 30
0.0
 10
5.08895
 20
-2.26703
 30
0.0
 10
4.95903
 20
-2.12858
 30
0.0
 10
4.5716
 20
-2.33626
 30
0.0
  0
SPLINE
  5
A0
330
1F
100
AcDbEntity
  8
Camada 1
 62
   250
370
     9
100
AcDbSpline
210
0.0
220
0.0
230
1.0
 70
    11
 71
     3
 72
    20
 73
    16
 74
     0
 42
0.0000000001
 43
0.0000000001
 40
0.0
 40
0.0
 40
0.0
 40
0.0
 40
0.2
 40
0.2
 40
0.2
 40
0.2
 40
0.4
 40
0.4
 40
0.4
 40
0.4
 40
0.6
 40
0.6
 40
0.6
 40
0.6
 40
1.0
 40
1.0
 40
1.0
 40
1.0
 10
4.40998
 20
-1.83567
 30
0.0
 10
4.40998
 20
-1.83567
 30
0.0
 10
4.10998
 20
-1.83567
 30
0.0
 10
4.10998
 20
-1.83567
 30
0.0
 10
4.10998
 20
-1.83567
 30
0.0
 10
4.10998
 20
-1.83567
 30
0.0
 10
4.10998
 20
-2.13567
 30
0.0
 10
4.10998
 20
-2.13567
 30
0.0
 10
4.10998
 20
-2.13567
 30
0.0
 10
4.10998
 20
-2.13567
 30
0.0
 10
4.40998
 20
-2.13567
 30
0.0
 10
4.40998
 20
-2.13567
 30
0.0
 10
4.40998
 20
-2.13567
 30
0.0
 10
4.40998
 20
-2.13567
 30
0.0
 10
4.40998
 20
-1.83567
 30
0.0
 10
4.40998
 20
-1.83567
 30
0.0
  0
SPLINE
  5
A1
330
1F
100
AcDbEntity
  8
Camada 1
 62
   242
370
    20
100
AcDbSpline
210
0.0
220
0.0
230
1.0
 70
     8
 71
     3
 72
     8
 73
     4
 74
     0
 42
0.0000000001
 43
0.0000000001
 40
0.0
 40
0.0
 40
0.0
 40
0.0
 40
1.0
 40
1.0
 40
1.0
 40
1.0
 10
4.1906
 20
-1.76306
 30
0.0
 10
3.70775
 20
-1.56528
 30
0.0
 10
3.04391
 20
-1.49404
 30
0.0
 10
2.19914
 20
-1.54932
 30
0.0
  0
SPLINE
  5
A2
330
1F
100
AcDbEntity
  8
Camada 1
 62
   242
370
    20
100
AcDbSpline
210
0.0
220
0.0
230
1.0
 70
     8
 71
     3
 72
     8
 73
     4
 74
     0
 42
0.0000000001
 43
0.0000000001
 40
0.0
 40
0.0
 40
0.0
 40
0.0
 40
1.0
 40
1.0
 40
1.0
 40
1.0
 10
4.10998
 20
-1.89653
 30
0.0
 10
3.38401
 20
-1.818
 30
0.0
 10
2.73052
 20
-1.84197
 30
0.0
 10
2.14957
 20
-1.96849
 30
0.0
  0
SPLINE
  5
A3
330
1F
100
AcDbEntity
  8
Camada 1
 62
   242
370
    20
100
AcDbSpline
210
0.0
220
0.0
230
1.0
 70
     8
 71
     3
 72
     8
 73
     4
 74
     0
 42
0.0000000001
 43
0.0000000001
 40
0.0
 40
0.0
 40
0.0
 40
0.0
 40
1.0
 40
1.0
 40
1.0
 40
1.0
 10
4.10998
 20
-2.06073
 30
0.0
 10
3.27225
 20
-2.04035
 30
0.0
 10
2.66773
 20
-2.17382
 30
0.0
 10
2.29643
 20
-2.46124
 30
0.0
  0
SPLINE
  5
A4
330
1F
100
AcDbEntity
  8
Camada 1
 62
   242
370
    20
100
AcDbSpline
210
0.0
220
0.0
230
1.0
 70
     8
 71
     3
 72
     8
 73
     4
 74
     0
 42
0.0000000001
 43
0.0000000001
 40
0.0
 40
0.0
 40
0.0
 40
0.0
 40
1.0
 40
1.0
 40
1.0
 40
1.0
 10
4.22803
 20
-2.15604
 30
0.0
 10
3.46239
 20
-2.34628
 30
0.0
 10
2.99104
 20
-2.55765
 30
0.0
 10
2.81396
 20
-2.79014
 30
0.0
  0
SPLINE
  5
A5
330
1F
100
AcDbEntity
  8
Camada 1
 62
   250
370
    20
100
AcDbSpline
210
0.0
220
0.0
230
1.0
 70
    11
 71
     3
 72
    20
 73
    16
 74
     0
 42
0.0000000001
 43
0.0000000001
 40
0.0
 40
0.0
 40
0.0
 40
0.0
 40
0.2
 40
0.2
 40
0.2
 40
0.2
 40
0.4
 40
0.4
 40
0.4
 40
0.4
 40
0.6
 40
0.6
 40
0.6
 40
0.6
 40
1.0
 40
1.0
 40
1.0
 40
1.0
 10
-0.28834
 20
0.29095
 30
0.0
 10
-0.05399
 20
0.29095
 30
0.0
 10
0.136
 20
0.10097
 30
0.0
 10
0.136
 20
-0.1334
 30
0.0
 10
0.136
 20
-0.1334
 30
0.0
 10
0.136
 20
-0.36774
 30
0.0
 10
-0.05399
 20
-0.55774
 30
0.0
 10
-0.28834
 20
-0.55774
 30
0.0
 10
-0.28834
 20
-0.55774
 30
0.0
 10
-0.52269
 20
-0.55774
 30
0.0
 10
-0.71267
 20
-0.36774
 30
0.0
 10
-0.71267
 20
-0.1334
 30
0.0
 10
-0.71267
 20
-0.1334
 30
0.0
 10
-0.71267
 20
0.10097
 30
0.0
 10
-0.52269
 20
0.29095
 30
0.0
 10
-0.28834
 20
0.29095
 30
0.0
  0
SPLINE
  5
A6
330
1F
100
AcDbEntity
  8
Camada 1
 62
   250
370
    20
100
AcDbSpline
210
0.0
220
0.0
230
1.0
 70
    11
 71
     3
 72
    20
 73
    16
 74
     0
 42
0.0000000001
 43
0.0000000001
 40
0.0
 40
0.0
 40
0.0
 40
0.0
 40
0.2
 40
0.2
 40
0.2
 40
0.2
 40
0.4
 40
0.4
 40
0.4
 40
0.4
 40
0.6
 40
0.6
 40
0.6
 40
0.6
 40
1.0
 40
1.0
 40
1.0
 40
1.0
 10
-0.43834
 20
0.01661
 30
0.0
 10
-0.43834
 20
0.01661
 30
0.0
 10
-0.13834
 20
0.01661
 30
0.0
 10
-0.13834
 20
0.01661
 30
0.0
 10
-0.13834
 20
0.01661
 30
0.0
 10
-0.13834
 20
0.01661
 30
0.0
 10
-0.13834
 20
-0.28339
 30
0.0
 10
-0.13834
 20
-0.28339
 30
0.0
 10
-0.13834
 20
-0.28339
 30
0.0
 10
-0.13834
 20
-0.28339
 30
0.0
 10
-0.43834
 20
-0.28339
 30
0.0
 10
-0.43834
 20
-0.28339
 30
0.0
 10
-0.43834
 20
-0.28339
 30
0.0
 10
-0.43834
 20
-0.28339
 30
0.0
 10
-0.43834
 20
0.01661
 30
0.0
 10
-0.43834
 20
0.01661
 30
0.0
  0
SPLINE
  5
A7
330
1F
100
AcDbEntity
  8
Camada 1
 62
   250
370
    20
100
AcDbSpline
210
0.0
220
0.0
230
1.0
 70
    11
 71
     3
 72
    20
 73
    16
 74
     0
 42
0.0000000001
 43
0.0000000001
 40
0.0
 40
0.0
 40
0.0
 40
0.0
 40
0.2
 40
0.2
 40
0.2
 40
0.2
 40
0.4
 40
0.4
 40
0.4
 40
0.4
 40
0.6
 40
0.6
 40
0.6
 40
0.6
 40
1.0
 40
1.0
 40
1.0
 40
1.0
 10
-0.42945
 20
-1.26128
 30
0.0
 10
-0.1951
 20
-1.26128
 30
0.0
 10
-0.00511
 20
-1.45126
 30
0.0
 10
-0.00511
 20
-1.68563
 30
0.0
 10
-0.00511
 20
-1.68563
 30
0.0
 10
-0.00511
 20
-1.91997
 30
0.0
 10
-0.1951
 20
-2.10997
 30
0.0
 10
-0.42945
 20
-2.10997
 30
0.0
 10
-0.42945
 20
-2.10997
 30
0.0
 10
-0.6638
 20
-2.10997
 30
0.0
 10
-0.85378
 20
-1.91997
 30
0.0
 10
-0.85378
 20
-1.68563
 30
0.0
 10
-0.85378
 20
-1.68563
 30
0.0
 10
-0.85378
 20
-1.45126
 30
0.0
 10
-0.6638
 20
-1.26128
 30
0.0
 10
-0.42945
 20
-1.26128
 30
0.0
  0
SPLINE
  5
A8
330
1F
100
AcDbEntity
  8
Camada 1
 62
   250
370
    20
100
AcDbSpline
210
0.0
220
0.0
230
1.0
 70
    11
 71
     3
 72
    20
 73
    16
 74
     0
 42
0.0000000001
 43
0.0000000001
 40
0.0
 40
0.0
 40
0.0
 40
0.0
 40
0.2
 40
0.2
 40
0.2
 40
0.2
 40
0.4
 40
0.4
 40
0.4
 40
0.4
 40
0.6
 40
0.6
 40
0.6
 40
0.6
 40
1.0
 40
1.0
 40
1.0
 40
1.0
 10
-0.57945
 20
-1.53562
 30
0.0
 10
-0.57945
 20
-1.53562
 30
0.0
 10
-0.27945
 20
-1.53562
 30
0.0
 10
-0.27945
 20
-1.53562
 30
0.0
 10
-0.27945
 20
-1.53562
 30
0.0
 10
-0.27945
 20
-1.53562
 30
0.0
 10
-0.27945
 20
-1.83562
 30
0.0
 10
-0.27945
 20
-1.83562
 30
0.0
 10
-0.27945
 20
-1.83562
 30
0.0
 10
-0.27945
 20
-1.83562
 30
0.0
 10
-0.57945
 20
-1.83562
 30
0.0
 10
-0.57945
 20
-1.83562
 30
0.0
 10
-0.57945
 20
-1.83562
 30
0.0
 10
-0.57945
 20
-1.83562
 30
0.0
 10
-0.57945
 20
-1.53562
 30
0.0
 10
-0.57945
 20
-1.53562
 30
0.0
  0
SPLINE
  5
A9
330
1F
100
AcDbEntity
  8
Camada 1
 62
   114
370
     9
100
AcDbSpline
210
0.0
220
0.0
230
1.0
 70
    11
 71
     3
 72
   228
 73
   224
 74
     0
 42
0.0000000001
 43
0.0000000001
 40
0.0
 40
0.0
 40
0.0
 40
0.0
 40
0.0175438596491228
 40
0.0175438596491228
 40
0.0175438596491228
 40
0.0175438596491228
 40
0.0350877192982456
 40
0.0350877192982456
 40
0.0350877192982456
 40
0.0350877192982456
 40
0.0526315789473684
 40
0.0526315789473684
 40
0.0526315789473684
 40
0.0526315789473684
 40
0.0701754385964912
 40
0.0701754385964912
 40
0.0701754385964912
 40
0.0701754385964912
 40
0.087719298245614
 40
0.087719298245614
 40
0.087719298245614
 40
0.087719298245614
 40
0.1052631578947368
 40
0.1052631578947368
 40
0.1052631578947368
 40
0.1052631578947368
 40
0.1228070175438596
 40
0.1228070175438596
 40
0.1228070175438596
 40
0.1228070175438596
 40
0.1403508771929824
 40
0.1403508771929824
 40
0.1403508771929824
 40
0.1403508771929824
 40
0.1578947368421053
 40
0.1578947368421053
 40
0.1578947368421053
 40
0.1578947368421053
 40
0.1754385964912281
 40
0.1754385964912281
 40
0.1754385964912281
 40
0.1754385964912281
 40
0.1929824561403509
 40
0.1929824561403509
 40
0.1929824561403509
 40
0.1929824561403509
 40
0.2105263157894737
 40
0.2105263157894737
 40
0.2105263157894737
 40
0.2105263157894737
 40
0.2280701754385965
 40
0.2280701754385965
 40
0.2280701754385965
 40
0.2280701754385965
 40
0.2456140350877193
 40
0.2456140350877193
 40
0.2456140350877193
 40
0.2456140350877193
 40
0.2631578947368421
 40
0.2631578947368421
 40
0.2631578947368421
 40
0.2631578947368421
 40
0.2807017543859649
 40
0.2807017543859649
 40
0.2807017543859649
 40
0.2807017543859649
 40
0.2982456140350877
 40
0.2982456140350877
 40
0.2982456140350877
 40
0.2982456140350877
 40
0.3157894736842105
 40
0.3157894736842105
 40
0.3157894736842105
 40
0.3157894736842105
 40
0.3333333333333333
 40
0.3333333333333333
 40
0.3333333333333333
 40
0.3333333333333333
 40
0.3508771929824561
 40
0.3508771929824561
 40
0.3508771929824561
 40
0.3508771929824561
 40
0.3684210526315789
 40
0.3684210526315789
 40
0.3684210526315789
 40
0.3684210526315789
 40
0.3859649122807017
 40
0.3859649122807017
 40
0.3859649122807017
 40
0.3859649122807017
 40
0.4035087719298245
 40
0.4035087719298245
 40
0.4035087719298245
 40
0.4035087719298245
 40
0.4210526315789473
 40
0.4210526315789473
 40
0.4210526315789473
 40
0.4210526315789473
 40
0.4385964912280702
 40
0.4385964912280702
 40
0.4385964912280702
 40
0.4385964912280702
 40
0.456140350877193
 40
0.456140350877193
 40
0.456140350877193
 40
0.456140350877193
 40
0.4736842105263158
 40
0.4736842105263158
 40
0.4736842105263158
 40
0.4736842105263158
 40
0.4912280701754386
 40
0.4912280701754386
 40
0.4912280701754386
 40
0.4912280701754386
 40
0.5087719298245614
 40
0.5087719298245614
 40
0.5087719298245614
 40
0.5087719298245614
 40
0.5263157894736842
 40
0.5263157894736842
 40
0.5263157894736842
 40
0.5263157894736842
 40
0.543859649122807
 40
0.543859649122807
 40
0.543859649122807
 40
0.543859649122807
 40
0.5614035087719298
 40
0.5614035087719298
 40
0.5614035087719298
 40
0.5614035087719298
 40
0.5789473684210527
 40
0.5789473684210527
 40
0.5789473684210527
 40
0.5789473684210527
 40
0.5964912280701754
 40
0.5964912280701754
 40
0.5964912280701754
 40
0.5964912280701754
 40
0.6140350877192983
 40
0.6140350877192983
 40
0.6140350877192983
 40
0.6140350877192983
 40
0.631578947368421
 40
0.631578947368421
 40
0.631578947368421
 40
0.631578947368421
 40
0.6491228070175439
 40
0.6491228070175439
 40
0.6491228070175439
 40
0.6491228070175439
 40
0.6666666666666666
 40
0.6666666666666666
 40
0.6666666666666666
 40
0.6666666666666666
 40
0.6842105263157895
 40
0.6842105263157895
 40
0.6842105263157895
 40
0.6842105263157895
 40
0.7017543859649122
 40
0.7017543859649122
 40
0.7017543859649122
 40
0.7017543859649122
 40
0.7192982456140351
 40
0.7192982456140351
 40
0.7192982456140351
 40
0.7192982456140351
 40
0.7368421052631579
 40
0.7368421052631579
 40
0.7368421052631579
 40
0.7368421052631579
 40
0.7543859649122807
 40
0.7543859649122807
 40
0.7543859649122807
 40
0.7543859649122807
 40
0.7719298245614035
 40
0.7719298245614035
 40
0.7719298245614035
 40
0.7719298245614035
 40
0.7894736842105263
 40
0.7894736842105263
 40
0.7894736842105263
 40
0.7894736842105263
 40
0.8070175438596491
 40
0.8070175438596491
 40
0.8070175438596491
 40
0.8070175438596491
 40
0.8245614035087719
 40
0.8245614035087719
 40
0.8245614035087719
 40
0.8245614035087719
 40
0.8421052631578947
 40
0.8421052631578947
 40
0.8421052631578947
 40
0.8421052631578947
 40
0.8596491228070176
 40
0.8596491228070176
 40
0.8596491228070176
 40
0.8596491228070176
 40
0.8771929824561403
 40
0.8771929824561403
 40
0.8771929824561403
 40
0.8771929824561403
 40
0.8947368421052632
 40
0.8947368421052632
 40
0.8947368421052632
 40
0.8947368421052632
 40
0.9122807017543859
 40
0.9122807017543859
 40
0.9122807017543859
 40
0.9122807017543859
 40
0.9298245614035088
 40
0.9298245614035088
 40
0.9298245614035088
 40
0.9298245614035088
 40
0.9473684210526315
 40
0.9473684210526315
 40
0.9473684210526315
 40
0.9473684210526315
 40
0.9649122807017544
 40
0.9649122807017544
 40
0.9649122807017544
 40
0.9649122807017544
 40
1.0
 40
1.0
 40
1.0
 40
1.0
 10
-9.54293
 20
-0.47428
 30
0.0
 10
-9.56547
 20
-0.29452
 30
0.0
 10
-9.61108
 20
-0.12127
 30
0.0
 10
-9.67975
 20
0.0322
 30
0.0
 10
-9.67975
 20
0.0322
 30
0.0
 10
-9.74717
 20
0.1829
 30
0.0
 10
-9.8368
 20
0.31454
 30
0.0
 10
-9.94855
 20
0.41446
 30
0.0
 10
-9.94855
 20
0.41446
 30
0.0
 10
-9.94855
 20
0.41446
 30
0.0
 10
-9.95044
 20
0.41614
 30
0.0
 10
-9.95044
 20
0.41614
 30
0.0
 10
-9.95044
 20
0.41614
 30
0.0
 10
-9.95044
 20
0.41614
 30
0.0
 10
-9.95129
 20
0.41719
 30
0.0
 10
-9.95129
 20
0.41719
 30
0.0
 10
-9.95129
 20
0.41719
 30
0.0
 10
-9.95719
 20
0.4244
 30
0.0
 10
-9.96242
 20
0.43052
 30
0.0
 10
-9.96695
 20
0.43552
 30
0.0
 10
-9.96695
 20
0.43552
 30
0.0
 10
-10.08462
 20
0.56536
 30
0.0
 10
-10.25513
 20
0.60685
 30
0.0
 10
-10.42816
 20
0.59005
 30
0.0
 10
-10.42816
 20
0.59005
 30
0.0
 10
-10.60344
 20
0.57303
 30
0.0
 10
-10.78098
 20
0.49639
 30
0.0
 10
-10.90997
 20
0.39086
 30
0.0
 10
-10.90997
 20
0.39086
 30
0.0
 10
-10.92043
 20
0.38231
 30
0.0
 10
-10.92979
 20
0.37431
 30
0.0
 10
-10.93796
 20
0.36693
 30
0.0
 10
-10.93796
 20
0.36693
 30
0.0
 10
-11.11409
 20
0.17094
 30
0.0
 10
-11.31615
 20
0.03527
 30
0.0
 10
-11.49227
 20
-0.08297
 30
0.0
 10
-11.49227
 20
-0.08297
 30
0.0
 10
-11.66059
 20
-0.19597
 30
0.0
 10
-11.80475
 20
-0.29276
 30
0.0
 10
-11.87486
 20
-0.40859
 30
0.0
 10
-11.87486
 20
-0.40859
 30
0.0
 10
-11.87486
 20
-0.40859
 30
0.0
 10
-11.87595
 20
-0.41039
 30
0.0
 10
-11.87595
 20
-0.41039
 30
0.0
 10
-11.87595
 20
-0.41039
 30
0.0
 10
-11.87595
 20
-0.41039
 30
0.0
 10
-11.87799
 20
-0.41259
 30
0.0
 10
-11.87799
 20
-0.41259
 30
0.0
 10
-11.87799
 20
-0.41259
 30
0.0
 10
-11.92115
 20
-0.4592
 30
0.0
 10
-11.95037
 20
-0.50951
 30
0.0
 10
-11.96832
 20
-0.56165
 30
0.0
 10
-11.96832
 20
-0.56165
 30
0.0
 10
-11.98812
 20
-0.61921
 30
0.0
 10
-11.99414
 20
-0.67912
 30
0.0
 10
-11.99001
 20
-0.73885
 30
0.0
 10
-11.99001
 20
-0.73885
 30
0.0
 10
-11.99001
 20
-0.73885
 30
0.0
 10
-11.9899
 20
-0.74052
 30
0.0
 10
-11.9899
 20
-0.74052
 30
0.0
 10
-11.9899
 20
-0.74052
 30
0.0
 10
-11.9899
 20
-0.74052
 30
0.0
 10
-11.99001
 20
-0.74217
 30
0.0
 10
-11.99001
 20
-0.74217
 30
0.0
 10
-11.99001
 20
-0.74217
 30
0.0
 10
-11.99414
 20
-0.80188
 30
0.0
 10
-11.98812
 20
-0.86179
 30
0.0
 10
-11.96831
 20
-0.91936
 30
0.0
 10
-11.96831
 20
-0.91936
 30
0.0
 10
-11.95037
 20
-0.97149
 30
0.0
 10
-11.92115
 20
-1.02181
 30
0.0
 10
-11.87799
 20
-1.06842
 30
0.0
 10
-11.87799
 20
-1.06842
 30
0.0
 10
-11.87799
 20
-1.06842
 30
0.0
 10
-11.87595
 20
-1.07064
 30
0.0
 10
-11.87595
 20
-1.07064
 30
0.0
 10
-11.87595
 20
-1.07064
 30
0.0
 10
-11.87595
 20
-1.07064
 30
0.0
 10
-11.87486
 20
-1.07242
 30
0.0
 10
-11.87486
 20
-1.07242
 30
0.0
 10
-11.87486
 20
-1.07242
 30
0.0
 10
-11.80475
 20
-1.18825
 30
0.0
 10
-11.66059
 20
-1.28503
 30
0.0
 10
-11.49228
 20
-1.39803
 30
0.0
 10
-11.49228
 20
-1.39803
 30
0.0
 10
-11.31616
 20
-1.51627
 30
0.0
 10
-11.1141
 20
-1.65193
 30
0.0
 10
-10.93796
 20
-1.84793
 30
0.0
 10
-10.93796
 20
-1.84793
 30
0.0
 10
-10.92979
 20
-1.85531
 30
0.0
 10
-10.92041
 20
-1.86332
 30
0.0
 10
-10.90996
 20
-1.87187
 30
0.0
 10
-10.90996
 20
-1.87187
 30
0.0
 10
-10.78099
 20
-1.97739
 30
0.0
 10
-10.60344
 20
-2.05403
 30
0.0
 10
-10.42816
 20
-2.07106
 30
0.0
 10
-10.42816
 20
-2.07106
 30
0.0
 10
-10.25514
 20
-2.08786
 30
0.0
 10
-10.08462
 20
-2.04636
 30
0.0
 10
-9.96695
 20
-1.91652
 30
0.0
 10
-9.96695
 20
-1.91652
 30
0.0
 10
-9.96242
 20
-1.91152
 30
0.0
 10
-9.95719
 20
-1.9054
 30
0.0
 10
-9.95129
 20
-1.89819
 30
0.0
 10
-9.95129
 20
-1.89819
 30
0.0
 10
-9.95129
 20
-1.89819
 30
0.0
 10
-9.95044
 20
-1.89715
 30
0.0
 10
-9.95044
 20
-1.89715
 30
0.0
 10
-9.95044
 20
-1.89715
 30
0.0
 10
-9.95044
 20
-1.89715
 30
0.0
 10
-9.94855
 20
-1.89546
 30
0.0
 10
-9.94855
 20
-1.89546
 30
0.0
 10
-9.94855
 20
-1.89546
 30
0.0
 10
-9.81889
 20
-1.77953
 30
0.0
 10
-9.71902
 20
-1.62094
 30
0.0
 10
-9.64903
 20
-1.43937
 30
0.0
 10
-9.64903
 20
-1.43937
 30
0.0
 10
-9.57663
 20
-1.25154
 30
0.0
 10
-9.53628
 20
-1.03934
 30
0.0
 10
-9.52799
 20
-0.82428
 30
0.0
 10
-9.52799
 20
-0.82428
 30
0.0
 10
-9.52799
 20
-0.82428
 30
0.0
 10
-9.47735
 20
-0.79987
 30
0.0
 10
-9.47735
 20
-0.79987
 30
0.0
 10
-9.47735
 20
-0.79987
 30
0.0
 10
-9.48348
 20
-1.02928
 30
0.0
 10
-9.52522
 20
-1.25671
 30
0.0
 10
-9.60255
 20
-1.45733
 30
0.0
 10
-9.60255
 20
-1.45733
 30
0.0
 10
-9.67489
 20
-1.64501
 30
0.0
 10
-9.77851
 20
-1.80952
 30
0.0
 10
-9.91342
 20
-1.93082
 30
0.0
 10
-9.91342
 20
-1.93082
 30
0.0
 10
-9.91813
 20
-1.93654
 30
0.0
 10
-9.92368
 20
-1.94292
 30
0.0
 10
-9.93003
 20
-1.94992
 30
0.0
 10
-9.93003
 20
-1.94992
 30
0.0
 10
-10.05966
 20
-2.09295
 30
0.0
 10
-10.24532
 20
-2.13887
 30
0.0
 10
-10.43284
 20
-2.12066
 30
0.0
 10
-10.43284
 20
-2.12066
 30
0.0
 10
-10.61812
 20
-2.10266
 30
0.0
 10
-10.80559
 20
-2.02183
 30
0.0
 10
-10.9416
 20
-1.91055
 30
0.0
 10
-10.9416
 20
-1.91055
 30
0.0
 10
-10.9512
 20
-1.9027
 30
0.0
 10
-10.96144
 20
-1.89385
 30
0.0
 10
-10.97226
 20
-1.88404
 30
0.0
 10
-10.97226
 20
-1.88404
 30
0.0
 10
-10.97226
 20
-1.88404
 30
0.0
 10
-10.97323
 20
-1.88317
 30
0.0
 10
-10.97323
 20
-1.88317
 30
0.0
 10
-10.97323
 20
-1.88317
 30
0.0
 10
-10.97323
 20
-1.88317
 30
0.0
 10
-10.97411
 20
-1.88218
 30
0.0
 10
-10.97411
 20
-1.88218
 30
0.0
 10
-10.97411
 20
-1.88218
 30
0.0
 10
-11.14615
 20
-1.69042
 30
0.0
 10
-11.34592
 20
-1.55631
 30
0.0
 10
-11.52002
 20
-1.43943
 30
0.0
 10
-11.52002
 20
-1.43943
 30
0.0
 10
-11.69256
 20
-1.32359
 30
0.0
 10
-11.84047
 20
-1.22428
 30
0.0
 10
-11.91654
 20
-1.09999
 30
0.0
 10
-11.91654
 20
-1.09999
 30
0.0
 10
-11.96378
 20
-1.0484
 30
0.0
 10
-11.99584
 20
-0.99293
 30
0.0
 10
-12.01557
 20
-0.93558
 30
0.0
 10
-12.01557
 20
-0.93558
 30
0.0
 10
-12.03747
 20
-0.87195
 30
0.0
 10
-12.04427
 20
-0.80603
 30
0.0
 10
-12.03992
 20
-0.74051
 30
0.0
 10
-12.03992
 20
-0.74051
 30
0.0
 10
-12.04427
 20
-0.67497
 30
0.0
 10
-12.03747
 20
-0.60904
 30
0.0
 10
-12.01558
 20
-0.54543
 30
0.0
 10
-12.01558
 20
-0.54543
 30
0.0
 10
-11.99584
 20
-0.48808
 30
0.0
 10
-11.96378
 20
-0.4326
 30
0.0
 10
-11.91654
 20
-0.38102
 30
0.0
 10
-11.91654
 20
-0.38102
 30
0.0
 10
-11.84047
 20
-0.25672
 30
0.0
 10
-11.69256
 20
-0.15741
 30
0.0
 10
-11.52001
 20
-0.04157
 30
0.0
 10
-11.52001
 20
-0.04157
 30
0.0
 10
-11.34591
 20
0.07531
 30
0.0
 10
-11.14614
 20
0.20944
 30
0.0
 10
-10.97411
 20
0.40118
 30
0.0
 10
-10.97411
 20
0.40118
 30
0.0
 10
-10.97411
 20
0.40118
 30
0.0
 10
-10.97323
 20
0.40216
 30
0.0
 10
-10.97323
 20
0.40216
 30
0.0
 10
-10.97323
 20
0.40216
 30
0.0
 10
-10.97323
 20
0.40216
 30
0.0
 10
-10.97226
 20
0.40304
 30
0.0
 10
-10.97226
 20
0.40304
 30
0.0
 10
-10.97226
 20
0.40304
 30
0.0
 10
-10.96145
 20
0.41284
 30
0.0
 10
-10.95122
 20
0.42168
 30
0.0
 10
-10.94161
 20
0.42954
 30
0.0
 10
-10.94161
 20
0.42954
 30
0.0
 10
-10.8056
 20
0.54082
 30
0.0
 10
-10.61813
 20
0.62166
 30
0.0
 10
-10.43284
 20
0.63965
 30
0.0
 10
-10.43284
 20
0.63965
 30
0.0
 10
-10.24531
 20
0.65786
 30
0.0
 10
-10.05965
 20
0.61195
 30
0.0
 10
-9.93003
 20
0.46892
 30
0.0
 10
-9.93003
 20
0.46892
 30
0.0
 10
-9.92368
 20
0.46192
 30
0.0
 10
-9.91814
 20
0.45555
 30
0.0
 10
-9.91344
 20
0.44984
 30
0.0
 10
-9.91344
 20
0.44984
 30
0.0
 10
-9.79711
 20
0.34524
 30
0.0
 10
-9.70404
 20
0.2085
 30
0.0
 10
-9.63425
 20
0.05252
 30
0.0
 10
-9.63425
 20
0.05252
 30
0.0
 10
-9.55987
 20
-0.11372
 30
0.0
 10
-9.5118
 20
-0.302
 30
0.0
 10
-9.49004
 20
-0.49655
 30
0.0
 10
-9.49004
 20
-0.49655
 30
0.0
 10
-9.49004
 20
-0.49655
 30
0.0
 10
-9.54293
 20
-0.47428
 30
0.0
 10
-9.54293
 20
-0.47428
 30
0.0
  0
SPLINE
  5
AA
330
1F
100
AcDbEntity
  8
Camada 1
 62
   250
370
    20
100
AcDbSpline
210
0.0
220
0.0
230
1.0
 70
    11
 71
     3
 72
    48
 73
    44
 74
     0
 42
0.0000000001
 43
0.0000000001
 40
0.0
 40
0.0
 40
0.0
 40
0.0
 40
0.0833333333333333
 40
0.0833333333333333
 40
0.0833333333333333
 40
0.0833333333333333
 40
0.1666666666666667
 40
0.1666666666666667
 40
0.1666666666666667
 40
0.1666666666666667
 40
0.25
 40
0.25
 40
0.25
 40
0.25
 40
0.3333333333333333
 40
0.3333333333333333
 40
0.3333333333333333
 40
0.3333333333333333
 40
0.4166666666666667
 40
0.4166666666666667
 40
0.4166666666666667
 40
0.4166666666666667
 40
0.5
 40
0.5
 40
0.5
 40
0.5
 40
0.5833333333333334
 40
0.5833333333333334
 40
0.5833333333333334
 40
0.5833333333333334
 40
0.6666666666666666
 40
0.6666666666666666
 40
0.6666666666666666
 40
0.6666666666666666
 40
0.75
 40
0.75
 40
0.75
 40
0.75
 40
0.8333333333333334
 40
0.8333333333333334
 40
0.8333333333333334
 40
0.8333333333333334
 40
1.0
 40
1.0
 40
1.0
 40
1.0
 10
-9.89793
 20
0.60902
 30
0.0
 10
-9.61834
 20
0.35904
 30
0.0
 10
-9.45721
 20
-0.05738
 30
0.0
 10
-9.41441
 20
-0.49928
 30
0.0
 10
-9.41441
 20
-0.49928
 30
0.0
 10
-9.41441
 20
-0.49928
 30
0.0
 10
-10.75879
 20
-0.49928
 30
0.0
 10
-10.75879
 20
-0.49928
 30
0.0
 10
-10.75879
 20
-0.49928
 30
0.0
 10
-10.75879
 20
-0.49928
 30
0.0
 10
-10.75879
 20
-0.79928
 30
0.0
 10
-10.75879
 20
-0.79928
 30
0.0
 10
-10.75879
 20
-0.79928
 30
0.0
 10
-10.75879
 20
-0.79928
 30
0.0
 10
-9.40352
 20
-0.79928
 30
0.0
 10
-9.40352
 20
-0.79928
 30
0.0
 10
-9.40352
 20
-0.79928
 30
0.0
 10
-9.41533
 20
-1.30656
 30
0.0
 10
-9.5801
 20
-1.80585
 30
0.0
 10
-9.89793
 20
-2.09002
 30
0.0
 10
-9.89793
 20
-2.09002
 30
0.0
 10
-10.18743
 20
-2.44387
 30
0.0
 10
-10.68123
 20
-2.3097
 30
0.0
 10
-10.98507
 20
-2.03434
 30
0.0
 10
-10.98507
 20
-2.03434
 30
0.0
 10
-11.3807
 20
-1.59338
 30
0.0
 10
-11.89696
 20
-1.41772
 30
0.0
 10
-12.06686
 20
-1.13702
 30
0.0
 10
-12.06686
 20
-1.13702
 30
0.0
 10
-12.17757
 20
-1.01746
 30
0.0
 10
-12.21288
 20
-0.87838
 30
0.0
 10
-12.20333
 20
-0.74051
 30
0.0
 10
-12.20333
 20
-0.74051
 30
0.0
 10
-12.21288
 20
-0.60258
 30
0.0
 10
-12.17757
 20
-0.46355
 30
0.0
 10
-12.06686
 20
-0.34399
 30
0.0
 10
-12.06686
 20
-0.34399
 30
0.0
 10
-11.89696
 20
-0.06328
 30
0.0
 10
-11.3807
 20
0.11237
 30
0.0
 10
-10.98507
 20
0.55334
 30
0.0
 10
-10.98507
 20
0.55334
 30
0.0
 10
-10.68123
 20
0.8287
 30
0.0
 10
-10.18743
 20
0.96287
 30
0.0
 10
-9.89793
 20
0.60902
 30
0.0
  0
SPLINE
  5
AB
330
1F
100
AcDbEntity
  8
Camada 1
 62
   114
370
     9
100
AcDbSpline
210
0.0
220
0.0
230
1.0
 70
    11
 71
     3
 72
   228
 73
   224
 74
     0
 42
0.0000000001
 43
0.0000000001
 40
0.0
 40
0.0
 40
0.0
 40
0.0
 40
0.0175438596491228
 40
0.0175438596491228
 40
0.0175438596491228
 40
0.0175438596491228
 40
0.0350877192982456
 40
0.0350877192982456
 40
0.0350877192982456
 40
0.0350877192982456
 40
0.0526315789473684
 40
0.0526315789473684
 40
0.0526315789473684
 40
0.0526315789473684
 40
0.0701754385964912
 40
0.0701754385964912
 40
0.0701754385964912
 40
0.0701754385964912
 40
0.087719298245614
 40
0.087719298245614
 40
0.087719298245614
 40
0.087719298245614
 40
0.1052631578947368
 40
0.1052631578947368
 40
0.1052631578947368
 40
0.1052631578947368
 40
0.1228070175438596
 40
0.1228070175438596
 40
0.1228070175438596
 40
0.1228070175438596
 40
0.1403508771929824
 40
0.1403508771929824
 40
0.1403508771929824
 40
0.1403508771929824
 40
0.1578947368421053
 40
0.1578947368421053
 40
0.1578947368421053
 40
0.1578947368421053
 40
0.1754385964912281
 40
0.1754385964912281
 40
0.1754385964912281
 40
0.1754385964912281
 40
0.1929824561403509
 40
0.1929824561403509
 40
0.1929824561403509
 40
0.1929824561403509
 40
0.2105263157894737
 40
0.2105263157894737
 40
0.2105263157894737
 40
0.2105263157894737
 40
0.2280701754385965
 40
0.2280701754385965
 40
0.2280701754385965
 40
0.2280701754385965
 40
0.2456140350877193
 40
0.2456140350877193
 40
0.2456140350877193
 40
0.2456140350877193
 40
0.2631578947368421
 40
0.2631578947368421
 40
0.2631578947368421
 40
0.2631578947368421
 40
0.2807017543859649
 40
0.2807017543859649
 40
0.2807017543859649
 40
0.2807017543859649
 40
0.2982456140350877
 40
0.2982456140350877
 40
0.2982456140350877
 40
0.2982456140350877
 40
0.3157894736842105
 40
0.3157894736842105
 40
0.3157894736842105
 40
0.3157894736842105
 40
0.3333333333333333
 40
0.3333333333333333
 40
0.3333333333333333
 40
0.3333333333333333
 40
0.3508771929824561
 40
0.3508771929824561
 40
0.3508771929824561
 40
0.3508771929824561
 40
0.3684210526315789
 40
0.3684210526315789
 40
0.3684210526315789
 40
0.3684210526315789
 40
0.3859649122807017
 40
0.3859649122807017
 40
0.3859649122807017
 40
0.3859649122807017
 40
0.4035087719298245
 40
0.4035087719298245
 40
0.4035087719298245
 40
0.4035087719298245
 40
0.4210526315789473
 40
0.4210526315789473
 40
0.4210526315789473
 40
0.4210526315789473
 40
0.4385964912280702
 40
0.4385964912280702
 40
0.4385964912280702
 40
0.4385964912280702
 40
0.456140350877193
 40
0.456140350877193
 40
0.456140350877193
 40
0.456140350877193
 40
0.4736842105263158
 40
0.4736842105263158
 40
0.4736842105263158
 40
0.4736842105263158
 40
0.4912280701754386
 40
0.4912280701754386
 40
0.4912280701754386
 40
0.4912280701754386
 40
0.5087719298245614
 40
0.5087719298245614
 40
0.5087719298245614
 40
0.5087719298245614
 40
0.5263157894736842
 40
0.5263157894736842
 40
0.5263157894736842
 40
0.5263157894736842
 40
0.543859649122807
 40
0.543859649122807
 40
0.543859649122807
 40
0.543859649122807
 40
0.5614035087719298
 40
0.5614035087719298
 40
0.5614035087719298
 40
0.5614035087719298
 40
0.5789473684210527
 40
0.5789473684210527
 40
0.5789473684210527
 40
0.5789473684210527
 40
0.5964912280701754
 40
0.5964912280701754
 40
0.5964912280701754
 40
0.5964912280701754
 40
0.6140350877192983
 40
0.6140350877192983
 40
0.6140350877192983
 40
0.6140350877192983
 40
0.631578947368421
 40
0.631578947368421
 40
0.631578947368421
 40
0.631578947368421
 40
0.6491228070175439
 40
0.6491228070175439
 40
0.6491228070175439
 40
0.6491228070175439
 40
0.6666666666666666
 40
0.6666666666666666
 40
0.6666666666666666
 40
0.6666666666666666
 40
0.6842105263157895
 40
0.6842105263157895
 40
0.6842105263157895
 40
0.6842105263157895
 40
0.7017543859649122
 40
0.7017543859649122
 40
0.7017543859649122
 40
0.7017543859649122
 40
0.7192982456140351
 40
0.7192982456140351
 40
0.7192982456140351
 40
0.7192982456140351
 40
0.7368421052631579
 40
0.7368421052631579
 40
0.7368421052631579
 40
0.7368421052631579
 40
0.7543859649122807
 40
0.7543859649122807
 40
0.7543859649122807
 40
0.7543859649122807
 40
0.7719298245614035
 40
0.7719298245614035
 40
0.7719298245614035
 40
0.7719298245614035
 40
0.7894736842105263
 40
0.7894736842105263
 40
0.7894736842105263
 40
0.7894736842105263
 40
0.8070175438596491
 40
0.8070175438596491
 40
0.8070175438596491
 40
0.8070175438596491
 40
0.8245614035087719
 40
0.8245614035087719
 40
0.8245614035087719
 40
0.8245614035087719
 40
0.8421052631578947
 40
0.8421052631578947
 40
0.8421052631578947
 40
0.8421052631578947
 40
0.8596491228070176
 40
0.8596491228070176
 40
0.8596491228070176
 40
0.8596491228070176
 40
0.8771929824561403
 40
0.8771929824561403
 40
0.8771929824561403
 40
0.8771929824561403
 40
0.8947368421052632
 40
0.8947368421052632
 40
0.8947368421052632
 40
0.8947368421052632
 40
0.9122807017543859
 40
0.9122807017543859
 40
0.9122807017543859
 40
0.9122807017543859
 40
0.9298245614035088
 40
0.9298245614035088
 40
0.9298245614035088
 40
0.9298245614035088
 40
0.9473684210526315
 40
0.9473684210526315
 40
0.9473684210526315
 40
0.9473684210526315
 40
0.9649122807017544
 40
0.9649122807017544
 40
0.9649122807017544
 40
0.9649122807017544
 40
1.0
 40
1.0
 40
1.0
 40
1.0
 10
-8.71185
 20
-0.57261
 30
0.0
 10
-8.68931
 20
-0.39285
 30
0.0
 10
-8.6437
 20
-0.2196
 30
0.0
 10
-8.57503
 20
-0.06613
 30
0.0
 10
-8.57503
 20
-0.06613
 30
0.0
 10
-8.50761
 20
0.08457
 30
0.0
 10
-8.41798
 20
0.21621
 30
0.0
 10
-8.30623
 20
0.31613
 30
0.0
 10
-8.30623
 20
0.31613
 30
0.0
 10
-8.30623
 20
0.31613
 30
0.0
 10
-8.30434
 20
0.31781
 30
0.0
 10
-8.30434
 20
0.31781
 30
0.0
 10
-8.30434
 20
0.31781
 30
0.0
 10
-8.30434
 20
0.31781
 30
0.0
 10
-8.30349
 20
0.31886
 30
0.0
 10
-8.30349
 20
0.31886
 30
0.0
 10
-8.30349
 20
0.31886
 30
0.0
 10
-8.29759
 20
0.32607
 30
0.0
 10
-8.29236
 20
0.33219
 30
0.0
 10
-8.28783
 20
0.33719
 30
0.0
 10
-8.28783
 20
0.33719
 30
0.0
 10
-8.17016
 20
0.46703
 30
0.0
 10
-7.99965
 20
0.50852
 30
0.0
 10
-7.82662
 20
0.49172
 30
0.0
 10
-7.82662
 20
0.49172
 30
0.0
 10
-7.65134
 20
0.4747
 30
0.0
 10
-7.4738
 20
0.39806
 30
0.0
 10
-7.34481
 20
0.29253
 30
0.0
 10
-7.34481
 20
0.29253
 30
0.0
 10
-7.33435
 20
0.28398
 30
0.0
 10
-7.32499
 20
0.27598
 30
0.0
 10
-7.31682
 20
0.2686
 30
0.0
 10
-7.31682
 20
0.2686
 30
0.0
 10
-7.14069
 20
0.07261
 30
0.0
 10
-6.93863
 20
-0.06306
 30
0.0
 10
-6.76251
 20
-0.1813
 30
0.0
 10
-6.76251
 20
-0.1813
 30
0.0
 10
-6.59419
 20
-0.2943
 30
0.0
 10
-6.45003
 20
-0.39109
 30
0.0
 10
-6.37992
 20
-0.50692
 30
0.0
 10
-6.37992
 20
-0.50692
 30
0.0
 10
-6.37992
 20
-0.50692
 30
0.0
 10
-6.37883
 20
-0.50872
 30
0.0
 10
-6.37883
 20
-0.50872
 30
0.0
 10
-6.37883
 20
-0.50872
 30
0.0
 10
-6.37883
 20
-0.50872
 30
0.0
 10
-6.37679
 20
-0.51092
 30
0.0
 10
-6.37679
 20
-0.51092
 30
0.0
 10
-6.37679
 20
-0.51092
 30
0.0
 10
-6.33363
 20
-0.55753
 30
0.0
 10
-6.30441
 20
-0.60784
 30
0.0
 10
-6.28646
 20
-0.65998
 30
0.0
 10
-6.28646
 20
-0.65998
 30
0.0
 10
-6.26666
 20
-0.71754
 30
0.0
 10
-6.26064
 20
-0.77745
 30
0.0
 10
-6.26477
 20
-0.83718
 30
0.0
 10
-6.26477
 20
-0.83718
 30
0.0
 10
-6.26477
 20
-0.83718
 30
0.0
 10
-6.26488
 20
-0.83885
 30
0.0
 10
-6.26488
 20
-0.83885
 30
0.0
 10
-6.26488
 20
-0.83885
 30
0.0
 10
-6.26488
 20
-0.83885
 30
0.0
 10
-6.26477
 20
-0.8405
 30
0.0
 10
-6.26477
 20
-0.8405
 30
0.0
 10
-6.26477
 20
-0.8405
 30
0.0
 10
-6.26064
 20
-0.90021
 30
0.0
 10
-6.26666
 20
-0.96012
 30
0.0
 10
-6.28647
 20
-1.01769
 30
0.0
 10
-6.28647
 20
-1.01769
 30
0.0
 10
-6.30441
 20
-1.06982
 30
0.0
 10
-6.33363
 20
-1.12014
 30
0.0
 10
-6.37679
 20
-1.16675
 30
0.0
 10
-6.37679
 20
-1.16675
 30
0.0
 10
-6.37679
 20
-1.16675
 30
0.0
 10
-6.37883
 20
-1.16897
 30
0.0
 10
-6.37883
 20
-1.16897
 30
0.0
 10
-6.37883
 20
-1.16897
 30
0.0
 10
-6.37883
 20
-1.16897
 30
0.0
 10
-6.37992
 20
-1.17075
 30
0.0
 10
-6.37992
 20
-1.17075
 30
0.0
 10
-6.37992
 20
-1.17075
 30
0.0
 10
-6.45003
 20
-1.28658
 30
0.0
 10
-6.59419
 20
-1.38336
 30
0.0
 10
-6.7625
 20
-1.49636
 30
0.0
 10
-6.7625
 20
-1.49636
 30
0.0
 10
-6.93862
 20
-1.6146
 30
0.0
 10
-7.14068
 20
-1.75026
 30
0.0
 10
-7.31682
 20
-1.94626
 30
0.0
 10
-7.31682
 20
-1.94626
 30
0.0
 10
-7.32499
 20
-1.95364
 30
0.0
 10
-7.33437
 20
-1.96165
 30
0.0
 10
-7.34482
 20
-1.9702
 30
0.0
 10
-7.34482
 20
-1.9702
 30
0.0
 10
-7.47379
 20
-2.07572
 30
0.0
 10
-7.65134
 20
-2.15236
 30
0.0
 10
-7.82662
 20
-2.16939
 30
0.0
 10
-7.82662
 20
-2.16939
 30
0.0
 10
-7.99964
 20
-2.18619
 30
0.0
 10
-8.17016
 20
-2.14469
 30
0.0
 10
-8.28783
 20
-2.01485
 30
0.0
 10
-8.28783
 20
-2.01485
 30
0.0
 10
-8.29236
 20
-2.00985
 30
0.0
 10
-8.29759
 20
-2.00373
 30
0.0
 10
-8.30349
 20
-1.99652
 30
0.0
 10
-8.30349
 20
-1.99652
 30
0.0
 10
-8.30349
 20
-1.99652
 30
0.0
 10
-8.30434
 20
-1.99548
 30
0.0
 10
-8.30434
 20
-1.99548
 30
0.0
 10
-8.30434
 20
-1.99548
 30
0.0
 10
-8.30434
 20
-1.99548
 30
0.0
 10
-8.30623
 20
-1.99379
 30
0.0
 10
-8.30623
 20
-1.99379
 30
0.0
 10
-8.30623
 20
-1.99379
 30
0.0
 10
-8.43589
 20
-1.87786
 30
0.0
 10
-8.53576
 20
-1.71927
 30
0.0
 10
-8.60575
 20
-1.5377
 30
0.0
 10
-8.60575
 20
-1.5377
 30
0.0
 10
-8.67815
 20
-1.34987
 30
0.0
 10
-8.7185
 20
-1.13767
 30
0.0
 10
-8.72679
 20
-0.92261
 30
0.0
 10
-8.72679
 20
-0.92261
 30
0.0
 10
-8.72679
 20
-0.92261
 30
0.0
 10
-8.77743
 20
-0.8982
 30
0.0
 10
-8.77743
 20
-0.8982
 30
0.0
 10
-8.77743
 20
-0.8982
 30
0.0
 10
-8.7713
 20
-1.12761
 30
0.0
 10
-8.72956
 20
-1.35504
 30
0.0
 10
-8.65223
 20
-1.55566
 30
0.0
 10
-8.65223
 20
-1.55566
 30
0.0
 10
-8.57989
 20
-1.74334
 30
0.0
 10
-8.47627
 20
-1.90785
 30
0.0
 10
-8.34136
 20
-2.02915
 30
0.0
 10
-8.34136
 20
-2.02915
 30
0.0
 10
-8.33665
 20
-2.03487
 30
0.0
 10
-8.3311
 20
-2.04125
 30
0.0
 10
-8.32475
 20
-2.04825
 30
0.0
 10
-8.32475
 20
-2.04825
 30
0.0
 10
-8.19512
 20
-2.19128
 30
0.0
 10
-8.00946
 20
-2.2372
 30
0.0
 10
-7.82194
 20
-2.21899
 30
0.0
 10
-7.82194
 20
-2.21899
 30
0.0
 10
-7.63666
 20
-2.20099
 30
0.0
 10
-7.44919
 20
-2.12016
 30
0.0
 10
-7.31318
 20
-2.00888
 30
0.0
 10
-7.31318
 20
-2.00888
 30
0.0
 10
-7.30358
 20
-2.00103
 30
0.0
 10
-7.29334
 20
-1.99218
 30
0.0
 10
-7.28252
 20
-1.98237
 30
0.0
 10
-7.28252
 20
-1.98237
 30
0.0
 10
-7.28252
 20
-1.98237
 30
0.0
 10
-7.28155
 20
-1.9815
 30
0.0
 10
-7.28155
 20
-1.9815
 30
0.0
 10
-7.28155
 20
-1.9815
 30
0.0
 10
-7.28155
 20
-1.9815
 30
0.0
 10
-7.28067
 20
-1.98051
 30
0.0
 10
-7.28067
 20
-1.98051
 30
0.0
 10
-7.28067
 20
-1.98051
 30
0.0
 10
-7.10863
 20
-1.78875
 30
0.0
 10
-6.90886
 20
-1.65464
 30
0.0
 10
-6.73476
 20
-1.53776
 30
0.0
 10
-6.73476
 20
-1.53776
 30
0.0
 10
-6.56222
 20
-1.42192
 30
0.0
 10
-6.41431
 20
-1.32261
 30
0.0
 10
-6.33824
 20
-1.19832
 30
0.0
 10
-6.33824
 20
-1.19832
 30
0.0
 10
-6.291
 20
-1.14673
 30
0.0
 10
-6.25894
 20
-1.09126
 30
0.0
 10
-6.23921
 20
-1.03391
 30
0.0
 10
-6.23921
 20
-1.03391
 30
0.0
 10
-6.21731
 20
-0.97028
 30
0.0
 10
-6.21051
 20
-0.90436
 30
0.0
 10
-6.21486
 20
-0.83884
 30
0.0
 10
-6.21486
 20
-0.83884
 30
0.0
 10
-6.21051
 20
-0.7733
 30
0.0
 10
-6.21731
 20
-0.70737
 30
0.0
 10
-6.2392
 20
-0.64376
 30
0.0
 10
-6.2392
 20
-0.64376
 30
0.0
 10
-6.25894
 20
-0.58641
 30
0.0
 10
-6.291
 20
-0.53093
 30
0.0
 10
-6.33824
 20
-0.47935
 30
0.0
 10
-6.33824
 20
-0.47935
 30
0.0
 10
-6.41431
 20
-0.35505
 30
0.0
 10
-6.56222
 20
-0.25574
 30
0.0
 10
-6.73477
 20
-0.1399
 30
0.0
 10
-6.73477
 20
-0.1399
 30
0.0
 10
-6.90887
 20
-0.02302
 30
0.0
 10
-7.10864
 20
0.11111
 30
0.0
 10
-7.28067
 20
0.30285
 30
0.0
 10
-7.28067
 20
0.30285
 30
0.0
 10
-7.28067
 20
0.30285
 30
0.0
 10
-7.28155
 20
0.30383
 30
0.0
 10
-7.28155
 20
0.30383
 30
0.0
 10
-7.28155
 20
0.30383
 30
0.0
 10
-7.28155
 20
0.30383
 30
0.0
 10
-7.28252
 20
0.30471
 30
0.0
 10
-7.28252
 20
0.30471
 30
0.0
 10
-7.28252
 20
0.30471
 30
0.0
 10
-7.29333
 20
0.31451
 30
0.0
 10
-7.30356
 20
0.32335
 30
0.0
 10
-7.31317
 20
0.33121
 30
0.0
 10
-7.31317
 20
0.33121
 30
0.0
 10
-7.44918
 20
0.44249
 30
0.0
 10
-7.63665
 20
0.52333
 30
0.0
 10
-7.82194
 20
0.54132
 30
0.0
 10
-7.82194
 20
0.54132
 30
0.0
 10
-8.00947
 20
0.55953
 30
0.0
 10
-8.19513
 20
0.51362
 30
0.0
 10
-8.32475
 20
0.37059
 30
0.0
 10
-8.32475
 20
0.37059
 30
0.0
 10
-8.3311
 20
0.36359
 30
0.0
 10
-8.33664
 20
0.35722
 30
0.0
 10
-8.34134
 20
0.35151
 30
0.0
 10
-8.34134
 20
0.35151
 30
0.0
 10
-8.45767
 20
0.24691
 30
0.0
 10
-8.55074
 20
0.11017
 30
0.0
 10
-8.62053
 20
-0.04581
 30
0.0
 10
-8.62053
 20
-0.04581
 30
0.0
 10
-8.69491
 20
-0.21205
 30
0.0
 10
-8.74298
 20
-0.40033
 30
0.0
 10
-8.76474
 20
-0.59488
 30
0.0
 10
-8.76474
 20
-0.59488
 30
0.0
 10
-8.76474
 20
-0.59488
 30
0.0
 10
-8.71185
 20
-0.57261
 30
0.0
 10
-8.71185
 20
-0.57261
 30
0.0
  0
SPLINE
  5
AC
330
1F
100
AcDbEntity
  8
Camada 1
 62
   250
370
    20
100
AcDbSpline
210
0.0
220
0.0
230
1.0
 70
    11
 71
     3
 72
    48
 73
    44
 74
     0
 42
0.0000000001
 43
0.0000000001
 40
0.0
 40
0.0
 40
0.0
 40
0.0
 40
0.0833333333333333
 40
0.0833333333333333
 40
0.0833333333333333
 40
0.0833333333333333
 40
0.1666666666666667
 40
0.1666666666666667
 40
0.1666666666666667
 40
0.1666666666666667
 40
0.25
 40
0.25
 40
0.25
 40
0.25
 40
0.3333333333333333
 40
0.3333333333333333
 40
0.3333333333333333
 40
0.3333333333333333
 40
0.4166666666666667
 40
0.4166666666666667
 40
0.4166666666666667
 40
0.4166666666666667
 40
0.5
 40
0.5
 40
0.5
 40
0.5
 40
0.5833333333333334
 40
0.5833333333333334
 40
0.5833333333333334
 40
0.5833333333333334
 40
0.6666666666666666
 40
0.6666666666666666
 40
0.6666666666666666
 40
0.6666666666666666
 40
0.75
 40
0.75
 40
0.75
 40
0.75
 40
0.8333333333333334
 40
0.8333333333333334
 40
0.8333333333333334
 40
0.8333333333333334
 40
1.0
 40
1.0
 40
1.0
 40
1.0
 10
-8.35685
 20
0.51069
 30
0.0
 10
-8.63644
 20
0.26071
 30
0.0
 10
-8.79757
 20
-0.15571
 30
0.0
 10
-8.84037
 20
-0.59761
 30
0.0
 10
-8.84037
 20
-0.59761
 30
0.0
 10
-8.84037
 20
-0.59761
 30
0.0
 10
-7.49599
 20
-0.59761
 30
0.0
 10
-7.49599
 20
-0.59761
 30
0.0
 10
-7.49599
 20
-0.59761
 30
0.0
 10
-7.49599
 20
-0.59761
 30
0.0
 10
-7.49599
 20
-0.89761
 30
0.0
 10
-7.49599
 20
-0.89761
 30
0.0
 10
-7.49599
 20
-0.89761
 30
0.0
 10
-7.49599
 20
-0.89761
 30
0.0
 10
-8.85126
 20
-0.89761
 30
0.0
 10
-8.85126
 20
-0.89761
 30
0.0
 10
-8.85126
 20
-0.89761
 30
0.0
 10
-8.83945
 20
-1.40489
 30
0.0
 10
-8.67468
 20
-1.90418
 30
0.0
 10
-8.35685
 20
-2.18835
 30
0.0
 10
-8.35685
 20
-2.18835
 30
0.0
 10
-8.06735
 20
-2.5422
 30
0.0
 10
-7.57355
 20
-2.40803
 30
0.0
 10
-7.26971
 20
-2.13267
 30
0.0
 10
-7.26971
 20
-2.13267
 30
0.0
 10
-6.87408
 20
-1.69171
 30
0.0
 10
-6.35782
 20
-1.51605
 30
0.0
 10
-6.18792
 20
-1.23535
 30
0.0
 10
-6.18792
 20
-1.23535
 30
0.0
 10
-6.07721
 20
-1.11579
 30
0.0
 10
-6.0419
 20
-0.97671
 30
0.0
 10
-6.05145
 20
-0.83884
 30
0.0
 10
-6.05145
 20
-0.83884
 30
0.0
 10
-6.0419
 20
-0.70091
 30
0.0
 10
-6.07721
 20
-0.56188
 30
0.0
 10
-6.18792
 20
-0.44232
 30
0.0
 10
-6.18792
 20
-0.44232
 30
0.0
 10
-6.35782
 20
-0.16161
 30
0.0
 10
-6.87408
 20
0.01404
 30
0.0
 10
-7.26971
 20
0.45501
 30
0.0
 10
-7.26971
 20
0.45501
 30
0.0
 10
-7.57355
 20
0.73037
 30
0.0
 10
-8.06735
 20
0.86454
 30
0.0
 10
-8.35685
 20
0.51069
 30
0.0
  0
SPLINE
  5
AD
330
1F
100
AcDbEntity
  8
Camada 1
 62
   250
370
    20
100
AcDbSpline
210
0.0
220
0.0
230
1.0
 70
    11
 71
     3
 72
   312
 73
   308
 74
     0
 42
0.0000000001
 43
0.0000000001
 40
0.0
 40
0.0
 40
0.0
 40
0.0
 40
0.0128205128205128
 40
0.0128205128205128
 40
0.0128205128205128
 40
0.0128205128205128
 40
0.0256410256410256
 40
0.0256410256410256
 40
0.0256410256410256
 40
0.0256410256410256
 40
0.0384615384615385
 40
0.0384615384615385
 40
0.0384615384615385
 40
0.0384615384615385
 40
0.0512820512820513
 40
0.0512820512820513
 40
0.0512820512820513
 40
0.0512820512820513
 40
0.0641025641025641
 40
0.0641025641025641
 40
0.0641025641025641
 40
0.0641025641025641
 40
0.0769230769230769
 40
0.0769230769230769
 40
0.0769230769230769
 40
0.0769230769230769
 40
0.0897435897435897
 40
0.0897435897435897
 40
0.0897435897435897
 40
0.0897435897435897
 40
0.1025641025641026
 40
0.1025641025641026
 40
0.1025641025641026
 40
0.1025641025641026
 40
0.1153846153846154
 40
0.1153846153846154
 40
0.1153846153846154
 40
0.1153846153846154
 40
0.1282051282051282
 40
0.1282051282051282
 40
0.1282051282051282
 40
0.1282051282051282
 40
0.141025641025641
 40
0.141025641025641
 40
0.141025641025641
 40
0.141025641025641
 40
0.1538461538461539
 40
0.1538461538461539
 40
0.1538461538461539
 40
0.1538461538461539
 40
0.1666666666666667
 40
0.1666666666666667
 40
0.1666666666666667
 40
0.1666666666666667
 40
0.1794871794871795
 40
0.1794871794871795
 40
0.1794871794871795
 40
0.1794871794871795
 40
0.1923076923076923
 40
0.1923076923076923
 40
0.1923076923076923
 40
0.1923076923076923
 40
0.2051282051282051
 40
0.2051282051282051
 40
0.2051282051282051
 40
0.2051282051282051
 40
0.217948717948718
 40
0.217948717948718
 40
0.217948717948718
 40
0.217948717948718
 40
0.2307692307692308
 40
0.2307692307692308
 40
0.2307692307692308
 40
0.2307692307692308
 40
0.2435897435897436
 40
0.2435897435897436
 40
0.2435897435897436
 40
0.2435897435897436
 40
0.2564102564102564
 40
0.2564102564102564
 40
0.2564102564102564
 40
0.2564102564102564
 40
0.2692307692307692
 40
0.2692307692307692
 40
0.2692307692307692
 40
0.2692307692307692
 40
0.282051282051282
 40
0.282051282051282
 40
0.282051282051282
 40
0.282051282051282
 40
0.2948717948717949
 40
0.2948717948717949
 40
0.2948717948717949
 40
0.2948717948717949
 40
0.3076923076923077
 40
0.3076923076923077
 40
0.3076923076923077
 40
0.3076923076923077
 40
0.3205128205128205
 40
0.3205128205128205
 40
0.3205128205128205
 40
0.3205128205128205
 40
0.3333333333333333
 40
0.3333333333333333
 40
0.3333333333333333
 40
0.3333333333333333
 40
0.3461538461538461
 40
0.3461538461538461
 40
0.3461538461538461
 40
0.3461538461538461
 40
0.358974358974359
 40
0.358974358974359
 40
0.358974358974359
 40
0.358974358974359
 40
0.3717948717948718
 40
0.3717948717948718
 40
0.3717948717948718
 40
0.3717948717948718
 40
0.3846153846153846
 40
0.3846153846153846
 40
0.3846153846153846
 40
0.3846153846153846
 40
0.3974358974358974
 40
0.3974358974358974
 40
0.3974358974358974
 40
0.3974358974358974
 40
0.4102564102564102
 40
0.4102564102564102
 40
0.4102564102564102
 40
0.4102564102564102
 40
0.4230769230769231
 40
0.4230769230769231
 40
0.4230769230769231
 40
0.4230769230769231
 40
0.4358974358974359
 40
0.4358974358974359
 40
0.4358974358974359
 40
0.4358974358974359
 40
0.4487179487179487
 40
0.4487179487179487
 40
0.4487179487179487
 40
0.4487179487179487
 40
0.4615384615384616
 40
0.4615384615384616
 40
0.4615384615384616
 40
0.4615384615384616
 40
0.4743589743589743
 40
0.4743589743589743
 40
0.4743589743589743
 40
0.4743589743589743
 40
0.4871794871794872
 40
0.4871794871794872
 40
0.4871794871794872
 40
0.4871794871794872
 40
0.5
 40
0.5
 40
0.5
 40
0.5
 40
0.5128205128205128
 40
0.5128205128205128
 40
0.5128205128205128
 40
0.5128205128205128
 40
0.5256410256410257
 40
0.5256410256410257
 40
0.5256410256410257
 40
0.5256410256410257
 40
0.5384615384615384
 40
0.5384615384615384
 40
0.5384615384615384
 40
0.5384615384615384
 40
0.5512820512820513
 40
0.5512820512820513
 40
0.5512820512820513
 40
0.5512820512820513
 40
0.5641025641025641
 40
0.5641025641025641
 40
0.5641025641025641
 40
0.5641025641025641
 40
0.5769230769230769
 40
0.5769230769230769
 40
0.5769230769230769
 40
0.5769230769230769
 40
0.5897435897435898
 40
0.5897435897435898
 40
0.5897435897435898
 40
0.5897435897435898
 40
0.6025641025641025
 40
0.6025641025641025
 40
0.6025641025641025
 40
0.6025641025641025
 40
0.6153846153846154
 40
0.6153846153846154
 40
0.6153846153846154
 40
0.6153846153846154
 40
0.6282051282051282
 40
0.6282051282051282
 40
0.6282051282051282
 40
0.6282051282051282
 40
0.6410256410256411
 40
0.6410256410256411
 40
0.6410256410256411
 40
0.6410256410256411
 40
0.6538461538461539
 40
0.6538461538461539
 40
0.6538461538461539
 40
0.6538461538461539
 40
0.6666666666666666
 40
0.6666666666666666
 40
0.6666666666666666
 40
0.6666666666666666
 40
0.6794871794871795
 40
0.6794871794871795
 40
0.6794871794871795
 40
0.6794871794871795
 40
0.6923076923076923
 40
0.6923076923076923
 40
0.6923076923076923
 40
0.6923076923076923
 40
0.7051282051282052
 40
0.7051282051282052
 40
0.7051282051282052
 40
0.7051282051282052
 40
0.717948717948718
 40
0.717948717948718
 40
0.717948717948718
 40
0.717948717948718
 40
0.7307692307692307
 40
0.7307692307692307
 40
0.7307692307692307
 40
0.7307692307692307
 40
0.7435897435897436
 40
0.7435897435897436
 40
0.7435897435897436
 40
0.7435897435897436
 40
0.7564102564102564
 40
0.7564102564102564
 40
0.7564102564102564
 40
0.7564102564102564
 40
0.7692307692307693
 40
0.7692307692307693
 40
0.7692307692307693
 40
0.7692307692307693
 40
0.782051282051282
 40
0.782051282051282
 40
0.782051282051282
 40
0.782051282051282
 40
0.7948717948717948
 40
0.7948717948717948
 40
0.7948717948717948
 40
0.7948717948717948
 40
0.8076923076923077
 40
0.8076923076923077
 40
0.8076923076923077
 40
0.8076923076923077
 40
0.8205128205128205
 40
0.8205128205128205
 40
0.8205128205128205
 40
0.8205128205128205
 40
0.8333333333333334
 40
0.8333333333333334
 40
0.8333333333333334
 40
0.8333333333333334
 40
0.8461538461538461
 40
0.8461538461538461
 40
0.8461538461538461
 40
0.8461538461538461
 40
0.8589743589743589
 40
0.8589743589743589
 40
0.8589743589743589
 40
0.8589743589743589
 40
0.8717948717948718
 40
0.8717948717948718
 40
0.8717948717948718
 40
0.8717948717948718
 40
0.8846153846153846
 40
0.8846153846153846
 40
0.8846153846153846
 40
0.8846153846153846
 40
0.8974358974358975
 40
0.8974358974358975
 40
0.8974358974358975
 40
0.8974358974358975
 40
0.9102564102564102
 40
0.9102564102564102
 40
0.9102564102564102
 40
0.9102564102564102
 40
0.9230769230769231
 40
0.9230769230769231
 40
0.9230769230769231
 40
0.9230769230769231
 40
0.9358974358974359
 40
0.9358974358974359
 40
0.9358974358974359
 40
0.9358974358974359
 40
0.9487179487179487
 40
0.9487179487179487
 40
0.9487179487179487
 40
0.9487179487179487
 40
0.9615384615384616
 40
0.9615384615384616
 40
0.9615384615384616
 40
0.9615384615384616
 40
0.9743589743589743
 40
0.9743589743589743
 40
0.9743589743589743
 40
0.9743589743589743
 40
1.0
 40
1.0
 40
1.0
 40
1.0
 10
0.08118
 20
-7.7476
 30
0.0
 10
-0.01001
 20
-7.67364
 30
0.0
 10
-0.16141
 20
-7.58574
 30
0.0
 10
-0.36017
 20
-7.49234
 30
0.0
 10
-0.36017
 20
-7.49234
 30
0.0
 10
-0.36017
 20
-7.49234
 30
0.0
 10
-0.66004
 20
-7.49234
 30
0.0
 10
-0.66004
 20
-7.49234
 30
0.0
 10
-0.66004
 20
-7.49234
 30
0.0
 10
-0.66004
 20
-7.49234
 30
0.0
 10
-0.66004
 20
-7.26209
 30
0.0
 10
-0.66004
 20
-7.26209
 30
0.0
 10
-0.66004
 20
-7.26209
 30
0.0
 10
-0.81951
 20
-7.19767
 30
0.0
 10
-0.99743
 20
-7.13252
 30
0.0
 10
-1.19004
 20
-7.06912
 30
0.0
 10
-1.19004
 20
-7.06912
 30
0.0
 10
-1.19004
 20
-7.06912
 30
0.0
 10
-1.19004
 20
-7.48624
 30
0.0
 10
-1.19004
 20
-7.48624
 30
0.0
 10
-1.19004
 20
-7.48624
 30
0.0
 10
-1.19004
 20
-7.48624
 30
0.0
 10
-1.49004
 20
-7.48624
 30
0.0
 10
-1.49004
 20
-7.48624
 30
0.0
 10
-1.49004
 20
-7.48624
 30
0.0
 10
-1.49004
 20
-7.48624
 30
0.0
 10
-1.49004
 20
-6.9755
 30
0.0
 10
-1.49004
 20
-6.9755
 30
0.0
 10
-1.49004
 20
-6.9755
 30
0.0
 10
-1.65271
 20
-6.9274
 30
0.0
 10
-1.82332
 20
-6.88119
 30
0.0
 10
-2.00004
 20
-6.83807
 30
0.0
 10
-2.00004
 20
-6.83807
 30
0.0
 10
-2.00004
 20
-6.83807
 30
0.0
 10
-2.00004
 20
-7.38318
 30
0.0
 10
-2.00004
 20
-7.38318
 30
0.0
 10
-2.00004
 20
-7.38318
 30
0.0
 10
-2.00004
 20
-7.38318
 30
0.0
 10
-2.30004
 20
-7.38318
 30
0.0
 10
-2.30004
 20
-7.38318
 30
0.0
 10
-2.30004
 20
-7.38318
 30
0.0
 10
-2.30004
 20
-7.38318
 30
0.0
 10
-2.30004
 20
-6.76926
 30
0.0
 10
-2.30004
 20
-6.76926
 30
0.0
 10
-2.30004
 20
-6.76926
 30
0.0
 10
-2.4791
 20
-6.73079
 30
0.0
 10
-2.66301
 20
-6.69593
 30
0.0
 10
-2.85004
 20
-6.66586
 30
0.0
 10
-2.85004
 20
-6.66586
 30
0.0
 10
-2.85004
 20
-6.66586
 30
0.0
 10
-2.85004
 20
-7.30102
 30
0.0
 10
-2.85004
 20
-7.30102
 30
0.0
 10
-2.85004
 20
-7.30102
 30
0.0
 10
-2.85004
 20
-7.30102
 30
0.0
 10
-3.15004
 20
-7.30102
 30
0.0
 10
-3.15004
 20
-7.30102
 30
0.0
 10
-3.15004
 20
-7.30102
 30
0.0
 10
-3.15004
 20
-7.30102
 30
0.0
 10
-3.15004
 20
-6.62219
 30
0.0
 10
-3.15004
 20
-6.62219
 30
0.0
 10
-3.15004
 20
-6.62219
 30
0.0
 10
-3.32859
 20
-6.59896
 30
0.0
 10
-3.50907
 20
-6.58048
 30
0.0
 10
-3.69004
 20
-6.56776
 30
0.0
 10
-3.69004
 20
-6.56776
 30
0.0
 10
-3.69004
 20
-6.56776
 30
0.0
 10
-3.69004
 20
-7.27279
 30
0.0
 10
-3.69004
 20
-7.27279
 30
0.0
 10
-3.69004
 20
-7.27279
 30
0.0
 10
-3.69004
 20
-7.27279
 30
0.0
 10
-3.99004
 20
-7.27279
 30
0.0
 10
-3.99004
 20
-7.27279
 30
0.0
 10
-3.99004
 20
-7.27279
 30
0.0
 10
-3.99004
 20
-7.27279
 30
0.0
 10
-3.99004
 20
-6.55202
 30
0.0
 10
-3.99004
 20
-6.55202
 30
0.0
 10
-3.99004
 20
-6.55202
 30
0.0
 10
-4.07553
 20
-6.54911
 30
0.0
 10
-4.15293
 20
-6.5476
 30
0.0
 10
-4.24616
 20
-6.5476
 30
0.0
 10
-4.24616
 20
-6.5476
 30
0.0
 10
-4.33939
 20
-6.5476
 30
0.0
 10
-4.4488
 20
-6.5488
 30
0.0
 10
-4.55004
 20
-6.55116
 30
0.0
 10
-4.55004
 20
-6.55116
 30
0.0
 10
-4.55004
 20
-6.55116
 30
0.0
 10
-4.55004
 20
-7.27439
 30
0.0
 10
-4.55004
 20
-7.27439
 30
0.0
 10
-4.55004
 20
-7.27439
 30
0.0
 10
-4.55004
 20
-7.27439
 30
0.0
 10
-4.85004
 20
-7.27439
 30
0.0
 10
-4.85004
 20
-7.27439
 30
0.0
 10
-4.85004
 20
-7.27439
 30
0.0
 10
-4.85004
 20
-7.27439
 30
0.0
 10
-4.85004
 20
-6.56151
 30
0.0
 10
-4.85004
 20
-6.56151
 30
0.0
 10
-4.85004
 20
-6.56151
 30
0.0
 10
-5.03502
 20
-6.56996
 30
0.0
 10
-5.21882
 20
-6.58217
 30
0.0
 10
-5.40004
 20
-6.59787
 30
0.0
 10
-5.40004
 20
-6.59787
 30
0.0
 10
-5.40004
 20
-6.59787
 30
0.0
 10
-5.40004
 20
-7.2964
 30
0.0
 10
-5.40004
 20
-7.2964
 30
0.0
 10
-5.40004
 20
-7.2964
 30
0.0
 10
-5.40004
 20
-7.2964
 30
0.0
 10
-5.70004
 20
-7.2964
 30
0.0
 10
-5.70004
 20
-7.2964
 30
0.0
 10
-5.70004
 20
-7.2964
 30
0.0
 10
-5.70004
 20
-7.2964
 30
0.0
 10
-5.70004
 20
-6.62728
 30
0.0
 10
-5.70004
 20
-6.62728
 30
0.0
 10
-5.70004
 20
-6.62728
 30
0.0
 10
-6.26684
 20
-6.68941
 30
0.0
 10
-6.79957
 20
-6.88552
 30
0.0
 10
-7.25301
 20
-7.00705
 30
0.0
 10
-7.25301
 20
-7.00705
 30
0.0
 10
-7.25301
 20
-7.00705
 30
0.0
 10
-7.33656
 20
-6.71928
 30
0.0
 10
-7.33656
 20
-6.71928
 30
0.0
 10
-7.33656
 20
-6.71928
 30
0.0
 10
-7.33656
 20
-6.71928
 30
0.0
 10
-7.62466
 20
-6.80293
 30
0.0
 10
-7.62466
 20
-6.80293
 30
0.0
 10
-7.62466
 20
-6.80293
 30
0.0
 10
-7.62466
 20
-6.80293
 30
0.0
 10
-7.54099
 20
-7.09108
 30
0.0
 10
-7.54099
 20
-7.09108
 30
0.0
 10
-7.54099
 20
-7.09108
 30
0.0
 10
-7.87232
 20
-7.19641
 30
0.0
 10
-8.1471
 20
-7.31669
 30
0.0
 10
-8.34245
 20
-7.4476
 30
0.0
 10
-8.34245
 20
-7.4476
 30
0.0
 10
-8.34245
 20
-7.4476
 30
0.0
 10
-7.1214
 20
-7.4476
 30
0.0
 10
-7.1214
 20
-7.4476
 30
0.0
 10
-7.1214
 20
-7.4476
 30
0.0
 10
-7.1214
 20
-7.4476
 30
0.0
 10
-7.1214
 20
-7.7476
 30
0.0
 10
-7.1214
 20
-7.7476
 30
0.0
 10
-7.1214
 20
-7.7476
 30
0.0
 10
-7.1214
 20
-7.7476
 30
0.0
 10
-8.63348
 20
-7.7476
 30
0.0
 10
-8.63348
 20
-7.7476
 30
0.0
 10
-8.63348
 20
-7.7476
 30
0.0
 10
-8.65675
 20
-7.79679
 30
0.0
 10
-8.66915
 20
-7.84683
 30
0.0
 10
-8.66915
 20
-7.8976
 30
0.0
 10
-8.66915
 20
-7.8976
 30
0.0
 10
-8.66915
 20
-7.94837
 30
0.0
 10
-8.65678
 20
-7.99842
 30
0.0
 10
-8.63347
 20
-8.0476
 30
0.0
 10
-8.63347
 20
-8.0476
 30
0.0
 10
-8.63347
 20
-8.0476
 30
0.0
 10
-7.1214
 20
-8.0476
 30
0.0
 10
-7.1214
 20
-8.0476
 30
0.0
 10
-7.1214
 20
-8.0476
 30
0.0
 10
-7.1214
 20
-8.0476
 30
0.0
 10
-7.1214
 20
-8.3476
 30
0.0
 10
-7.1214
 20
-8.3476
 30
0.0
 10
-7.1214
 20
-8.3476
 30
0.0
 10
-7.1214
 20
-8.3476
 30
0.0
 10
-8.34244
 20
-8.3476
 30
0.0
 10
-8.34244
 20
-8.3476
 30
0.0
 10
-8.34244
 20
-8.3476
 30
0.0
 10
-8.14698
 20
-8.47857
 30
0.0
 10
-7.87205
 20
-8.59888
 30
0.0
 10
-7.54053
 20
-8.70424
 30
0.0
 10
-7.54053
 20
-8.70424
 30
0.0
 10
-7.54053
 20
-8.70424
 30
0.0
 10
-7.6243
 20
-8.99274
 30
0.0
 10
-7.6243
 20
-8.99274
 30
0.0
 10
-7.6243
 20
-8.99274
 30
0.0
 10
-7.6243
 20
-8.99274
 30
0.0
 10
-7.3362
 20
-9.07639
 30
0.0
 10
-7.3362
 20
-9.07639
 30
0.0
 10
-7.3362
 20
-9.07639
 30
0.0
 10
-7.3362
 20
-9.07639
 30
0.0
 10
-7.25254
 20
-8.78825
 30
0.0
 10
-7.25254
 20
-8.78825
 30
0.0
 10
-7.25254
 20
-8.78825
 30
0.0
 10
-6.7992
 20
-8.90973
 30
0.0
 10
-6.26664
 20
-9.10579
 30
0.0
 10
-5.70004
 20
-9.16791
 30
0.0
 10
-5.70004
 20
-9.16791
 30
0.0
 10
-5.70004
 20
-9.16791
 30
0.0
 10
-5.70004
 20
-8.4988
 30
0.0
 10
-5.70004
 20
-8.4988
 30
0.0
 10
-5.70004
 20
-8.4988
 30
0.0
 10
-5.70004
 20
-8.4988
 30
0.0
 10
-5.40004
 20
-8.4988
 30
0.0
 10
-5.40004
 20
-8.4988
 30
0.0
 10
-5.40004
 20
-8.4988
 30
0.0
 10
-5.40004
 20
-8.4988
 30
0.0
 10
-5.40004
 20
-9.19732
 30
0.0
 10
-5.40004
 20
-9.19732
 30
0.0
 10
-5.40004
 20
-9.19732
 30
0.0
 10
-5.21882
 20
-9.21302
 30
0.0
 10
-5.03502
 20
-9.22523
 30
0.0
 10
-4.85004
 20
-9.23368
 30
0.0
 10
-4.85004
 20
-9.23368
 30
0.0
 10
-4.85004
 20
-9.23368
 30
0.0
 10
-4.85004
 20
-8.52081
 30
0.0
 10
-4.85004
 20
-8.52081
 30
0.0
 10
-4.85004
 20
-8.52081
 30
0.0
 10
-4.85004
 20
-8.52081
 30
0.0
 10
-4.55004
 20
-8.52081
 30
0.0
 10
-4.55004
 20
-8.52081
 30
0.0
 10
-4.55004
 20
-8.52081
 30
0.0
 10
-4.55004
 20
-8.52081
 30
0.0
 10
-4.55004
 20
-9.24404
 30
0.0
 10
-4.55004
 20
-9.24404
 30
0.0
 10
-4.55004
 20
-9.24404
 30
0.0
 10
-4.4488
 20
-9.2464
 30
0.0
 10
-4.34743
 20
-9.2476
 30
0.0
 10
-4.24616
 20
-9.2476
 30
0.0
 10
-4.24616
 20
-9.2476
 30
0.0
 10
-4.16096
 20
-9.2476
 30
0.0
 10
-4.07554
 20
-9.24609
 30
0.0
 10
-3.99004
 20
-9.24318
 30
0.0
 10
-3.99004
 20
-9.24318
 30
0.0
 10
-3.99004
 20
-9.24318
 30
0.0
 10
-3.99004
 20
-8.52241
 30
0.0
 10
-3.99004
 20
-8.52241
 30
0.0
 10
-3.99004
 20
-8.52241
 30
0.0
 10
-3.99004
 20
-8.52241
 30
0.0
 10
-3.69004
 20
-8.52241
 30
0.0
 10
-3.69004
 20
-8.52241
 30
0.0
 10
-3.69004
 20
-8.52241
 30
0.0
 10
-3.69004
 20
-8.52241
 30
0.0
 10
-3.69004
 20
-9.22744
 30
0.0
 10
-3.69004
 20
-9.22744
 30
0.0
 10
-3.69004
 20
-9.22744
 30
0.0
 10
-3.50907
 20
-9.21471
 30
0.0
 10
-3.32858
 20
-9.19623
 30
0.0
 10
-3.15004
 20
-9.173
 30
0.0
 10
-3.15004
 20
-9.173
 30
0.0
 10
-3.15004
 20
-9.173
 30
0.0
 10
-3.15004
 20
-8.49418
 30
0.0
 10
-3.15004
 20
-8.49418
 30
0.0
 10
-3.15004
 20
-8.49418
 30
0.0
 10
-3.15004
 20
-8.49418
 30
0.0
 10
-2.85004
 20
-8.49418
 30
0.0
 10
-2.85004
 20
-8.49418
 30
0.0
 10
-2.85004
 20
-8.49418
 30
0.0
 10
-2.85004
 20
-8.49418
 30
0.0
 10
-2.85004
 20
-9.12933
 30
0.0
 10
-2.85004
 20
-9.12933
 30
0.0
 10
-2.85004
 20
-9.12933
 30
0.0
 10
-2.66301
 20
-9.09926
 30
0.0
 10
-2.47911
 20
-9.0644
 30
0.0
 10
-2.30004
 20
-9.02592
 30
0.0
 10
-2.30004
 20
-9.02592
 30
0.0
 10
-2.30004
 20
-9.02592
 30
0.0
 10
-2.30004
 20
-8.41202
 30
0.0
 10
-2.30004
 20
-8.41202
 30
0.0
 10
-2.30004
 20
-8.41202
 30
0.0
 10
-2.30004
 20
-8.41202
 30
0.0
 10
-2.00004
 20
-8.41202
 30
0.0
 10
-2.00004
 20
-8.41202
 30
0.0
 10
-2.00004
 20
-8.41202
 30
0.0
 10
-2.00004
 20
-8.41202
 30
0.0
 10
-2.00004
 20
-8.95711
 30
0.0
 10
-2.00004
 20
-8.95711
 30
0.0
 10
-2.00004
 20
-8.95711
 30
0.0
 10
-1.82332
 20
-8.91399
 30
0.0
 10
-1.65271
 20
-8.86777
 30
0.0
 10
-1.49004
 20
-8.81968
 30
0.0
 10
-1.49004
 20
-8.81968
 30
0.0
 10
-1.49004
 20
-8.81968
 30
0.0
 10
-1.49004
 20
-8.30896
 30
0.0
 10
-1.49004
 20
-8.30896
 30
0.0
 10
-1.49004
 20
-8.30896
 30
0.0
 10
-1.49004
 20
-8.30896
 30
0.0
 10
-1.19004
 20
-8.30896
 30
0.0
 10
-1.19004
 20
-8.30896
 30
0.0
 10
-1.19004
 20
-8.30896
 30
0.0
 10
-1.19004
 20
-8.30896
 30
0.0
 10
-1.19004
 20
-8.72606
 30
0.0
 10
-1.19004
 20
-8.72606
 30
0.0
 10
-1.19004
 20
-8.72606
 30
0.0
 10
-0.99744
 20
-8.66267
 30
0.0
 10
-0.81951
 20
-8.5975
 30
0.0
 10
-0.66004
 20
-8.53308
 30
0.0
 10
-0.66004
 20
-8.53308
 30
0.0
 10
-0.66004
 20
-8.53308
 30
0.0
 10
-0.66004
 20
-8.30286
 30
0.0
 10
-0.66004
 20
-8.30286
 30
0.0
 10
-0.66004
 20
-8.30286
 30
0.0
 10
-0.66004
 20
-8.30286
 30
0.0
 10
-0.36021
 20
-8.30286
 30
0.0
 10
-0.36021
 20
-8.30286
 30
0.0
 10
-0.36021
 20
-8.30286
 30
0.0
 10
-0.16144
 20
-8.20946
 30
0.0
 10
-0.01004
 20
-8.12156
 30
0.0
 10
0.08116
 20
-8.0476
 30
0.0
 10
0.08116
 20
-8.0476
 30
0.0
 10
0.08116
 20
-8.0476
 30
0.0
 10
-4.24463
 20
-8.0476
 30
0.0
 10
-4.24463
 20
-8.0476
 30
0.0
 10
-4.24463
 20
-8.0476
 30
0.0
 10
-4.24463
 20
-8.0476
 30
0.0
 10
-4.24463
 20
-7.7476
 30
0.0
 10
-4.24463
 20
-7.7476
 30
0.0
 10
-4.24463
 20
-7.7476
 30
0.0
 10
-4.24463
 20
-7.7476
 30
0.0
 10
0.08118
 20
-7.7476
 30
0.0
 10
0.08118
 20
-7.7476
 30
0.0
  0
SPLINE
  5
AE
330
1F
100
AcDbEntity
  8
Camada 1
 62
   250
370
    20
100
AcDbSpline
210
0.0
220
0.0
230
1.0
 70
    11
 71
     3
 72
   208
 73
   204
 74
     0
 42
0.0000000001
 43
0.0000000001
 40
0.0
 40
0.0
 40
0.0
 40
0.0
 40
0.0192307692307692
 40
0.0192307692307692
 40
0.0192307692307692
 40
0.0192307692307692
 40
0.0384615384615385
 40
0.0384615384615385
 40
0.0384615384615385
 40
0.0384615384615385
 40
0.0576923076923077
 40
0.0576923076923077
 40
0.0576923076923077
 40
0.0576923076923077
 40
0.0769230769230769
 40
0.0769230769230769
 40
0.0769230769230769
 40
0.0769230769230769
 40
0.0961538461538462
 40
0.0961538461538462
 40
0.0961538461538462
 40
0.0961538461538462
 40
0.1153846153846154
 40
0.1153846153846154
 40
0.1153846153846154
 40
0.1153846153846154
 40
0.1346153846153846
 40
0.1346153846153846
 40
0.1346153846153846
 40
0.1346153846153846
 40
0.1538461538461539
 40
0.1538461538461539
 40
0.1538461538461539
 40
0.1538461538461539
 40
0.1730769230769231
 40
0.1730769230769231
 40
0.1730769230769231
 40
0.1730769230769231
 40
0.1923076923076923
 40
0.1923076923076923
 40
0.1923076923076923
 40
0.1923076923076923
 40
0.2115384615384615
 40
0.2115384615384615
 40
0.2115384615384615
 40
0.2115384615384615
 40
0.2307692307692308
 40
0.2307692307692308
 40
0.2307692307692308
 40
0.2307692307692308
 40
0.25
 40
0.25
 40
0.25
 40
0.25
 40
0.2692307692307692
 40
0.2692307692307692
 40
0.2692307692307692
 40
0.2692307692307692
 40
0.2884615384615384
 40
0.2884615384615384
 40
0.2884615384615384
 40
0.2884615384615384
 40
0.3076923076923077
 40
0.3076923076923077
 40
0.3076923076923077
 40
0.3076923076923077
 40
0.3269230769230769
 40
0.3269230769230769
 40
0.3269230769230769
 40
0.3269230769230769
 40
0.3461538461538461
 40
0.3461538461538461
 40
0.3461538461538461
 40
0.3461538461538461
 40
0.3653846153846154
 40
0.3653846153846154
 40
0.3653846153846154
 40
0.3653846153846154
 40
0.3846153846153846
 40
0.3846153846153846
 40
0.3846153846153846
 40
0.3846153846153846
 40
0.4038461538461539
 40
0.4038461538461539
 40
0.4038461538461539
 40
0.4038461538461539
 40
0.4230769230769231
 40
0.4230769230769231
 40
0.4230769230769231
 40
0.4230769230769231
 40
0.4423076923076923
 40
0.4423076923076923
 40
0.4423076923076923
 40
0.4423076923076923
 40
0.4615384615384616
 40
0.4615384615384616
 40
0.4615384615384616
 40
0.4615384615384616
 40
0.4807692307692308
 40
0.4807692307692308
 40
0.4807692307692308
 40
0.4807692307692308
 40
0.5
 40
0.5
 40
0.5
 40
0.5
 40
0.5192307692307693
 40
0.5192307692307693
 40
0.5192307692307693
 40
0.5192307692307693
 40
0.5384615384615384
 40
0.5384615384615384
 40
0.5384615384615384
 40
0.5384615384615384
 40
0.5576923076923077
 40
0.5576923076923077
 40
0.5576923076923077
 40
0.5576923076923077
 40
0.5769230769230769
 40
0.5769230769230769
 40
0.5769230769230769
 40
0.5769230769230769
 40
0.5961538461538461
 40
0.5961538461538461
 40
0.5961538461538461
 40
0.5961538461538461
 40
0.6153846153846154
 40
0.6153846153846154
 40
0.6153846153846154
 40
0.6153846153846154
 40
0.6346153846153846
 40
0.6346153846153846
 40
0.6346153846153846
 40
0.6346153846153846
 40
0.6538461538461539
 40
0.6538461538461539
 40
0.6538461538461539
 40
0.6538461538461539
 40
0.6730769230769231
 40
0.6730769230769231
 40
0.6730769230769231
 40
0.6730769230769231
 40
0.6923076923076923
 40
0.6923076923076923
 40
0.6923076923076923
 40
0.6923076923076923
 40
0.7115384615384616
 40
0.7115384615384616
 40
0.7115384615384616
 40
0.7115384615384616
 40
0.7307692307692307
 40
0.7307692307692307
 40
0.7307692307692307
 40
0.7307692307692307
 40
0.75
 40
0.75
 40
0.75
 40
0.75
 40
0.7692307692307693
 40
0.7692307692307693
 40
0.7692307692307693
 40
0.7692307692307693
 40
0.7884615384615384
 40
0.7884615384615384
 40
0.7884615384615384
 40
0.7884615384615384
 40
0.8076923076923077
 40
0.8076923076923077
 40
0.8076923076923077
 40
0.8076923076923077
 40
0.8269230769230769
 40
0.8269230769230769
 40
0.8269230769230769
 40
0.8269230769230769
 40
0.8461538461538461
 40
0.8461538461538461
 40
0.8461538461538461
 40
0.8461538461538461
 40
0.8653846153846154
 40
0.8653846153846154
 40
0.8653846153846154
 40
0.8653846153846154
 40
0.8846153846153846
 40
0.8846153846153846
 40
0.8846153846153846
 40
0.8846153846153846
 40
0.9038461538461539
 40
0.9038461538461539
 40
0.9038461538461539
 40
0.9038461538461539
 40
0.9230769230769231
 40
0.9230769230769231
 40
0.9230769230769231
 40
0.9230769230769231
 40
0.9423076923076923
 40
0.9423076923076923
 40
0.9423076923076923
 40
0.9423076923076923
 40
0.9615384615384616
 40
0.9615384615384616
 40
0.9615384615384616
 40
0.9615384615384616
 40
1.0
 40
1.0
 40
1.0
 40
1.0
 10
-1.44793
 20
-10.51949
 30
0.0
 10
-1.53097
 20
-10.45072
 30
0.0
 10
-1.60433
 20
-10.36986
 30
0.0
 10
-1.77154
 20
-10.28582
 30
0.0
 10
-1.77154
 20
-10.28582
 30
0.0
 10
-1.77154
 20
-10.28582
 30
0.0
 10
-2.07145
 20
-10.28582
 30
0.0
 10
-2.07145
 20
-10.28582
 30
0.0
 10
-2.07145
 20
-10.28582
 30
0.0
 10
-2.07145
 20
-10.28582
 30
0.0
 10
-2.07145
 20
-10.14869
 30
0.0
 10
-2.07145
 20
-10.14869
 30
0.0
 10
-2.07145
 20
-10.14869
 30
0.0
 10
-2.22576
 20
-10.08416
 30
0.0
 10
-2.39745
 20
-9.92058
 30
0.0
 10
-2.58145
 20
-9.86188
 30
0.0
 10
-2.58145
 20
-9.86188
 30
0.0
 10
-2.58145
 20
-9.86188
 30
0.0
 10
-2.58145
 20
-10.27144
 30
0.0
 10
-2.58145
 20
-10.27144
 30
0.0
 10
-2.58145
 20
-10.27144
 30
0.0
 10
-2.58145
 20
-10.27144
 30
0.0
 10
-2.88145
 20
-10.27144
 30
0.0
 10
-2.88145
 20
-10.27144
 30
0.0
 10
-2.88145
 20
-10.27144
 30
0.0
 10
-2.88145
 20
-10.27144
 30
0.0
 10
-2.88145
 20
-9.77379
 30
0.0
 10
-2.88145
 20
-9.77379
 30
0.0
 10
-2.88145
 20
-9.77379
 30
0.0
 10
-3.05816
 20
-9.72636
 30
0.0
 10
-3.24276
 20
-9.68459
 30
0.0
 10
-3.43145
 20
-9.65139
 30
0.0
 10
-3.43145
 20
-9.65139
 30
0.0
 10
-3.43145
 20
-9.65139
 30
0.0
 10
-3.43145
 20
-10.18792
 30
0.0
 10
-3.43145
 20
-10.18792
 30
0.0
 10
-3.43145
 20
-10.18792
 30
0.0
 10
-3.43145
 20
-10.18792
 30
0.0
 10
-3.73145
 20
-10.18792
 30
0.0
 10
-3.73145
 20
-10.18792
 30
0.0
 10
-3.73145
 20
-10.18792
 30
0.0
 10
-3.73145
 20
-10.18792
 30
0.0
 10
-3.73145
 20
-9.60664
 30
0.0
 10
-3.73145
 20
-9.60664
 30
0.0
 10
-3.73145
 20
-9.60664
 30
0.0
 10
-3.9106
 20
-9.58478
 30
0.0
 10
-4.09161
 20
-9.57169
 30
0.0
 10
-4.27145
 20
-9.5698
 30
0.0
 10
-4.27145
 20
-9.5698
 30
0.0
 10
-4.27145
 20
-9.5698
 30
0.0
 10
-4.27145
 20
-10.16949
 30
0.0
 10
-4.27145
 20
-10.16949
 30
0.0
 10
-4.27145
 20
-10.16949
 30
0.0
 10
-4.27145
 20
-10.16949
 30
0.0
 10
-4.57145
 20
-10.16949
 30
0.0
 10
-4.57145
 20
-10.16949
 30
0.0
 10
-4.57145
 20
-10.16949
 30
0.0
 10
-4.57145
 20
-10.16949
 30
0.0
 10
-4.57145
 20
-9.57375
 30
0.0
 10
-4.57145
 20
-9.57375
 30
0.0
 10
-4.57145
 20
-9.57375
 30
0.0
 10
-4.76006
 20
-9.58002
 30
0.0
 10
-4.94777
 20
-9.59311
 30
0.0
 10
-5.13145
 20
-9.61232
 30
0.0
 10
-5.13145
 20
-9.61232
 30
0.0
 10
-5.13145
 20
-9.61232
 30
0.0
 10
-5.13145
 20
-10.19094
 30
0.0
 10
-5.13145
 20
-10.19094
 30
0.0
 10
-5.13145
 20
-10.19094
 30
0.0
 10
-5.13145
 20
-10.19094
 30
0.0
 10
-5.43145
 20
-10.19094
 30
0.0
 10
-5.43145
 20
-10.19094
 30
0.0
 10
-5.43145
 20
-10.19094
 30
0.0
 10
-5.43145
 20
-10.19094
 30
0.0
 10
-5.43145
 20
-9.64962
 30
0.0
 10
-5.43145
 20
-9.64962
 30
0.0
 10
-5.43145
 20
-9.64962
 30
0.0
 10
-5.62269
 20
-9.67725
 30
0.0
 10
-5.80731
 20
-9.71149
 30
0.0
 10
-5.98145
 20
-9.75149
 30
0.0
 10
-5.98145
 20
-9.75149
 30
0.0
 10
-5.98145
 20
-9.75149
 30
0.0
 10
-5.98145
 20
-10.26022
 30
0.0
 10
-5.98145
 20
-10.26022
 30
0.0
 10
-5.98145
 20
-10.26022
 30
0.0
 10
-5.98145
 20
-10.26022
 30
0.0
 10
-6.28145
 20
-10.26022
 30
0.0
 10
-6.28145
 20
-10.26022
 30
0.0
 10
-6.28145
 20
-10.26022
 30
0.0
 10
-6.28145
 20
-10.26022
 30
0.0
 10
-6.28145
 20
-9.8291
 30
0.0
 10
-6.28145
 20
-9.8291
 30
0.0
 10
-6.28145
 20
-9.8291
 30
0.0
 10
-6.91081
 20
-10.01204
 30
0.0
 10
-7.62365
 20
-10.376
 30
0.0
 10
-7.62365
 20
-10.66949
 30
0.0
 10
-7.62365
 20
-10.66949
 30
0.0
 10
-7.62365
 20
-10.96298
 30
0.0
 10
-6.91081
 20
-11.32695
 30
0.0
 10
-6.28145
 20
-11.50988
 30
0.0
 10
-6.28145
 20
-11.50988
 30
0.0
 10
-6.28145
 20
-11.50988
 30
0.0
 10
-6.28145
 20
-11.07906
 30
0.0
 10
-6.28145
 20
-11.07906
 30
0.0
 10
-6.28145
 20
-11.07906
 30
0.0
 10
-6.28145
 20
-11.07906
 30
0.0
 10
-5.98145
 20
-11.07906
 30
0.0
 10
-5.98145
 20
-11.07906
 30
0.0
 10
-5.98145
 20
-11.07906
 30
0.0
 10
-5.98145
 20
-11.07906
 30
0.0
 10
-5.98145
 20
-11.5875
 30
0.0
 10
-5.98145
 20
-11.5875
 30
0.0
 10
-5.98145
 20
-11.5875
 30
0.0
 10
-5.80731
 20
-11.6275
 30
0.0
 10
-5.62269
 20
-11.66173
 30
0.0
 10
-5.43145
 20
-11.68936
 30
0.0
 10
-5.43145
 20
-11.68936
 30
0.0
 10
-5.43145
 20
-11.68936
 30
0.0
 10
-5.43145
 20
-11.14834
 30
0.0
 10
-5.43145
 20
-11.14834
 30
0.0
 10
-5.43145
 20
-11.14834
 30
0.0
 10
-5.43145
 20
-11.14834
 30
0.0
 10
-5.13145
 20
-11.14834
 30
0.0
 10
-5.13145
 20
-11.14834
 30
0.0
 10
-5.13145
 20
-11.14834
 30
0.0
 10
-5.13145
 20
-11.14834
 30
0.0
 10
-5.13145
 20
-11.72666
 30
0.0
 10
-5.13145
 20
-11.72666
 30
0.0
 10
-5.13145
 20
-11.72666
 30
0.0
 10
-4.94777
 20
-11.74586
 30
0.0
 10
-4.76006
 20
-11.75894
 30
0.0
 10
-4.57145
 20
-11.76522
 30
0.0
 10
-4.57145
 20
-11.76522
 30
0.0
 10
-4.57145
 20
-11.76522
 30
0.0
 10
-4.57145
 20
-11.16979
 30
0.0
 10
-4.57145
 20
-11.16979
 30
0.0
 10
-4.57145
 20
-11.16979
 30
0.0
 10
-4.57145
 20
-11.16979
 30
0.0
 10
-4.27145
 20
-11.16979
 30
0.0
 10
-4.27145
 20
-11.16979
 30
0.0
 10
-4.27145
 20
-11.16979
 30
0.0
 10
-4.27145
 20
-11.16979
 30
0.0
 10
-4.27145
 20
-11.76918
 30
0.0
 10
-4.27145
 20
-11.76918
 30
0.0
 10
-4.27145
 20
-11.76918
 30
0.0
 10
-4.09161
 20
-11.76729
 30
0.0
 10
-3.9106
 20
-11.7542
 30
0.0
 10
-3.73145
 20
-11.73234
 30
0.0
 10
-3.73145
 20
-11.73234
 30
0.0
 10
-3.73145
 20
-11.73234
 30
0.0
 10
-3.73145
 20
-11.15136
 30
0.0
 10
-3.73145
 20
-11.15136
 30
0.0
 10
-3.73145
 20
-11.15136
 30
0.0
 10
-3.73145
 20
-11.15136
 30
0.0
 10
-3.43145
 20
-11.15136
 30
0.0
 10
-3.43145
 20
-11.15136
 30
0.0
 10
-3.43145
 20
-11.15136
 30
0.0
 10
-3.43145
 20
-11.15136
 30
0.0
 10
-3.43145
 20
-11.68759
 30
0.0
 10
-3.43145
 20
-11.68759
 30
0.0
 10
-3.43145
 20
-11.68759
 30
0.0
 10
-3.24276
 20
-11.6544
 30
0.0
 10
-3.05816
 20
-11.61264
 30
0.0
 10
-2.88145
 20
-11.5652
 30
0.0
 10
-2.88145
 20
-11.5652
 30
0.0
 10
-2.88145
 20
-11.5652
 30
0.0
 10
-2.88145
 20
-11.06784
 30
0.0
 10
-2.88145
 20
-11.06784
 30
0.0
 10
-2.88145
 20
-11.06784
 30
0.0
 10
-2.88145
 20
-11.06784
 30
0.0
 10
-2.58145
 20
-11.06784
 30
0.0
 10
-2.58145
 20
-11.06784
 30
0.0
 10
-2.58145
 20
-11.06784
 30
0.0
 10
-2.58145
 20
-11.06784
 30
0.0
 10
-2.58145
 20
-11.4771
 30
0.0
 10
-2.58145
 20
-11.4771
 30
0.0
 10
-2.58145
 20
-11.4771
 30
0.0
 10
-2.39745
 20
-11.41839
 30
0.0
 10
-2.22577
 20
-11.35481
 30
0.0
 10
-2.07145
 20
-11.29029
 30
0.0
 10
-2.07145
 20
-11.29029
 30
0.0
 10
-2.07145
 20
-11.29029
 30
0.0
 10
-2.07145
 20
-11.05346
 30
0.0
 10
-2.07145
 20
-11.05346
 30
0.0
 10
-2.07145
 20
-11.05346
 30
0.0
 10
-2.07145
 20
-11.05346
 30
0.0
 10
-1.77213
 20
-11.05346
 30
0.0
 10
-1.77213
 20
-11.05346
 30
0.0
 10
-1.77213
 20
-11.05346
 30
0.0
 10
-1.60465
 20
-10.96931
 30
0.0
 10
-1.53107
 20
-10.88834
 30
0.0
 10
-1.44793
 20
-10.81949
 30
0.0
 10
-1.44793
 20
-10.81949
 30
0.0
 10
-1.44793
 20
-10.81949
 30
0.0
 10
-4.37325
 20
-10.81949
 30
0.0
 10
-4.37325
 20
-10.81949
 30
0.0
 10
-4.37325
 20
-10.81949
 30
0.0
 10
-4.37325
 20
-10.81949
 30
0.0
 10
-4.37325
 20
-10.51949
 30
0.0
 10
-4.37325
 20
-10.51949
 30
0.0
 10
-4.37325
 20
-10.51949
 30
0.0
 10
-4.37325
 20
-10.51949
 30
0.0
 10
-1.44793
 20
-10.51949
 30
0.0
 10
-1.44793
 20
-10.51949
 30
0.0
  0
SPLINE
  5
AF
330
1F
100
AcDbEntity
  8
Camada 1
 62
   250
370
    20
100
AcDbSpline
210
0.0
220
0.0
230
1.0
 70
    11
 71
     3
 72
   208
 73
   204
 74
     0
 42
0.0000000001
 43
0.0000000001
 40
0.0
 40
0.0
 40
0.0
 40
0.0
 40
0.0192307692307692
 40
0.0192307692307692
 40
0.0192307692307692
 40
0.0192307692307692
 40
0.0384615384615385
 40
0.0384615384615385
 40
0.0384615384615385
 40
0.0384615384615385
 40
0.0576923076923077
 40
0.0576923076923077
 40
0.0576923076923077
 40
0.0576923076923077
 40
0.0769230769230769
 40
0.0769230769230769
 40
0.0769230769230769
 40
0.0769230769230769
 40
0.0961538461538462
 40
0.0961538461538462
 40
0.0961538461538462
 40
0.0961538461538462
 40
0.1153846153846154
 40
0.1153846153846154
 40
0.1153846153846154
 40
0.1153846153846154
 40
0.1346153846153846
 40
0.1346153846153846
 40
0.1346153846153846
 40
0.1346153846153846
 40
0.1538461538461539
 40
0.1538461538461539
 40
0.1538461538461539
 40
0.1538461538461539
 40
0.1730769230769231
 40
0.1730769230769231
 40
0.1730769230769231
 40
0.1730769230769231
 40
0.1923076923076923
 40
0.1923076923076923
 40
0.1923076923076923
 40
0.1923076923076923
 40
0.2115384615384615
 40
0.2115384615384615
 40
0.2115384615384615
 40
0.2115384615384615
 40
0.2307692307692308
 40
0.2307692307692308
 40
0.2307692307692308
 40
0.2307692307692308
 40
0.25
 40
0.25
 40
0.25
 40
0.25
 40
0.2692307692307692
 40
0.2692307692307692
 40
0.2692307692307692
 40
0.2692307692307692
 40
0.2884615384615384
 40
0.2884615384615384
 40
0.2884615384615384
 40
0.2884615384615384
 40
0.3076923076923077
 40
0.3076923076923077
 40
0.3076923076923077
 40
0.3076923076923077
 40
0.3269230769230769
 40
0.3269230769230769
 40
0.3269230769230769
 40
0.3269230769230769
 40
0.3461538461538461
 40
0.3461538461538461
 40
0.3461538461538461
 40
0.3461538461538461
 40
0.3653846153846154
 40
0.3653846153846154
 40
0.3653846153846154
 40
0.3653846153846154
 40
0.3846153846153846
 40
0.3846153846153846
 40
0.3846153846153846
 40
0.3846153846153846
 40
0.4038461538461539
 40
0.4038461538461539
 40
0.4038461538461539
 40
0.4038461538461539
 40
0.4230769230769231
 40
0.4230769230769231
 40
0.4230769230769231
 40
0.4230769230769231
 40
0.4423076923076923
 40
0.4423076923076923
 40
0.4423076923076923
 40
0.4423076923076923
 40
0.4615384615384616
 40
0.4615384615384616
 40
0.4615384615384616
 40
0.4615384615384616
 40
0.4807692307692308
 40
0.4807692307692308
 40
0.4807692307692308
 40
0.4807692307692308
 40
0.5
 40
0.5
 40
0.5
 40
0.5
 40
0.5192307692307693
 40
0.5192307692307693
 40
0.5192307692307693
 40
0.5192307692307693
 40
0.5384615384615384
 40
0.5384615384615384
 40
0.5384615384615384
 40
0.5384615384615384
 40
0.5576923076923077
 40
0.5576923076923077
 40
0.5576923076923077
 40
0.5576923076923077
 40
0.5769230769230769
 40
0.5769230769230769
 40
0.5769230769230769
 40
0.5769230769230769
 40
0.5961538461538461
 40
0.5961538461538461
 40
0.5961538461538461
 40
0.5961538461538461
 40
0.6153846153846154
 40
0.6153846153846154
 40
0.6153846153846154
 40
0.6153846153846154
 40
0.6346153846153846
 40
0.6346153846153846
 40
0.6346153846153846
 40
0.6346153846153846
 40
0.6538461538461539
 40
0.6538461538461539
 40
0.6538461538461539
 40
0.6538461538461539
 40
0.6730769230769231
 40
0.6730769230769231
 40
0.6730769230769231
 40
0.6730769230769231
 40
0.6923076923076923
 40
0.6923076923076923
 40
0.6923076923076923
 40
0.6923076923076923
 40
0.7115384615384616
 40
0.7115384615384616
 40
0.7115384615384616
 40
0.7115384615384616
 40
0.7307692307692307
 40
0.7307692307692307
 40
0.7307692307692307
 40
0.7307692307692307
 40
0.75
 40
0.75
 40
0.75
 40
0.75
 40
0.7692307692307693
 40
0.7692307692307693
 40
0.7692307692307693
 40
0.7692307692307693
 40
0.7884615384615384
 40
0.7884615384615384
 40
0.7884615384615384
 40
0.7884615384615384
 40
0.8076923076923077
 40
0.8076923076923077
 40
0.8076923076923077
 40
0.8076923076923077
 40
0.8269230769230769
 40
0.8269230769230769
 40
0.8269230769230769
 40
0.8269230769230769
 40
0.8461538461538461
 40
0.8461538461538461
 40
0.8461538461538461
 40
0.8461538461538461
 40
0.8653846153846154
 40
0.8653846153846154
 40
0.8653846153846154
 40
0.8653846153846154
 40
0.8846153846153846
 40
0.8846153846153846
 40
0.8846153846153846
 40
0.8846153846153846
 40
0.9038461538461539
 40
0.9038461538461539
 40
0.9038461538461539
 40
0.9038461538461539
 40
0.9230769230769231
 40
0.9230769230769231
 40
0.9230769230769231
 40
0.9230769230769231
 40
0.9423076923076923
 40
0.9423076923076923
 40
0.9423076923076923
 40
0.9423076923076923
 40
0.9615384615384616
 40
0.9615384615384616
 40
0.9615384615384616
 40
0.9615384615384616
 40
1.0
 40
1.0
 40
1.0
 40
1.0
 10
-0.77727
 20
-4.23902
 30
0.0
 10
-0.86031
 20
-4.17025
 30
0.0
 10
-0.93367
 20
-4.08939
 30
0.0
 10
-1.10088
 20
-4.00535
 30
0.0
 10
-1.10088
 20
-4.00535
 30
0.0
 10
-1.10088
 20
-4.00535
 30
0.0
 10
-1.40079
 20
-4.00535
 30
0.0
 10
-1.40079
 20
-4.00535
 30
0.0
 10
-1.40079
 20
-4.00535
 30
0.0
 10
-1.40079
 20
-4.00535
 30
0.0
 10
-1.40079
 20
-3.86822
 30
0.0
 10
-1.40079
 20
-3.86822
 30
0.0
 10
-1.40079
 20
-3.86822
 30
0.0
 10
-1.5551
 20
-3.80369
 30
0.0
 10
-1.72679
 20
-3.64011
 30
0.0
 10
-1.91079
 20
-3.58141
 30
0.0
 10
-1.91079
 20
-3.58141
 30
0.0
 10
-1.91079
 20
-3.58141
 30
0.0
 10
-1.91079
 20
-3.99097
 30
0.0
 10
-1.91079
 20
-3.99097
 30
0.0
 10
-1.91079
 20
-3.99097
 30
0.0
 10
-1.91079
 20
-3.99097
 30
0.0
 10
-2.21079
 20
-3.99097
 30
0.0
 10
-2.21079
 20
-3.99097
 30
0.0
 10
-2.21079
 20
-3.99097
 30
0.0
 10
-2.21079
 20
-3.99097
 30
0.0
 10
-2.21079
 20
-3.49332
 30
0.0
 10
-2.21079
 20
-3.49332
 30
0.0
 10
-2.21079
 20
-3.49332
 30
0.0
 10
-2.3875
 20
-3.44589
 30
0.0
 10
-2.5721
 20
-3.40412
 30
0.0
 10
-2.76079
 20
-3.37092
 30
0.0
 10
-2.76079
 20
-3.37092
 30
0.0
 10
-2.76079
 20
-3.37092
 30
0.0
 10
-2.76079
 20
-3.90745
 30
0.0
 10
-2.76079
 20
-3.90745
 30
0.0
 10
-2.76079
 20
-3.90745
 30
0.0
 10
-2.76079
 20
-3.90745
 30
0.0
 10
-3.06079
 20
-3.90745
 30
0.0
 10
-3.06079
 20
-3.90745
 30
0.0
 10
-3.06079
 20
-3.90745
 30
0.0
 10
-3.06079
 20
-3.90745
 30
0.0
 10
-3.06079
 20
-3.32617
 30
0.0
 10
-3.06079
 20
-3.32617
 30
0.0
 10
-3.06079
 20
-3.32617
 30
0.0
 10
-3.23994
 20
-3.30431
 30
0.0
 10
-3.42095
 20
-3.29122
 30
0.0
 10
-3.60079
 20
-3.28933
 30
0.0
 10
-3.60079
 20
-3.28933
 30
0.0
 10
-3.60079
 20
-3.28933
 30
0.0
 10
-3.60079
 20
-3.88902
 30
0.0
 10
-3.60079
 20
-3.88902
 30
0.0
 10
-3.60079
 20
-3.88902
 30
0.0
 10
-3.60079
 20
-3.88902
 30
0.0
 10
-3.90079
 20
-3.88902
 30
0.0
 10
-3.90079
 20
-3.88902
 30
0.0
 10
-3.90079
 20
-3.88902
 30
0.0
 10
-3.90079
 20
-3.88902
 30
0.0
 10
-3.90079
 20
-3.29328
 30
0.0
 10
-3.90079
 20
-3.29328
 30
0.0
 10
-3.90079
 20
-3.29328
 30
0.0
 10
-4.0894
 20
-3.29955
 30
0.0
 10
-4.27711
 20
-3.31264
 30
0.0
 10
-4.46079
 20
-3.33185
 30
0.0
 10
-4.46079
 20
-3.33185
 30
0.0
 10
-4.46079
 20
-3.33185
 30
0.0
 10
-4.46079
 20
-3.91047
 30
0.0
 10
-4.46079
 20
-3.91047
 30
0.0
 10
-4.46079
 20
-3.91047
 30
0.0
 10
-4.46079
 20
-3.91047
 30
0.0
 10
-4.76079
 20
-3.91047
 30
0.0
 10
-4.76079
 20
-3.91047
 30
0.0
 10
-4.76079
 20
-3.91047
 30
0.0
 10
-4.76079
 20
-3.91047
 30
0.0
 10
-4.76079
 20
-3.36915
 30
0.0
 10
-4.76079
 20
-3.36915
 30
0.0
 10
-4.76079
 20
-3.36915
 30
0.0
 10
-4.95203
 20
-3.39678
 30
0.0
 10
-5.13665
 20
-3.43102
 30
0.0
 10
-5.31079
 20
-3.47102
 30
0.0
 10
-5.31079
 20
-3.47102
 30
0.0
 10
-5.31079
 20
-3.47102
 30
0.0
 10
-5.31079
 20
-3.97975
 30
0.0
 10
-5.31079
 20
-3.97975
 30
0.0
 10
-5.31079
 20
-3.97975
 30
0.0
 10
-5.31079
 20
-3.97975
 30
0.0
 10
-5.61079
 20
-3.97975
 30
0.0
 10
-5.61079
 20
-3.97975
 30
0.0
 10
-5.61079
 20
-3.97975
 30
0.0
 10
-5.61079
 20
-3.97975
 30
0.0
 10
-5.61079
 20
-3.54863
 30
0.0
 10
-5.61079
 20
-3.54863
 30
0.0
 10
-5.61079
 20
-3.54863
 30
0.0
 10
-6.24015
 20
-3.73157
 30
0.0
 10
-6.95299
 20
-4.09553
 30
0.0
 10
-6.95299
 20
-4.38902
 30
0.0
 10
-6.95299
 20
-4.38902
 30
0.0
 10
-6.95299
 20
-4.68251
 30
0.0
 10
-6.24015
 20
-5.04648
 30
0.0
 10
-5.61079
 20
-5.22941
 30
0.0
 10
-5.61079
 20
-5.22941
 30
0.0
 10
-5.61079
 20
-5.22941
 30
0.0
 10
-5.61079
 20
-4.79859
 30
0.0
 10
-5.61079
 20
-4.79859
 30
0.0
 10
-5.61079
 20
-4.79859
 30
0.0
 10
-5.61079
 20
-4.79859
 30
0.0
 10
-5.31079
 20
-4.79859
 30
0.0
 10
-5.31079
 20
-4.79859
 30
0.0
 10
-5.31079
 20
-4.79859
 30
0.0
 10
-5.31079
 20
-4.79859
 30
0.0
 10
-5.31079
 20
-5.30703
 30
0.0
 10
-5.31079
 20
-5.30703
 30
0.0
 10
-5.31079
 20
-5.30703
 30
0.0
 10
-5.13665
 20
-5.34703
 30
0.0
 10
-4.95203
 20
-5.38126
 30
0.0
 10
-4.76079
 20
-5.40889
 30
0.0
 10
-4.76079
 20
-5.40889
 30
0.0
 10
-4.76079
 20
-5.40889
 30
0.0
 10
-4.76079
 20
-4.86787
 30
0.0
 10
-4.76079
 20
-4.86787
 30
0.0
 10
-4.76079
 20
-4.86787
 30
0.0
 10
-4.76079
 20
-4.86787
 30
0.0
 10
-4.46079
 20
-4.86787
 30
0.0
 10
-4.46079
 20
-4.86787
 30
0.0
 10
-4.46079
 20
-4.86787
 30
0.0
 10
-4.46079
 20
-4.86787
 30
0.0
 10
-4.46079
 20
-5.44619
 30
0.0
 10
-4.46079
 20
-5.44619
 30
0.0
 10
-4.46079
 20
-5.44619
 30
0.0
 10
-4.27711
 20
-5.46539
 30
0.0
 10
-4.0894
 20
-5.47847
 30
0.0
 10
-3.90079
 20
-5.48475
 30
0.0
 10
-3.90079
 20
-5.48475
 30
0.0
 10
-3.90079
 20
-5.48475
 30
0.0
 10
-3.90079
 20
-4.88932
 30
0.0
 10
-3.90079
 20
-4.88932
 30
0.0
 10
-3.90079
 20
-4.88932
 30
0.0
 10
-3.90079
 20
-4.88932
 30
0.0
 10
-3.60079
 20
-4.88932
 30
0.0
 10
-3.60079
 20
-4.88932
 30
0.0
 10
-3.60079
 20
-4.88932
 30
0.0
 10
-3.60079
 20
-4.88932
 30
0.0
 10
-3.60079
 20
-5.48871
 30
0.0
 10
-3.60079
 20
-5.48871
 30
0.0
 10
-3.60079
 20
-5.48871
 30
0.0
 10
-3.42095
 20
-5.48682
 30
0.0
 10
-3.23994
 20
-5.47373
 30
0.0
 10
-3.06079
 20
-5.45187
 30
0.0
 10
-3.06079
 20
-5.45187
 30
0.0
 10
-3.06079
 20
-5.45187
 30
0.0
 10
-3.06079
 20
-4.87089
 30
0.0
 10
-3.06079
 20
-4.87089
 30
0.0
 10
-3.06079
 20
-4.87089
 30
0.0
 10
-3.06079
 20
-4.87089
 30
0.0
 10
-2.76079
 20
-4.87089
 30
0.0
 10
-2.76079
 20
-4.87089
 30
0.0
 10
-2.76079
 20
-4.87089
 30
0.0
 10
-2.76079
 20
-4.87089
 30
0.0
 10
-2.76079
 20
-5.40712
 30
0.0
 10
-2.76079
 20
-5.40712
 30
0.0
 10
-2.76079
 20
-5.40712
 30
0.0
 10
-2.5721
 20
-5.37393
 30
0.0
 10
-2.3875
 20
-5.33217
 30
0.0
 10
-2.21079
 20
-5.28473
 30
0.0
 10
-2.21079
 20
-5.28473
 30
0.0
 10
-2.21079
 20
-5.28473
 30
0.0
 10
-2.21079
 20
-4.78737
 30
0.0
 10
-2.21079
 20
-4.78737
 30
0.0
 10
-2.21079
 20
-4.78737
 30
0.0
 10
-2.21079
 20
-4.78737
 30
0.0
 10
-1.91079
 20
-4.78737
 30
0.0
 10
-1.91079
 20
-4.78737
 30
0.0
 10
-1.91079
 20
-4.78737
 30
0.0
 10
-1.91079
 20
-4.78737
 30
0.0
 10
-1.91079
 20
-5.19663
 30
0.0
 10
-1.91079
 20
-5.19663
 30
0.0
 10
-1.91079
 20
-5.19663
 30
0.0
 10
-1.72679
 20
-5.13792
 30
0.0
 10
-1.55511
 20
-5.07434
 30
0.0
 10
-1.40079
 20
-5.00982
 30
0.0
 10
-1.40079
 20
-5.00982
 30
0.0
 10
-1.40079
 20
-5.00982
 30
0.0
 10
-1.40079
 20
-4.77299
 30
0.0
 10
-1.40079
 20
-4.77299
 30
0.0
 10
-1.40079
 20
-4.77299
 30
0.0
 10
-1.40079
 20
-4.77299
 30
0.0
 10
-1.10147
 20
-4.77299
 30
0.0
 10
-1.10147
 20
-4.77299
 30
0.0
 10
-1.10147
 20
-4.77299
 30
0.0
 10
-0.93399
 20
-4.68884
 30
0.0
 10
-0.86041
 20
-4.60787
 30
0.0
 10
-0.77727
 20
-4.53902
 30
0.0
 10
-0.77727
 20
-4.53902
 30
0.0
 10
-0.77727
 20
-4.53902
 30
0.0
 10
-3.70259
 20
-4.53902
 30
0.0
 10
-3.70259
 20
-4.53902
 30
0.0
 10
-3.70259
 20
-4.53902
 30
0.0
 10
-3.70259
 20
-4.53902
 30
0.0
 10
-3.70259
 20
-4.23902
 30
0.0
 10
-3.70259
 20
-4.23902
 30
0.0
 10
-3.70259
 20
-4.23902
 30
0.0
 10
-3.70259
 20
-4.23902
 30
0.0
 10
-0.77727
 20
-4.23902
 30
0.0
 10
-0.77727
 20
-4.23902
 30
0.0
  0
SPLINE
  5
B0
330
1F
100
AcDbEntity
  8
Camada 1
 62
   250
370
    20
100
AcDbSpline
210
0.0
220
0.0
230
1.0
 70
    11
 71
     3
 72
   104
 73
   100
 74
     0
 42
0.0000000001
 43
0.0000000001
 40
0.0
 40
0.0
 40
0.0
 40
0.0
 40
0.0384615384615385
 40
0.0384615384615385
 40
0.0384615384615385
 40
0.0384615384615385
 40
0.0769230769230769
 40
0.0769230769230769
 40
0.0769230769230769
 40
0.0769230769230769
 40
0.1153846153846154
 40
0.1153846153846154
 40
0.1153846153846154
 40
0.1153846153846154
 40
0.1538461538461539
 40
0.1538461538461539
 40
0.1538461538461539
 40
0.1538461538461539
 40
0.1923076923076923
 40
0.1923076923076923
 40
0.1923076923076923
 40
0.1923076923076923
 40
0.2307692307692308
 40
0.2307692307692308
 40
0.2307692307692308
 40
0.2307692307692308
 40
0.2692307692307692
 40
0.2692307692307692
 40
0.2692307692307692
 40
0.2692307692307692
 40
0.3076923076923077
 40
0.3076923076923077
 40
0.3076923076923077
 40
0.3076923076923077
 40
0.3461538461538461
 40
0.3461538461538461
 40
0.3461538461538461
 40
0.3461538461538461
 40
0.3846153846153846
 40
0.3846153846153846
 40
0.3846153846153846
 40
0.3846153846153846
 40
0.4230769230769231
 40
0.4230769230769231
 40
0.4230769230769231
 40
0.4230769230769231
 40
0.4615384615384616
 40
0.4615384615384616
 40
0.4615384615384616
 40
0.4615384615384616
 40
0.5
 40
0.5
 40
0.5
 40
0.5
 40
0.5384615384615384
 40
0.5384615384615384
 40
0.5384615384615384
 40
0.5384615384615384
 40
0.5769230769230769
 40
0.5769230769230769
 40
0.5769230769230769
 40
0.5769230769230769
 40
0.6153846153846154
 40
0.6153846153846154
 40
0.6153846153846154
 40
0.6153846153846154
 40
0.6538461538461539
 40
0.6538461538461539
 40
0.6538461538461539
 40
0.6538461538461539
 40
0.6923076923076923
 40
0.6923076923076923
 40
0.6923076923076923
 40
0.6923076923076923
 40
0.7307692307692307
 40
0.7307692307692307
 40
0.7307692307692307
 40
0.7307692307692307
 40
0.7692307692307693
 40
0.7692307692307693
 40
0.7692307692307693
 40
0.7692307692307693
 40
0.8076923076923077
 40
0.8076923076923077
 40
0.8076923076923077
 40
0.8076923076923077
 40
0.8461538461538461
 40
0.8461538461538461
 40
0.8461538461538461
 40
0.8461538461538461
 40
0.8846153846153846
 40
0.8846153846153846
 40
0.8846153846153846
 40
0.8846153846153846
 40
0.9230769230769231
 40
0.9230769230769231
 40
0.9230769230769231
 40
0.9230769230769231
 40
1.0
 40
1.0
 40
1.0
 40
1.0
 10
-2.16391
 20
10.6164
 30
0.0
 10
-2.16391
 20
10.6164
 30
0.0
 10
-2.46391
 20
10.6164
 30
0.0
 10
-2.46391
 20
10.6164
 30
0.0
 10
-2.46391
 20
10.6164
 30
0.0
 10
-2.46391
 20
10.6164
 30
0.0
 10
-2.46391
 20
10.91665
 30
0.0
 10
-2.46391
 20
10.91665
 30
0.0
 10
-2.46391
 20
10.91665
 30
0.0
 10
-2.71974
 20
10.86709
 30
0.0
 10
-2.99157
 20
10.83806
 30
0.0
 10
-3.27336
 20
10.83806
 30
0.0
 10
-3.27336
 20
10.83806
 30
0.0
 10
-4.78591
 20
10.83806
 30
0.0
 10
-6.01207
 20
11.67398
 30
0.0
 10
-6.01207
 20
12.03507
 30
0.0
 10
-6.01207
 20
12.03507
 30
0.0
 10
-6.01207
 20
12.03507
 30
0.0
 10
-5.17082
 20
12.03507
 30
0.0
 10
-5.17082
 20
12.03507
 30
0.0
 10
-5.17082
 20
12.03507
 30
0.0
 10
-5.17082
 20
12.03507
 30
0.0
 10
-5.17082
 20
11.7755
 30
0.0
 10
-5.17082
 20
11.7755
 30
0.0
 10
-5.17082
 20
11.7755
 30
0.0
 10
-5.17082
 20
11.7755
 30
0.0
 10
-4.87082
 20
11.7755
 30
0.0
 10
-4.87082
 20
11.7755
 30
0.0
 10
-4.87082
 20
11.7755
 30
0.0
 10
-4.87082
 20
11.7755
 30
0.0
 10
-4.87082
 20
12.03507
 30
0.0
 10
-4.87082
 20
12.03507
 30
0.0
 10
-4.87082
 20
12.03507
 30
0.0
 10
-4.87082
 20
12.03507
 30
0.0
 10
-3.54823
 20
12.03507
 30
0.0
 10
-3.54823
 20
12.03507
 30
0.0
 10
-3.54823
 20
12.03507
 30
0.0
 10
-3.54823
 20
12.03507
 30
0.0
 10
-3.54823
 20
11.58386
 30
0.0
 10
-3.54823
 20
11.58386
 30
0.0
 10
-3.54823
 20
11.58386
 30
0.0
 10
-3.54823
 20
11.58386
 30
0.0
 10
-3.24823
 20
11.58386
 30
0.0
 10
-3.24823
 20
11.58386
 30
0.0
 10
-3.24823
 20
11.58386
 30
0.0
 10
-3.24823
 20
11.58386
 30
0.0
 10
-3.24823
 20
12.03507
 30
0.0
 10
-3.24823
 20
12.03507
 30
0.0
 10
-3.24823
 20
12.03507
 30
0.0
 10
-3.24823
 20
12.03507
 30
0.0
 10
-1.71082
 20
12.03506
 30
0.0
 10
-1.71082
 20
12.03506
 30
0.0
 10
-1.71082
 20
12.03506
 30
0.0
 10
-1.71082
 20
12.03506
 30
0.0
 10
-1.71082
 20
11.77551
 30
0.0
 10
-1.71082
 20
11.77551
 30
0.0
 10
-1.71082
 20
11.77551
 30
0.0
 10
-1.71082
 20
11.77551
 30
0.0
 10
-1.41082
 20
11.77551
 30
0.0
 10
-1.41082
 20
11.77551
 30
0.0
 10
-1.41082
 20
11.77551
 30
0.0
 10
-1.41082
 20
11.77551
 30
0.0
 10
-1.41082
 20
12.03506
 30
0.0
 10
-1.41082
 20
12.03506
 30
0.0
 10
-1.41082
 20
12.03506
 30
0.0
 10
-1.41082
 20
12.03506
 30
0.0
 10
-0.53467
 20
12.03506
 30
0.0
 10
-0.53467
 20
12.03506
 30
0.0
 10
-0.53467
 20
12.03506
 30
0.0
 10
-0.53467
 20
11.98994
 30
0.0
 10
-0.55391
 20
11.93738
 30
0.0
 10
-0.59037
 20
11.87999
 30
0.0
 10
-0.59037
 20
11.87999
 30
0.0
 10
-0.59037
 20
11.87999
 30
0.0
 10
-0.80846
 20
11.92529
 30
0.0
 10
-0.80846
 20
11.92529
 30
0.0
 10
-0.80846
 20
11.92529
 30
0.0
 10
-0.80846
 20
11.92529
 30
0.0
 10
-0.86947
 20
11.63156
 30
0.0
 10
-0.86947
 20
11.63156
 30
0.0
 10
-0.86947
 20
11.63156
 30
0.0
 10
-0.86947
 20
11.63156
 30
0.0
 10
-0.83237
 20
11.62385
 30
0.0
 10
-0.83237
 20
11.62385
 30
0.0
 10
-0.83237
 20
11.62385
 30
0.0
 10
-1.09141
 20
11.41153
 30
0.0
 10
-1.50424
 20
11.18508
 30
0.0
 10
-2.00941
 20
11.0301
 30
0.0
 10
-2.00941
 20
11.0301
 30
0.0
 10
-2.00941
 20
11.0301
 30
0.0
 10
-2.00941
 20
10.91662
 30
0.0
 10
-2.00941
 20
10.91662
 30
0.0
 10
-2.00941
 20
10.91662
 30
0.0
 10
-2.00941
 20
10.91662
 30
0.0
 10
-2.16391
 20
10.91662
 30
0.0
 10
-2.16391
 20
10.91662
 30
0.0
 10
-2.16391
 20
10.91662
 30
0.0
 10
-2.16391
 20
10.91662
 30
0.0
 10
-2.16391
 20
10.6164
 30
0.0
 10
-2.16391
 20
10.6164
 30
0.0
  0
SPLINE
  5
B1
330
1F
100
AcDbEntity
  8
Camada 1
 62
   250
370
    20
100
AcDbSpline
210
0.0
220
0.0
230
1.0
 70
    11
 71
     3
 72
   104
 73
   100
 74
     0
 42
0.0000000001
 43
0.0000000001
 40
0.0
 40
0.0
 40
0.0
 40
0.0
 40
0.0384615384615385
 40
0.0384615384615385
 40
0.0384615384615385
 40
0.0384615384615385
 40
0.0769230769230769
 40
0.0769230769230769
 40
0.0769230769230769
 40
0.0769230769230769
 40
0.1153846153846154
 40
0.1153846153846154
 40
0.1153846153846154
 40
0.1153846153846154
 40
0.1538461538461539
 40
0.1538461538461539
 40
0.1538461538461539
 40
0.1538461538461539
 40
0.1923076923076923
 40
0.1923076923076923
 40
0.1923076923076923
 40
0.1923076923076923
 40
0.2307692307692308
 40
0.2307692307692308
 40
0.2307692307692308
 40
0.2307692307692308
 40
0.2692307692307692
 40
0.2692307692307692
 40
0.2692307692307692
 40
0.2692307692307692
 40
0.3076923076923077
 40
0.3076923076923077
 40
0.3076923076923077
 40
0.3076923076923077
 40
0.3461538461538461
 40
0.3461538461538461
 40
0.3461538461538461
 40
0.3461538461538461
 40
0.3846153846153846
 40
0.3846153846153846
 40
0.3846153846153846
 40
0.3846153846153846
 40
0.4230769230769231
 40
0.4230769230769231
 40
0.4230769230769231
 40
0.4230769230769231
 40
0.4615384615384616
 40
0.4615384615384616
 40
0.4615384615384616
 40
0.4615384615384616
 40
0.5
 40
0.5
 40
0.5
 40
0.5
 40
0.5384615384615384
 40
0.5384615384615384
 40
0.5384615384615384
 40
0.5384615384615384
 40
0.5769230769230769
 40
0.5769230769230769
 40
0.5769230769230769
 40
0.5769230769230769
 40
0.6153846153846154
 40
0.6153846153846154
 40
0.6153846153846154
 40
0.6153846153846154
 40
0.6538461538461539
 40
0.6538461538461539
 40
0.6538461538461539
 40
0.6538461538461539
 40
0.6923076923076923
 40
0.6923076923076923
 40
0.6923076923076923
 40
0.6923076923076923
 40
0.7307692307692307
 40
0.7307692307692307
 40
0.7307692307692307
 40
0.7307692307692307
 40
0.7692307692307693
 40
0.7692307692307693
 40
0.7692307692307693
 40
0.7692307692307693
 40
0.8076923076923077
 40
0.8076923076923077
 40
0.8076923076923077
 40
0.8076923076923077
 40
0.8461538461538461
 40
0.8461538461538461
 40
0.8461538461538461
 40
0.8461538461538461
 40
0.8846153846153846
 40
0.8846153846153846
 40
0.8846153846153846
 40
0.8846153846153846
 40
0.9230769230769231
 40
0.9230769230769231
 40
0.9230769230769231
 40
0.9230769230769231
 40
1.0
 40
1.0
 40
1.0
 40
1.0
 10
-12.68145
 20
10.6164
 30
0.0
 10
-12.68145
 20
10.6164
 30
0.0
 10
-12.38145
 20
10.6164
 30
0.0
 10
-12.38145
 20
10.6164
 30
0.0
 10
-12.38145
 20
10.6164
 30
0.0
 10
-12.38145
 20
10.6164
 30
0.0
 10
-12.38145
 20
10.91665
 30
0.0
 10
-12.38145
 20
10.91665
 30
0.0
 10
-12.38145
 20
10.91665
 30
0.0
 10
-12.12562
 20
10.86709
 30
0.0
 10
-11.85379
 20
10.83806
 30
0.0
 10
-11.572
 20
10.83806
 30
0.0
 10
-11.572
 20
10.83806
 30
0.0
 10
-10.05945
 20
10.83806
 30
0.0
 10
-8.83329
 20
11.67398
 30
0.0
 10
-8.83329
 20
12.03507
 30
0.0
 10
-8.83329
 20
12.03507
 30
0.0
 10
-8.83329
 20
12.03507
 30
0.0
 10
-9.67454
 20
12.03507
 30
0.0
 10
-9.67454
 20
12.03507
 30
0.0
 10
-9.67454
 20
12.03507
 30
0.0
 10
-9.67454
 20
12.03507
 30
0.0
 10
-9.67454
 20
11.7755
 30
0.0
 10
-9.67454
 20
11.7755
 30
0.0
 10
-9.67454
 20
11.7755
 30
0.0
 10
-9.67454
 20
11.7755
 30
0.0
 10
-9.97454
 20
11.7755
 30
0.0
 10
-9.97454
 20
11.7755
 30
0.0
 10
-9.97454
 20
11.7755
 30
0.0
 10
-9.97454
 20
11.7755
 30
0.0
 10
-9.97454
 20
12.03507
 30
0.0
 10
-9.97454
 20
12.03507
 30
0.0
 10
-9.97454
 20
12.03507
 30
0.0
 10
-9.97454
 20
12.03507
 30
0.0
 10
-11.29713
 20
12.03507
 30
0.0
 10
-11.29713
 20
12.03507
 30
0.0
 10
-11.29713
 20
12.03507
 30
0.0
 10
-11.29713
 20
12.03507
 30
0.0
 10
-11.29713
 20
11.58386
 30
0.0
 10
-11.29713
 20
11.58386
 30
0.0
 10
-11.29713
 20
11.58386
 30
0.0
 10
-11.29713
 20
11.58386
 30
0.0
 10
-11.59713
 20
11.58386
 30
0.0
 10
-11.59713
 20
11.58386
 30
0.0
 10
-11.59713
 20
11.58386
 30
0.0
 10
-11.59713
 20
11.58386
 30
0.0
 10
-11.59713
 20
12.03507
 30
0.0
 10
-11.59713
 20
12.03507
 30
0.0
 10
-11.59713
 20
12.03507
 30
0.0
 10
-11.59713
 20
12.03507
 30
0.0
 10
-13.13454
 20
12.03506
 30
0.0
 10
-13.13454
 20
12.03506
 30
0.0
 10
-13.13454
 20
12.03506
 30
0.0
 10
-13.13454
 20
12.03506
 30
0.0
 10
-13.13454
 20
11.77551
 30
0.0
 10
-13.13454
 20
11.77551
 30
0.0
 10
-13.13454
 20
11.77551
 30
0.0
 10
-13.13454
 20
11.77551
 30
0.0
 10
-13.43454
 20
11.77551
 30
0.0
 10
-13.43454
 20
11.77551
 30
0.0
 10
-13.43454
 20
11.77551
 30
0.0
 10
-13.43454
 20
11.77551
 30
0.0
 10
-13.43454
 20
12.03506
 30
0.0
 10
-13.43454
 20
12.03506
 30
0.0
 10
-13.43454
 20
12.03506
 30
0.0
 10
-13.43454
 20
12.03506
 30
0.0
 10
-14.31069
 20
12.03506
 30
0.0
 10
-14.31069
 20
12.03506
 30
0.0
 10
-14.31069
 20
12.03506
 30
0.0
 10
-14.31069
 20
11.98994
 30
0.0
 10
-14.29145
 20
11.93738
 30
0.0
 10
-14.25499
 20
11.87999
 30
0.0
 10
-14.25499
 20
11.87999
 30
0.0
 10
-14.25499
 20
11.87999
 30
0.0
 10
-14.0369
 20
11.92529
 30
0.0
 10
-14.0369
 20
11.92529
 30
0.0
 10
-14.0369
 20
11.92529
 30
0.0
 10
-14.0369
 20
11.92529
 30
0.0
 10
-13.97589
 20
11.63156
 30
0.0
 10
-13.97589
 20
11.63156
 30
0.0
 10
-13.97589
 20
11.63156
 30
0.0
 10
-13.97589
 20
11.63156
 30
0.0
 10
-14.01299
 20
11.62385
 30
0.0
 10
-14.01299
 20
11.62385
 30
0.0
 10
-14.01299
 20
11.62385
 30
0.0
 10
-13.75395
 20
11.41153
 30
0.0
 10
-13.34112
 20
11.18508
 30
0.0
 10
-12.83595
 20
11.0301
 30
0.0
 10
-12.83595
 20
11.0301
 30
0.0
 10
-12.83595
 20
11.0301
 30
0.0
 10
-12.83595
 20
10.91662
 30
0.0
 10
-12.83595
 20
10.91662
 30
0.0
 10
-12.83595
 20
10.91662
 30
0.0
 10
-12.83595
 20
10.91662
 30
0.0
 10
-12.68145
 20
10.91662
 30
0.0
 10
-12.68145
 20
10.91662
 30
0.0
 10
-12.68145
 20
10.91662
 30
0.0
 10
-12.68145
 20
10.91662
 30
0.0
 10
-12.68145
 20
10.6164
 30
0.0
 10
-12.68145
 20
10.6164
 30
0.0
  0
SPLINE
  5
B2
330
1F
100
AcDbEntity
  8
Camada 1
 62
   250
370
    20
100
AcDbSpline
210
0.0
220
0.0
230
1.0
 70
    11
 71
     3
 72
    64
 73
    60
 74
     0
 42
0.0000000001
 43
0.0000000001
 40
0.0
 40
0.0
 40
0.0
 40
0.0
 40
0.0625
 40
0.0625
 40
0.0625
 40
0.0625
 40
0.125
 40
0.125
 40
0.125
 40
0.125
 40
0.1875
 40
0.1875
 40
0.1875
 40
0.1875
 40
0.25
 40
0.25
 40
0.25
 40
0.25
 40
0.3125
 40
0.3125
 40
0.3125
 40
0.3125
 40
0.375
 40
0.375
 40
0.375
 40
0.375
 40
0.4375
 40
0.4375
 40
0.4375
 40
0.4375
 40
0.5
 40
0.5
 40
0.5
 40
0.5
 40
0.5625
 40
0.5625
 40
0.5625
 40
0.5625
 40
0.625
 40
0.625
 40
0.625
 40
0.625
 40
0.6875
 40
0.6875
 40
0.6875
 40
0.6875
 40
0.75
 40
0.75
 40
0.75
 40
0.75
 40
0.8125
 40
0.8125
 40
0.8125
 40
0.8125
 40
0.875
 40
0.875
 40
0.875
 40
0.875
 40
1.0
 40
1.0
 40
1.0
 40
1.0
 10
-0.05699
 20
10.20342
 30
0.0
 10
-0.05699
 20
9.66881
 30
0.0
 10
-1.60499
 20
8.95222
 30
0.0
 10
-3.51454
 20
8.95222
 30
0.0
 10
-3.51454
 20
8.95222
 30
0.0
 10
-5.42409
 20
8.95222
 30
0.0
 10
-6.97209
 20
9.66881
 30
0.0
 10
-6.97209
 20
10.20342
 30
0.0
 10
-6.97209
 20
10.20342
 30
0.0
 10
-6.97209
 20
10.20342
 30
0.0
 10
-5.28693
 20
10.20342
 30
0.0
 10
-5.28693
 20
10.20342
 30
0.0
 10
-5.28693
 20
10.20342
 30
0.0
 10
-5.28693
 20
10.20342
 30
0.0
 10
-5.28693
 20
9.87457
 30
0.0
 10
-5.28693
 20
9.87457
 30
0.0
 10
-5.28693
 20
9.87457
 30
0.0
 10
-5.28693
 20
9.87457
 30
0.0
 10
-4.98693
 20
9.87457
 30
0.0
 10
-4.98693
 20
9.87457
 30
0.0
 10
-4.98693
 20
9.87457
 30
0.0
 10
-4.98693
 20
9.87457
 30
0.0
 10
-4.98693
 20
10.20342
 30
0.0
 10
-4.98693
 20
10.20342
 30
0.0
 10
-4.98693
 20
10.20342
 30
0.0
 10
-4.98693
 20
10.20342
 30
0.0
 10
-3.66434
 20
10.20342
 30
0.0
 10
-3.66434
 20
10.20342
 30
0.0
 10
-3.66434
 20
10.20342
 30
0.0
 10
-3.66434
 20
10.20342
 30
0.0
 10
-3.66434
 20
9.73021
 30
0.0
 10
-3.66434
 20
9.73021
 30
0.0
 10
-3.66434
 20
9.73021
 30
0.0
 10
-3.66434
 20
9.73021
 30
0.0
 10
-3.36434
 20
9.73021
 30
0.0
 10
-3.36434
 20
9.73021
 30
0.0
 10
-3.36434
 20
9.73021
 30
0.0
 10
-3.36434
 20
9.73021
 30
0.0
 10
-3.36434
 20
10.20342
 30
0.0
 10
-3.36434
 20
10.20342
 30
0.0
 10
-3.36434
 20
10.20342
 30
0.0
 10
-3.36434
 20
10.20342
 30
0.0
 10
-1.82693
 20
10.20342
 30
0.0
 10
-1.82693
 20
10.20342
 30
0.0
 10
-1.82693
 20
10.20342
 30
0.0
 10
-1.82693
 20
10.20342
 30
0.0
 10
-1.82693
 20
9.87457
 30
0.0
 10
-1.82693
 20
9.87457
 30
0.0
 10
-1.82693
 20
9.87457
 30
0.0
 10
-1.82693
 20
9.87457
 30
0.0
 10
-1.52693
 20
9.87457
 30
0.0
 10
-1.52693
 20
9.87457
 30
0.0
 10
-1.52693
 20
9.87457
 30
0.0
 10
-1.52693
 20
9.87457
 30
0.0
 10
-1.52693
 20
10.20342
 30
0.0
 10
-1.52693
 20
10.20342
 30
0.0
 10
-1.52693
 20
10.20342
 30
0.0
 10
-1.52693
 20
10.20342
 30
0.0
 10
-0.05699
 20
10.20342
 30
0.0
 10
-0.05699
 20
10.20342
 30
0.0
  0
SPLINE
  5
B3
330
1F
100
AcDbEntity
  8
Camada 1
 62
   250
370
    20
100
AcDbSpline
210
0.0
220
0.0
230
1.0
 70
    11
 71
     3
 72
    64
 73
    60
 74
     0
 42
0.0000000001
 43
0.0000000001
 40
0.0
 40
0.0
 40
0.0
 40
0.0
 40
0.0625
 40
0.0625
 40
0.0625
 40
0.0625
 40
0.125
 40
0.125
 40
0.125
 40
0.125
 40
0.1875
 40
0.1875
 40
0.1875
 40
0.1875
 40
0.25
 40
0.25
 40
0.25
 40
0.25
 40
0.3125
 40
0.3125
 40
0.3125
 40
0.3125
 40
0.375
 40
0.375
 40
0.375
 40
0.375
 40
0.4375
 40
0.4375
 40
0.4375
 40
0.4375
 40
0.5
 40
0.5
 40
0.5
 40
0.5
 40
0.5625
 40
0.5625
 40
0.5625
 40
0.5625
 40
0.625
 40
0.625
 40
0.625
 40
0.625
 40
0.6875
 40
0.6875
 40
0.6875
 40
0.6875
 40
0.75
 40
0.75
 40
0.75
 40
0.75
 40
0.8125
 40
0.8125
 40
0.8125
 40
0.8125
 40
0.875
 40
0.875
 40
0.875
 40
0.875
 40
1.0
 40
1.0
 40
1.0
 40
1.0
 10
-14.78837
 20
10.20342
 30
0.0
 10
-14.78837
 20
9.66881
 30
0.0
 10
-13.24037
 20
8.95222
 30
0.0
 10
-11.33082
 20
8.95222
 30
0.0
 10
-11.33082
 20
8.95222
 30
0.0
 10
-9.42127
 20
8.95222
 30
0.0
 10
-7.87327
 20
9.66881
 30
0.0
 10
-7.87327
 20
10.20342
 30
0.0
 10
-7.87327
 20
10.20342
 30
0.0
 10
-7.87327
 20
10.20342
 30
0.0
 10
-9.55843
 20
10.20342
 30
0.0
 10
-9.55843
 20
10.20342
 30
0.0
 10
-9.55843
 20
10.20342
 30
0.0
 10
-9.55843
 20
10.20342
 30
0.0
 10
-9.55843
 20
9.87457
 30
0.0
 10
-9.55843
 20
9.87457
 30
0.0
 10
-9.55843
 20
9.87457
 30
0.0
 10
-9.55843
 20
9.87457
 30
0.0
 10
-9.85843
 20
9.87457
 30
0.0
 10
-9.85843
 20
9.87457
 30
0.0
 10
-9.85843
 20
9.87457
 30
0.0
 10
-9.85843
 20
9.87457
 30
0.0
 10
-9.85843
 20
10.20342
 30
0.0
 10
-9.85843
 20
10.20342
 30
0.0
 10
-9.85843
 20
10.20342
 30
0.0
 10
-9.85843
 20
10.20342
 30
0.0
 10
-11.18102
 20
10.20342
 30
0.0
 10
-11.18102
 20
10.20342
 30
0.0
 10
-11.18102
 20
10.20342
 30
0.0
 10
-11.18102
 20
10.20342
 30
0.0
 10
-11.18102
 20
9.73021
 30
0.0
 10
-11.18102
 20
9.73021
 30
0.0
 10
-11.18102
 20
9.73021
 30
0.0
 10
-11.18102
 20
9.73021
 30
0.0
 10
-11.48102
 20
9.73021
 30
0.0
 10
-11.48102
 20
9.73021
 30
0.0
 10
-11.48102
 20
9.73021
 30
0.0
 10
-11.48102
 20
9.73021
 30
0.0
 10
-11.48102
 20
10.20342
 30
0.0
 10
-11.48102
 20
10.20342
 30
0.0
 10
-11.48102
 20
10.20342
 30
0.0
 10
-11.48102
 20
10.20342
 30
0.0
 10
-13.01843
 20
10.20342
 30
0.0
 10
-13.01843
 20
10.20342
 30
0.0
 10
-13.01843
 20
10.20342
 30
0.0
 10
-13.01843
 20
10.20342
 30
0.0
 10
-13.01843
 20
9.87457
 30
0.0
 10
-13.01843
 20
9.87457
 30
0.0
 10
-13.01843
 20
9.87457
 30
0.0
 10
-13.01843
 20
9.87457
 30
0.0
 10
-13.31843
 20
9.87457
 30
0.0
 10
-13.31843
 20
9.87457
 30
0.0
 10
-13.31843
 20
9.87457
 30
0.0
 10
-13.31843
 20
9.87457
 30
0.0
 10
-13.31843
 20
10.20342
 30
0.0
 10
-13.31843
 20
10.20342
 30
0.0
 10
-13.31843
 20
10.20342
 30
0.0
 10
-13.31843
 20
10.20342
 30
0.0
 10
-14.78837
 20
10.20342
 30
0.0
 10
-14.78837
 20
10.20342
 30
0.0
  0
SPLINE
  5
B4
330
1F
100
AcDbEntity
  8
Camada 1
 62
   250
370
    20
100
AcDbSpline
210
0.0
220
0.0
230
1.0
 70
    11
 71
     3
 72
    64
 73
    60
 74
     0
 42
0.0000000001
 43
0.0000000001
 40
0.0
 40
0.0
 40
0.0
 40
0.0
 40
0.0625
 40
0.0625
 40
0.0625
 40
0.0625
 40
0.125
 40
0.125
 40
0.125
 40
0.125
 40
0.1875
 40
0.1875
 40
0.1875
 40
0.1875
 40
0.25
 40
0.25
 40
0.25
 40
0.25
 40
0.3125
 40
0.3125
 40
0.3125
 40
0.3125
 40
0.375
 40
0.375
 40
0.375
 40
0.375
 40
0.4375
 40
0.4375
 40
0.4375
 40
0.4375
 40
0.5
 40
0.5
 40
0.5
 40
0.5
 40
0.5625
 40
0.5625
 40
0.5625
 40
0.5625
 40
0.625
 40
0.625
 40
0.625
 40
0.625
 40
0.6875
 40
0.6875
 40
0.6875
 40
0.6875
 40
0.75
 40
0.75
 40
0.75
 40
0.75
 40
0.8125
 40
0.8125
 40
0.8125
 40
0.8125
 40
0.875
 40
0.875
 40
0.875
 40
0.875
 40
1.0
 40
1.0
 40
1.0
 40
1.0
 10
0.04367
 20
8.72173
 30
0.0
 10
0.04367
 20
8.12366
 30
0.0
 10
-1.68931
 20
7.42757
 30
0.0
 10
-3.70368
 20
7.42757
 30
0.0
 10
-3.70368
 20
7.42757
 30
0.0
 10
-5.71805
 20
7.42757
 30
0.0
 10
-7.25103
 20
8.1413
 30
0.0
 10
-7.25103
 20
8.72173
 30
0.0
 10
-7.25103
 20
8.72173
 30
0.0
 10
-7.25103
 20
8.72173
 30
0.0
 10
-5.48802
 20
8.72173
 30
0.0
 10
-5.48802
 20
8.72173
 30
0.0
 10
-5.48802
 20
8.72173
 30
0.0
 10
-5.48802
 20
8.72173
 30
0.0
 10
-5.48802
 20
8.37143
 30
0.0
 10
-5.48802
 20
8.37143
 30
0.0
 10
-5.48802
 20
8.37143
 30
0.0
 10
-5.48802
 20
8.37143
 30
0.0
 10
-5.18802
 20
8.37143
 30
0.0
 10
-5.18802
 20
8.37143
 30
0.0
 10
-5.18802
 20
8.37143
 30
0.0
 10
-5.18802
 20
8.37143
 30
0.0
 10
-5.18802
 20
8.72173
 30
0.0
 10
-5.18802
 20
8.72173
 30
0.0
 10
-5.18802
 20
8.72173
 30
0.0
 10
-5.18802
 20
8.72173
 30
0.0
 10
-3.86543
 20
8.72173
 30
0.0
 10
-3.86543
 20
8.72173
 30
0.0
 10
-3.86543
 20
8.72173
 30
0.0
 10
-3.86543
 20
8.72173
 30
0.0
 10
-3.86543
 20
8.24692
 30
0.0
 10
-3.86543
 20
8.24692
 30
0.0
 10
-3.86543
 20
8.24692
 30
0.0
 10
-3.86543
 20
8.24692
 30
0.0
 10
-3.56543
 20
8.24692
 30
0.0
 10
-3.56543
 20
8.24692
 30
0.0
 10
-3.56543
 20
8.24692
 30
0.0
 10
-3.56543
 20
8.24692
 30
0.0
 10
-3.56543
 20
8.72173
 30
0.0
 10
-3.56543
 20
8.72173
 30
0.0
 10
-3.56543
 20
8.72173
 30
0.0
 10
-3.56543
 20
8.72173
 30
0.0
 10
-2.02802
 20
8.72173
 30
0.0
 10
-2.02802
 20
8.72173
 30
0.0
 10
-2.02802
 20
8.72173
 30
0.0
 10
-2.02802
 20
8.72173
 30
0.0
 10
-2.02802
 20
8.37143
 30
0.0
 10
-2.02802
 20
8.37143
 30
0.0
 10
-2.02802
 20
8.37143
 30
0.0
 10
-2.02802
 20
8.37143
 30
0.0
 10
-1.72802
 20
8.37143
 30
0.0
 10
-1.72802
 20
8.37143
 30
0.0
 10
-1.72802
 20
8.37143
 30
0.0
 10
-1.72802
 20
8.37143
 30
0.0
 10
-1.72802
 20
8.72173
 30
0.0
 10
-1.72802
 20
8.72173
 30
0.0
 10
-1.72802
 20
8.72173
 30
0.0
 10
-1.72802
 20
8.72173
 30
0.0
 10
0.04367
 20
8.72173
 30
0.0
 10
0.04367
 20
8.72173
 30
0.0
  0
SPLINE
  5
B5
330
1F
100
AcDbEntity
  8
Camada 1
 62
   250
370
    20
100
AcDbSpline
210
0.0
220
0.0
230
1.0
 70
    11
 71
     3
 72
    64
 73
    60
 74
     0
 42
0.0000000001
 43
0.0000000001
 40
0.0
 40
0.0
 40
0.0
 40
0.0
 40
0.0625
 40
0.0625
 40
0.0625
 40
0.0625
 40
0.125
 40
0.125
 40
0.125
 40
0.125
 40
0.1875
 40
0.1875
 40
0.1875
 40
0.1875
 40
0.25
 40
0.25
 40
0.25
 40
0.25
 40
0.3125
 40
0.3125
 40
0.3125
 40
0.3125
 40
0.375
 40
0.375
 40
0.375
 40
0.375
 40
0.4375
 40
0.4375
 40
0.4375
 40
0.4375
 40
0.5
 40
0.5
 40
0.5
 40
0.5
 40
0.5625
 40
0.5625
 40
0.5625
 40
0.5625
 40
0.625
 40
0.625
 40
0.625
 40
0.625
 40
0.6875
 40
0.6875
 40
0.6875
 40
0.6875
 40
0.75
 40
0.75
 40
0.75
 40
0.75
 40
0.8125
 40
0.8125
 40
0.8125
 40
0.8125
 40
0.875
 40
0.875
 40
0.875
 40
0.875
 40
1.0
 40
1.0
 40
1.0
 40
1.0
 10
-14.88903
 20
8.72173
 30
0.0
 10
-14.88903
 20
8.12366
 30
0.0
 10
-13.15605
 20
7.42757
 30
0.0
 10
-11.14168
 20
7.42757
 30
0.0
 10
-11.14168
 20
7.42757
 30
0.0
 10
-9.12731
 20
7.42757
 30
0.0
 10
-7.59433
 20
8.1413
 30
0.0
 10
-7.59433
 20
8.72173
 30
0.0
 10
-7.59433
 20
8.72173
 30
0.0
 10
-7.59433
 20
8.72173
 30
0.0
 10
-9.35734
 20
8.72173
 30
0.0
 10
-9.35734
 20
8.72173
 30
0.0
 10
-9.35734
 20
8.72173
 30
0.0
 10
-9.35734
 20
8.72173
 30
0.0
 10
-9.35734
 20
8.37143
 30
0.0
 10
-9.35734
 20
8.37143
 30
0.0
 10
-9.35734
 20
8.37143
 30
0.0
 10
-9.35734
 20
8.37143
 30
0.0
 10
-9.65734
 20
8.37143
 30
0.0
 10
-9.65734
 20
8.37143
 30
0.0
 10
-9.65734
 20
8.37143
 30
0.0
 10
-9.65734
 20
8.37143
 30
0.0
 10
-9.65734
 20
8.72173
 30
0.0
 10
-9.65734
 20
8.72173
 30
0.0
 10
-9.65734
 20
8.72173
 30
0.0
 10
-9.65734
 20
8.72173
 30
0.0
 10
-10.97993
 20
8.72173
 30
0.0
 10
-10.97993
 20
8.72173
 30
0.0
 10
-10.97993
 20
8.72173
 30
0.0
 10
-10.97993
 20
8.72173
 30
0.0
 10
-10.97993
 20
8.24692
 30
0.0
 10
-10.97993
 20
8.24692
 30
0.0
 10
-10.97993
 20
8.24692
 30
0.0
 10
-10.97993
 20
8.24692
 30
0.0
 10
-11.27993
 20
8.24692
 30
0.0
 10
-11.27993
 20
8.24692
 30
0.0
 10
-11.27993
 20
8.24692
 30
0.0
 10
-11.27993
 20
8.24692
 30
0.0
 10
-11.27993
 20
8.72173
 30
0.0
 10
-11.27993
 20
8.72173
 30
0.0
 10
-11.27993
 20
8.72173
 30
0.0
 10
-11.27993
 20
8.72173
 30
0.0
 10
-12.81734
 20
8.72173
 30
0.0
 10
-12.81734
 20
8.72173
 30
0.0
 10
-12.81734
 20
8.72173
 30
0.0
 10
-12.81734
 20
8.72173
 30
0.0
 10
-12.81734
 20
8.37143
 30
0.0
 10
-12.81734
 20
8.37143
 30
0.0
 10
-12.81734
 20
8.37143
 30
0.0
 10
-12.81734
 20
8.37143
 30
0.0
 10
-13.11734
 20
8.37143
 30
0.0
 10
-13.11734
 20
8.37143
 30
0.0
 10
-13.11734
 20
8.37143
 30
0.0
 10
-13.11734
 20
8.37143
 30
0.0
 10
-13.11734
 20
8.72173
 30
0.0
 10
-13.11734
 20
8.72173
 30
0.0
 10
-13.11734
 20
8.72173
 30
0.0
 10
-13.11734
 20
8.72173
 30
0.0
 10
-14.88903
 20
8.72173
 30
0.0
 10
-14.88903
 20
8.72173
 30
0.0
  0
SPLINE
  5
B6
330
1F
100
AcDbEntity
  8
Camada 1
 62
   250
370
    20
100
AcDbSpline
210
0.0
220
0.0
230
1.0
 70
    11
 71
     3
 72
    64
 73
    60
 74
     0
 42
0.0000000001
 43
0.0000000001
 40
0.0
 40
0.0
 40
0.0
 40
0.0
 40
0.0625
 40
0.0625
 40
0.0625
 40
0.0625
 40
0.125
 40
0.125
 40
0.125
 40
0.125
 40
0.1875
 40
0.1875
 40
0.1875
 40
0.1875
 40
0.25
 40
0.25
 40
0.25
 40
0.25
 40
0.3125
 40
0.3125
 40
0.3125
 40
0.3125
 40
0.375
 40
0.375
 40
0.375
 40
0.375
 40
0.4375
 40
0.4375
 40
0.4375
 40
0.4375
 40
0.5
 40
0.5
 40
0.5
 40
0.5
 40
0.5625
 40
0.5625
 40
0.5625
 40
0.5625
 40
0.625
 40
0.625
 40
0.625
 40
0.625
 40
0.6875
 40
0.6875
 40
0.6875
 40
0.6875
 40
0.75
 40
0.75
 40
0.75
 40
0.75
 40
0.8125
 40
0.8125
 40
0.8125
 40
0.8125
 40
0.875
 40
0.875
 40
0.875
 40
0.875
 40
1.0
 40
1.0
 40
1.0
 40
1.0
 10
-0.00148
 20
6.88521
 30
0.0
 10
-0.40148
 20
6.30159
 30
0.0
 10
-1.64039
 20
5.68527
 30
0.0
 10
-3.66208
 20
5.68527
 30
0.0
 10
-3.66208
 20
5.68527
 30
0.0
 10
-5.68377
 20
5.68527
 30
0.0
 10
-7.12268
 20
6.30159
 30
0.0
 10
-7.32268
 20
6.88521
 30
0.0
 10
-7.32268
 20
6.88521
 30
0.0
 10
-7.32268
 20
6.88521
 30
0.0
 10
-5.4842
 20
6.88521
 30
0.0
 10
-5.4842
 20
6.88521
 30
0.0
 10
-5.4842
 20
6.88521
 30
0.0
 10
-5.4842
 20
6.88521
 30
0.0
 10
-5.4842
 20
6.55334
 30
0.0
 10
-5.4842
 20
6.55334
 30
0.0
 10
-5.4842
 20
6.55334
 30
0.0
 10
-5.4842
 20
6.55334
 30
0.0
 10
-5.1842
 20
6.55334
 30
0.0
 10
-5.1842
 20
6.55334
 30
0.0
 10
-5.1842
 20
6.55334
 30
0.0
 10
-5.1842
 20
6.55334
 30
0.0
 10
-5.1842
 20
6.88521
 30
0.0
 10
-5.1842
 20
6.88521
 30
0.0
 10
-5.1842
 20
6.88521
 30
0.0
 10
-5.1842
 20
6.88521
 30
0.0
 10
-3.86161
 20
6.88521
 30
0.0
 10
-3.86161
 20
6.88521
 30
0.0
 10
-3.86161
 20
6.88521
 30
0.0
 10
-3.86161
 20
6.88521
 30
0.0
 10
-3.86161
 20
6.43863
 30
0.0
 10
-3.86161
 20
6.43863
 30
0.0
 10
-3.86161
 20
6.43863
 30
0.0
 10
-3.86161
 20
6.43863
 30
0.0
 10
-3.56161
 20
6.43863
 30
0.0
 10
-3.56161
 20
6.43863
 30
0.0
 10
-3.56161
 20
6.43863
 30
0.0
 10
-3.56161
 20
6.43863
 30
0.0
 10
-3.56161
 20
6.88521
 30
0.0
 10
-3.56161
 20
6.88521
 30
0.0
 10
-3.56161
 20
6.88521
 30
0.0
 10
-3.56161
 20
6.88521
 30
0.0
 10
-2.0242
 20
6.88521
 30
0.0
 10
-2.0242
 20
6.88521
 30
0.0
 10
-2.0242
 20
6.88521
 30
0.0
 10
-2.0242
 20
6.88521
 30
0.0
 10
-2.0242
 20
6.55334
 30
0.0
 10
-2.0242
 20
6.55334
 30
0.0
 10
-2.0242
 20
6.55334
 30
0.0
 10
-2.0242
 20
6.55334
 30
0.0
 10
-1.7242
 20
6.55334
 30
0.0
 10
-1.7242
 20
6.55334
 30
0.0
 10
-1.7242
 20
6.55334
 30
0.0
 10
-1.7242
 20
6.55334
 30
0.0
 10
-1.7242
 20
6.88521
 30
0.0
 10
-1.7242
 20
6.88521
 30
0.0
 10
-1.7242
 20
6.88521
 30
0.0
 10
-1.7242
 20
6.88521
 30
0.0
 10
-0.00148
 20
6.88521
 30
0.0
 10
-0.00148
 20
6.88521
 30
0.0
  0
SPLINE
  5
B7
330
1F
100
AcDbEntity
  8
Camada 1
 62
   250
370
    20
100
AcDbSpline
210
0.0
220
0.0
230
1.0
 70
    11
 71
     3
 72
    64
 73
    60
 74
     0
 42
0.0000000001
 43
0.0000000001
 40
0.0
 40
0.0
 40
0.0
 40
0.0
 40
0.0625
 40
0.0625
 40
0.0625
 40
0.0625
 40
0.125
 40
0.125
 40
0.125
 40
0.125
 40
0.1875
 40
0.1875
 40
0.1875
 40
0.1875
 40
0.25
 40
0.25
 40
0.25
 40
0.25
 40
0.3125
 40
0.3125
 40
0.3125
 40
0.3125
 40
0.375
 40
0.375
 40
0.375
 40
0.375
 40
0.4375
 40
0.4375
 40
0.4375
 40
0.4375
 40
0.5
 40
0.5
 40
0.5
 40
0.5
 40
0.5625
 40
0.5625
 40
0.5625
 40
0.5625
 40
0.625
 40
0.625
 40
0.625
 40
0.625
 40
0.6875
 40
0.6875
 40
0.6875
 40
0.6875
 40
0.75
 40
0.75
 40
0.75
 40
0.75
 40
0.8125
 40
0.8125
 40
0.8125
 40
0.8125
 40
0.875
 40
0.875
 40
0.875
 40
0.875
 40
1.0
 40
1.0
 40
1.0
 40
1.0
 10
-14.84388
 20
6.88521
 30
0.0
 10
-14.44388
 20
6.30159
 30
0.0
 10
-13.20497
 20
5.68527
 30
0.0
 10
-11.18328
 20
5.68527
 30
0.0
 10
-11.18328
 20
5.68527
 30
0.0
 10
-9.16159
 20
5.68527
 30
0.0
 10
-7.72268
 20
6.30159
 30
0.0
 10
-7.52268
 20
6.88521
 30
0.0
 10
-7.52268
 20
6.88521
 30
0.0
 10
-7.52268
 20
6.88521
 30
0.0
 10
-9.36116
 20
6.88521
 30
0.0
 10
-9.36116
 20
6.88521
 30
0.0
 10
-9.36116
 20
6.88521
 30
0.0
 10
-9.36116
 20
6.88521
 30
0.0
 10
-9.36116
 20
6.55334
 30
0.0
 10
-9.36116
 20
6.55334
 30
0.0
 10
-9.36116
 20
6.55334
 30
0.0
 10
-9.36116
 20
6.55334
 30
0.0
 10
-9.66116
 20
6.55334
 30
0.0
 10
-9.66116
 20
6.55334
 30
0.0
 10
-9.66116
 20
6.55334
 30
0.0
 10
-9.66116
 20
6.55334
 30
0.0
 10
-9.66116
 20
6.88521
 30
0.0
 10
-9.66116
 20
6.88521
 30
0.0
 10
-9.66116
 20
6.88521
 30
0.0
 10
-9.66116
 20
6.88521
 30
0.0
 10
-10.98375
 20
6.88521
 30
0.0
 10
-10.98375
 20
6.88521
 30
0.0
 10
-10.98375
 20
6.88521
 30
0.0
 10
-10.98375
 20
6.88521
 30
0.0
 10
-10.98375
 20
6.43863
 30
0.0
 10
-10.98375
 20
6.43863
 30
0.0
 10
-10.98375
 20
6.43863
 30
0.0
 10
-10.98375
 20
6.43863
 30
0.0
 10
-11.28375
 20
6.43863
 30
0.0
 10
-11.28375
 20
6.43863
 30
0.0
 10
-11.28375
 20
6.43863
 30
0.0
 10
-11.28375
 20
6.43863
 30
0.0
 10
-11.28375
 20
6.88521
 30
0.0
 10
-11.28375
 20
6.88521
 30
0.0
 10
-11.28375
 20
6.88521
 30
0.0
 10
-11.28375
 20
6.88521
 30
0.0
 10
-12.82116
 20
6.88521
 30
0.0
 10
-12.82116
 20
6.88521
 30
0.0
 10
-12.82116
 20
6.88521
 30
0.0
 10
-12.82116
 20
6.88521
 30
0.0
 10
-12.82116
 20
6.55334
 30
0.0
 10
-12.82116
 20
6.55334
 30
0.0
 10
-12.82116
 20
6.55334
 30
0.0
 10
-12.82116
 20
6.55334
 30
0.0
 10
-13.12116
 20
6.55334
 30
0.0
 10
-13.12116
 20
6.55334
 30
0.0
 10
-13.12116
 20
6.55334
 30
0.0
 10
-13.12116
 20
6.55334
 30
0.0
 10
-13.12116
 20
6.88521
 30
0.0
 10
-13.12116
 20
6.88521
 30
0.0
 10
-13.12116
 20
6.88521
 30
0.0
 10
-13.12116
 20
6.88521
 30
0.0
 10
-14.84388
 20
6.88521
 30
0.0
 10
-14.84388
 20
6.88521
 30
0.0
  0
SPLINE
  5
B8
330
1F
100
AcDbEntity
  8
Camada 1
 62
   250
370
    20
100
AcDbSpline
210
0.0
220
0.0
230
1.0
 70
    11
 71
     3
 72
    64
 73
    60
 74
     0
 42
0.0000000001
 43
0.0000000001
 40
0.0
 40
0.0
 40
0.0
 40
0.0
 40
0.0625
 40
0.0625
 40
0.0625
 40
0.0625
 40
0.125
 40
0.125
 40
0.125
 40
0.125
 40
0.1875
 40
0.1875
 40
0.1875
 40
0.1875
 40
0.25
 40
0.25
 40
0.25
 40
0.25
 40
0.3125
 40
0.3125
 40
0.3125
 40
0.3125
 40
0.375
 40
0.375
 40
0.375
 40
0.375
 40
0.4375
 40
0.4375
 40
0.4375
 40
0.4375
 40
0.5
 40
0.5
 40
0.5
 40
0.5
 40
0.5625
 40
0.5625
 40
0.5625
 40
0.5625
 40
0.625
 40
0.625
 40
0.625
 40
0.625
 40
0.6875
 40
0.6875
 40
0.6875
 40
0.6875
 40
0.75
 40
0.75
 40
0.75
 40
0.75
 40
0.8125
 40
0.8125
 40
0.8125
 40
0.8125
 40
0.875
 40
0.875
 40
0.875
 40
0.875
 40
1.0
 40
1.0
 40
1.0
 40
1.0
 10
-0.27838
 20
5.28521
 30
0.0
 10
-1.2431
 20
4.4671
 30
0.0
 10
-2.29578
 20
4.20389
 30
0.0
 10
-3.66758
 20
4.20389
 30
0.0
 10
-3.66758
 20
4.20389
 30
0.0
 10
-5.03938
 20
4.20389
 30
0.0
 10
-6.55678
 20
4.4671
 30
0.0
 10
-7.05678
 20
5.28521
 30
0.0
 10
-7.05678
 20
5.28521
 30
0.0
 10
-7.05678
 20
5.28521
 30
0.0
 10
-5.4842
 20
5.28521
 30
0.0
 10
-5.4842
 20
5.28521
 30
0.0
 10
-5.4842
 20
5.28521
 30
0.0
 10
-5.4842
 20
5.28521
 30
0.0
 10
-5.4842
 20
5.03686
 30
0.0
 10
-5.4842
 20
5.03686
 30
0.0
 10
-5.4842
 20
5.03686
 30
0.0
 10
-5.4842
 20
5.03686
 30
0.0
 10
-5.1842
 20
5.03686
 30
0.0
 10
-5.1842
 20
5.03686
 30
0.0
 10
-5.1842
 20
5.03686
 30
0.0
 10
-5.1842
 20
5.03686
 30
0.0
 10
-5.1842
 20
5.28521
 30
0.0
 10
-5.1842
 20
5.28521
 30
0.0
 10
-5.1842
 20
5.28521
 30
0.0
 10
-5.1842
 20
5.28521
 30
0.0
 10
-3.86161
 20
5.28521
 30
0.0
 10
-3.86161
 20
5.28521
 30
0.0
 10
-3.86161
 20
5.28521
 30
0.0
 10
-3.86161
 20
5.28521
 30
0.0
 10
-3.86161
 20
4.92079
 30
0.0
 10
-3.86161
 20
4.92079
 30
0.0
 10
-3.86161
 20
4.92079
 30
0.0
 10
-3.86161
 20
4.92079
 30
0.0
 10
-3.56161
 20
4.92079
 30
0.0
 10
-3.56161
 20
4.92079
 30
0.0
 10
-3.56161
 20
4.92079
 30
0.0
 10
-3.56161
 20
4.92079
 30
0.0
 10
-3.56161
 20
5.28521
 30
0.0
 10
-3.56161
 20
5.28521
 30
0.0
 10
-3.56161
 20
5.28521
 30
0.0
 10
-3.56161
 20
5.28521
 30
0.0
 10
-2.0242
 20
5.28521
 30
0.0
 10
-2.0242
 20
5.28521
 30
0.0
 10
-2.0242
 20
5.28521
 30
0.0
 10
-2.0242
 20
5.28521
 30
0.0
 10
-2.0242
 20
5.03686
 30
0.0
 10
-2.0242
 20
5.03686
 30
0.0
 10
-2.0242
 20
5.03686
 30
0.0
 10
-2.0242
 20
5.03686
 30
0.0
 10
-1.7242
 20
5.03686
 30
0.0
 10
-1.7242
 20
5.03686
 30
0.0
 10
-1.7242
 20
5.03686
 30
0.0
 10
-1.7242
 20
5.03686
 30
0.0
 10
-1.7242
 20
5.28521
 30
0.0
 10
-1.7242
 20
5.28521
 30
0.0
 10
-1.7242
 20
5.28521
 30
0.0
 10
-1.7242
 20
5.28521
 30
0.0
 10
-0.27838
 20
5.28521
 30
0.0
 10
-0.27838
 20
5.28521
 30
0.0
  0
SPLINE
  5
B9
330
1F
100
AcDbEntity
  8
Camada 1
 62
   250
370
    20
100
AcDbSpline
210
0.0
220
0.0
230
1.0
 70
    11
 71
     3
 72
    64
 73
    60
 74
     0
 42
0.0000000001
 43
0.0000000001
 40
0.0
 40
0.0
 40
0.0
 40
0.0
 40
0.0625
 40
0.0625
 40
0.0625
 40
0.0625
 40
0.125
 40
0.125
 40
0.125
 40
0.125
 40
0.1875
 40
0.1875
 40
0.1875
 40
0.1875
 40
0.25
 40
0.25
 40
0.25
 40
0.25
 40
0.3125
 40
0.3125
 40
0.3125
 40
0.3125
 40
0.375
 40
0.375
 40
0.375
 40
0.375
 40
0.4375
 40
0.4375
 40
0.4375
 40
0.4375
 40
0.5
 40
0.5
 40
0.5
 40
0.5
 40
0.5625
 40
0.5625
 40
0.5625
 40
0.5625
 40
0.625
 40
0.625
 40
0.625
 40
0.625
 40
0.6875
 40
0.6875
 40
0.6875
 40
0.6875
 40
0.75
 40
0.75
 40
0.75
 40
0.75
 40
0.8125
 40
0.8125
 40
0.8125
 40
0.8125
 40
0.875
 40
0.875
 40
0.875
 40
0.875
 40
1.0
 40
1.0
 40
1.0
 40
1.0
 10
-14.56698
 20
5.28521
 30
0.0
 10
-13.60226
 20
4.4671
 30
0.0
 10
-12.54958
 20
4.20389
 30
0.0
 10
-11.17778
 20
4.20389
 30
0.0
 10
-11.17778
 20
4.20389
 30
0.0
 10
-9.80598
 20
4.20389
 30
0.0
 10
-8.28858
 20
4.4671
 30
0.0
 10
-7.78858
 20
5.28521
 30
0.0
 10
-7.78858
 20
5.28521
 30
0.0
 10
-7.78858
 20
5.28521
 30
0.0
 10
-9.36116
 20
5.28521
 30
0.0
 10
-9.36116
 20
5.28521
 30
0.0
 10
-9.36116
 20
5.28521
 30
0.0
 10
-9.36116
 20
5.28521
 30
0.0
 10
-9.36116
 20
5.03686
 30
0.0
 10
-9.36116
 20
5.03686
 30
0.0
 10
-9.36116
 20
5.03686
 30
0.0
 10
-9.36116
 20
5.03686
 30
0.0
 10
-9.66116
 20
5.03686
 30
0.0
 10
-9.66116
 20
5.03686
 30
0.0
 10
-9.66116
 20
5.03686
 30
0.0
 10
-9.66116
 20
5.03686
 30
0.0
 10
-9.66116
 20
5.28521
 30
0.0
 10
-9.66116
 20
5.28521
 30
0.0
 10
-9.66116
 20
5.28521
 30
0.0
 10
-9.66116
 20
5.28521
 30
0.0
 10
-10.98375
 20
5.28521
 30
0.0
 10
-10.98375
 20
5.28521
 30
0.0
 10
-10.98375
 20
5.28521
 30
0.0
 10
-10.98375
 20
5.28521
 30
0.0
 10
-10.98375
 20
4.92079
 30
0.0
 10
-10.98375
 20
4.92079
 30
0.0
 10
-10.98375
 20
4.92079
 30
0.0
 10
-10.98375
 20
4.92079
 30
0.0
 10
-11.28375
 20
4.92079
 30
0.0
 10
-11.28375
 20
4.92079
 30
0.0
 10
-11.28375
 20
4.92079
 30
0.0
 10
-11.28375
 20
4.92079
 30
0.0
 10
-11.28375
 20
5.28521
 30
0.0
 10
-11.28375
 20
5.28521
 30
0.0
 10
-11.28375
 20
5.28521
 30
0.0
 10
-11.28375
 20
5.28521
 30
0.0
 10
-12.82116
 20
5.28521
 30
0.0
 10
-12.82116
 20
5.28521
 30
0.0
 10
-12.82116
 20
5.28521
 30
0.0
 10
-12.82116
 20
5.28521
 30
0.0
 10
-12.82116
 20
5.03686
 30
0.0
 10
-12.82116
 20
5.03686
 30
0.0
 10
-12.82116
 20
5.03686
 30
0.0
 10
-12.82116
 20
5.03686
 30
0.0
 10
-13.12116
 20
5.03686
 30
0.0
 10
-13.12116
 20
5.03686
 30
0.0
 10
-13.12116
 20
5.03686
 30
0.0
 10
-13.12116
 20
5.03686
 30
0.0
 10
-13.12116
 20
5.28521
 30
0.0
 10
-13.12116
 20
5.28521
 30
0.0
 10
-13.12116
 20
5.28521
 30
0.0
 10
-13.12116
 20
5.28521
 30
0.0
 10
-14.56698
 20
5.28521
 30
0.0
 10
-14.56698
 20
5.28521
 30
0.0
  0
SPLINE
  5
BA
330
1F
100
AcDbEntity
  8
Camada 1
 62
   250
370
    20
100
AcDbSpline
210
0.0
220
0.0
230
1.0
 70
    11
 71
     3
 72
    64
 73
    60
 74
     0
 42
0.0000000001
 43
0.0000000001
 40
0.0
 40
0.0
 40
0.0
 40
0.0
 40
0.0625
 40
0.0625
 40
0.0625
 40
0.0625
 40
0.125
 40
0.125
 40
0.125
 40
0.125
 40
0.1875
 40
0.1875
 40
0.1875
 40
0.1875
 40
0.25
 40
0.25
 40
0.25
 40
0.25
 40
0.3125
 40
0.3125
 40
0.3125
 40
0.3125
 40
0.375
 40
0.375
 40
0.375
 40
0.375
 40
0.4375
 40
0.4375
 40
0.4375
 40
0.4375
 40
0.5
 40
0.5
 40
0.5
 40
0.5
 40
0.5625
 40
0.5625
 40
0.5625
 40
0.5625
 40
0.625
 40
0.625
 40
0.625
 40
0.625
 40
0.6875
 40
0.6875
 40
0.6875
 40
0.6875
 40
0.75
 40
0.75
 40
0.75
 40
0.75
 40
0.8125
 40
0.8125
 40
0.8125
 40
0.8125
 40
0.875
 40
0.875
 40
0.875
 40
0.875
 40
1.0
 40
1.0
 40
1.0
 40
1.0
 10
-1.318
 20
3.80319
 30
0.0
 10
-1.918
 20
3.1484
 30
0.0
 10
-3.63248
 20
2.91759
 30
0.0
 10
-4.0306
 20
2.91759
 30
0.0
 10
-4.0306
 20
2.91759
 30
0.0
 10
-4.42872
 20
2.91759
 30
0.0
 10
-6.1432
 20
3.1484
 30
0.0
 10
-6.7432
 20
3.80319
 30
0.0
 10
-6.7432
 20
3.80319
 30
0.0
 10
-6.7432
 20
3.80319
 30
0.0
 10
-5.94105
 20
3.80319
 30
0.0
 10
-5.94105
 20
3.80319
 30
0.0
 10
-5.94105
 20
3.80319
 30
0.0
 10
-5.94105
 20
3.80319
 30
0.0
 10
-5.94105
 20
3.56922
 30
0.0
 10
-5.94105
 20
3.56922
 30
0.0
 10
-5.94105
 20
3.56922
 30
0.0
 10
-5.94105
 20
3.56922
 30
0.0
 10
-5.64105
 20
3.56922
 30
0.0
 10
-5.64105
 20
3.56922
 30
0.0
 10
-5.64105
 20
3.56922
 30
0.0
 10
-5.64105
 20
3.56922
 30
0.0
 10
-5.64105
 20
3.80319
 30
0.0
 10
-5.64105
 20
3.80319
 30
0.0
 10
-5.64105
 20
3.80319
 30
0.0
 10
-5.64105
 20
3.80319
 30
0.0
 10
-4.31846
 20
3.80319
 30
0.0
 10
-4.31846
 20
3.80319
 30
0.0
 10
-4.31846
 20
3.80319
 30
0.0
 10
-4.31846
 20
3.80319
 30
0.0
 10
-4.31846
 20
3.54183
 30
0.0
 10
-4.31846
 20
3.54183
 30
0.0
 10
-4.31846
 20
3.54183
 30
0.0
 10
-4.31846
 20
3.54183
 30
0.0
 10
-4.01846
 20
3.54183
 30
0.0
 10
-4.01846
 20
3.54183
 30
0.0
 10
-4.01846
 20
3.54183
 30
0.0
 10
-4.01846
 20
3.54183
 30
0.0
 10
-4.01846
 20
3.80319
 30
0.0
 10
-4.01846
 20
3.80319
 30
0.0
 10
-4.01846
 20
3.80319
 30
0.0
 10
-4.01846
 20
3.80319
 30
0.0
 10
-2.48105
 20
3.80319
 30
0.0
 10
-2.48105
 20
3.80319
 30
0.0
 10
-2.48105
 20
3.80319
 30
0.0
 10
-2.48105
 20
3.80319
 30
0.0
 10
-2.48105
 20
3.56922
 30
0.0
 10
-2.48105
 20
3.56922
 30
0.0
 10
-2.48105
 20
3.56922
 30
0.0
 10
-2.48105
 20
3.56922
 30
0.0
 10
-2.18105
 20
3.56922
 30
0.0
 10
-2.18105
 20
3.56922
 30
0.0
 10
-2.18105
 20
3.56922
 30
0.0
 10
-2.18105
 20
3.56922
 30
0.0
 10
-2.18105
 20
3.80319
 30
0.0
 10
-2.18105
 20
3.80319
 30
0.0
 10
-2.18105
 20
3.80319
 30
0.0
 10
-2.18105
 20
3.80319
 30
0.0
 10
-1.318
 20
3.80319
 30
0.0
 10
-1.318
 20
3.80319
 30
0.0
  0
SPLINE
  5
BB
330
1F
100
AcDbEntity
  8
Camada 1
 62
   250
370
    20
100
AcDbSpline
210
0.0
220
0.0
230
1.0
 70
    11
 71
     3
 72
    64
 73
    60
 74
     0
 42
0.0000000001
 43
0.0000000001
 40
0.0
 40
0.0
 40
0.0
 40
0.0
 40
0.0625
 40
0.0625
 40
0.0625
 40
0.0625
 40
0.125
 40
0.125
 40
0.125
 40
0.125
 40
0.1875
 40
0.1875
 40
0.1875
 40
0.1875
 40
0.25
 40
0.25
 40
0.25
 40
0.25
 40
0.3125
 40
0.3125
 40
0.3125
 40
0.3125
 40
0.375
 40
0.375
 40
0.375
 40
0.375
 40
0.4375
 40
0.4375
 40
0.4375
 40
0.4375
 40
0.5
 40
0.5
 40
0.5
 40
0.5
 40
0.5625
 40
0.5625
 40
0.5625
 40
0.5625
 40
0.625
 40
0.625
 40
0.625
 40
0.625
 40
0.6875
 40
0.6875
 40
0.6875
 40
0.6875
 40
0.75
 40
0.75
 40
0.75
 40
0.75
 40
0.8125
 40
0.8125
 40
0.8125
 40
0.8125
 40
0.875
 40
0.875
 40
0.875
 40
0.875
 40
1.0
 40
1.0
 40
1.0
 40
1.0
 10
-13.52736
 20
3.80319
 30
0.0
 10
-12.92736
 20
3.1484
 30
0.0
 10
-11.21288
 20
2.91759
 30
0.0
 10
-10.81476
 20
2.91759
 30
0.0
 10
-10.81476
 20
2.91759
 30
0.0
 10
-10.41664
 20
2.91759
 30
0.0
 10
-8.70216
 20
3.1484
 30
0.0
 10
-8.10216
 20
3.80319
 30
0.0
 10
-8.10216
 20
3.80319
 30
0.0
 10
-8.10216
 20
3.80319
 30
0.0
 10
-8.90431
 20
3.80319
 30
0.0
 10
-8.90431
 20
3.80319
 30
0.0
 10
-8.90431
 20
3.80319
 30
0.0
 10
-8.90431
 20
3.80319
 30
0.0
 10
-8.90431
 20
3.56922
 30
0.0
 10
-8.90431
 20
3.56922
 30
0.0
 10
-8.90431
 20
3.56922
 30
0.0
 10
-8.90431
 20
3.56922
 30
0.0
 10
-9.20431
 20
3.56922
 30
0.0
 10
-9.20431
 20
3.56922
 30
0.0
 10
-9.20431
 20
3.56922
 30
0.0
 10
-9.20431
 20
3.56922
 30
0.0
 10
-9.20431
 20
3.80319
 30
0.0
 10
-9.20431
 20
3.80319
 30
0.0
 10
-9.20431
 20
3.80319
 30
0.0
 10
-9.20431
 20
3.80319
 30
0.0
 10
-10.5269
 20
3.80319
 30
0.0
 10
-10.5269
 20
3.80319
 30
0.0
 10
-10.5269
 20
3.80319
 30
0.0
 10
-10.5269
 20
3.80319
 30
0.0
 10
-10.5269
 20
3.54183
 30
0.0
 10
-10.5269
 20
3.54183
 30
0.0
 10
-10.5269
 20
3.54183
 30
0.0
 10
-10.5269
 20
3.54183
 30
0.0
 10
-10.8269
 20
3.54183
 30
0.0
 10
-10.8269
 20
3.54183
 30
0.0
 10
-10.8269
 20
3.54183
 30
0.0
 10
-10.8269
 20
3.54183
 30
0.0
 10
-10.8269
 20
3.80319
 30
0.0
 10
-10.8269
 20
3.80319
 30
0.0
 10
-10.8269
 20
3.80319
 30
0.0
 10
-10.8269
 20
3.80319
 30
0.0
 10
-12.36431
 20
3.80319
 30
0.0
 10
-12.36431
 20
3.80319
 30
0.0
 10
-12.36431
 20
3.80319
 30
0.0
 10
-12.36431
 20
3.80319
 30
0.0
 10
-12.36431
 20
3.56922
 30
0.0
 10
-12.36431
 20
3.56922
 30
0.0
 10
-12.36431
 20
3.56922
 30
0.0
 10
-12.36431
 20
3.56922
 30
0.0
 10
-12.66431
 20
3.56922
 30
0.0
 10
-12.66431
 20
3.56922
 30
0.0
 10
-12.66431
 20
3.56922
 30
0.0
 10
-12.66431
 20
3.56922
 30
0.0
 10
-12.66431
 20
3.80319
 30
0.0
 10
-12.66431
 20
3.80319
 30
0.0
 10
-12.66431
 20
3.80319
 30
0.0
 10
-12.66431
 20
3.80319
 30
0.0
 10
-13.52736
 20
3.80319
 30
0.0
 10
-13.52736
 20
3.80319
 30
0.0
  0
SPLINE
  5
BC
330
1F
100
AcDbEntity
  8
Camada 1
 62
   250
370
    20
100
AcDbSpline
210
0.0
220
0.0
230
1.0
 70
    11
 71
     3
 72
    32
 73
    28
 74
     0
 42
0.0000000001
 43
0.0000000001
 40
0.0
 40
0.0
 40
0.0
 40
0.0
 40
0.125
 40
0.125
 40
0.125
 40
0.125
 40
0.25
 40
0.25
 40
0.25
 40
0.25
 40
0.375
 40
0.375
 40
0.375
 40
0.375
 40
0.5
 40
0.5
 40
0.5
 40
0.5
 40
0.625
 40
0.625
 40
0.625
 40
0.625
 40
0.75
 40
0.75
 40
0.75
 40
0.75
 40
1.0
 40
1.0
 40
1.0
 40
1.0
 10
-2.94539
 20
2.14088
 30
0.0
 10
-2.94539
 20
1.66903
 30
0.0
 10
-3.46712
 20
1.48652
 30
0.0
 10
-4.11069
 20
1.48652
 30
0.0
 10
-4.11069
 20
1.48652
 30
0.0
 10
-4.75426
 20
1.48652
 30
0.0
 10
-5.27599
 20
1.66903
 30
0.0
 10
-5.27599
 20
2.14088
 30
0.0
 10
-5.27599
 20
2.14088
 30
0.0
 10
-5.27599
 20
2.14088
 30
0.0
 10
-4.21181
 20
2.14088
 30
0.0
 10
-4.21181
 20
2.14088
 30
0.0
 10
-4.21181
 20
2.14088
 30
0.0
 10
-4.21181
 20
2.14088
 30
0.0
 10
-4.21164
 20
1.88562
 30
0.0
 10
-4.21164
 20
1.88562
 30
0.0
 10
-4.21164
 20
1.88562
 30
0.0
 10
-4.21164
 20
1.88562
 30
0.0
 10
-3.91164
 20
1.88562
 30
0.0
 10
-3.91164
 20
1.88562
 30
0.0
 10
-3.91164
 20
1.88562
 30
0.0
 10
-3.91164
 20
1.88562
 30
0.0
 10
-3.91181
 20
2.14088
 30
0.0
 10
-3.91181
 20
2.14088
 30
0.0
 10
-3.91181
 20
2.14088
 30
0.0
 10
-3.91181
 20
2.14088
 30
0.0
 10
-2.94539
 20
2.14088
 30
0.0
 10
-2.94539
 20
2.14088
 30
0.0
  0
SPLINE
  5
BD
330
1F
100
AcDbEntity
  8
Camada 1
 62
   250
370
    20
100
AcDbSpline
210
0.0
220
0.0
230
1.0
 70
    11
 71
     3
 72
    32
 73
    28
 74
     0
 42
0.0000000001
 43
0.0000000001
 40
0.0
 40
0.0
 40
0.0
 40
0.0
 40
0.125
 40
0.125
 40
0.125
 40
0.125
 40
0.25
 40
0.25
 40
0.25
 40
0.25
 40
0.375
 40
0.375
 40
0.375
 40
0.375
 40
0.5
 40
0.5
 40
0.5
 40
0.5
 40
0.625
 40
0.625
 40
0.625
 40
0.625
 40
0.75
 40
0.75
 40
0.75
 40
0.75
 40
1.0
 40
1.0
 40
1.0
 40
1.0
 10
-11.89997
 20
2.14088
 30
0.0
 10
-11.89997
 20
1.66903
 30
0.0
 10
-11.37824
 20
1.48652
 30
0.0
 10
-10.73467
 20
1.48652
 30
0.0
 10
-10.73467
 20
1.48652
 30
0.0
 10
-10.0911
 20
1.48652
 30
0.0
 10
-9.56937
 20
1.66903
 30
0.0
 10
-9.56937
 20
2.14088
 30
0.0
 10
-9.56937
 20
2.14088
 30
0.0
 10
-9.56937
 20
2.14088
 30
0.0
 10
-10.63355
 20
2.14088
 30
0.0
 10
-10.63355
 20
2.14088
 30
0.0
 10
-10.63355
 20
2.14088
 30
0.0
 10
-10.63355
 20
2.14088
 30
0.0
 10
-10.63372
 20
1.88562
 30
0.0
 10
-10.63372
 20
1.88562
 30
0.0
 10
-10.63372
 20
1.88562
 30
0.0
 10
-10.63372
 20
1.88562
 30
0.0
 10
-10.93372
 20
1.88562
 30
0.0
 10
-10.93372
 20
1.88562
 30
0.0
 10
-10.93372
 20
1.88562
 30
0.0
 10
-10.93372
 20
1.88562
 30
0.0
 10
-10.93355
 20
2.14088
 30
0.0
 10
-10.93355
 20
2.14088
 30
0.0
 10
-10.93355
 20
2.14088
 30
0.0
 10
-10.93355
 20
2.14088
 30
0.0
 10
-11.89997
 20
2.14088
 30
0.0
 10
-11.89997
 20
2.14088
 30
0.0
  0
SPLINE
  5
BE
330
1F
100
AcDbEntity
  8
Camada 1
 62
   250
370
    20
100
AcDbSpline
210
0.0
220
0.0
230
1.0
 70
    11
 71
     3
 72
    32
 73
    28
 74
     0
 42
0.0000000001
 43
0.0000000001
 40
0.0
 40
0.0
 40
0.0
 40
0.0
 40
0.125
 40
0.125
 40
0.125
 40
0.125
 40
0.25
 40
0.25
 40
0.25
 40
0.25
 40
0.375
 40
0.375
 40
0.375
 40
0.375
 40
0.5
 40
0.5
 40
0.5
 40
0.5
 40
0.625
 40
0.625
 40
0.625
 40
0.625
 40
0.75
 40
0.75
 40
0.75
 40
0.75
 40
1.0
 40
1.0
 40
1.0
 40
1.0
 10
-3.7067
 20
0.4342
 30
0.0
 10
-3.37158
 20
0.4342
 30
0.0
 10
-3.0999
 20
0.06365
 30
0.0
 10
-3.0999
 20
-0.39345
 30
0.0
 10
-3.0999
 20
-0.39345
 30
0.0
 10
-3.0999
 20
-0.85054
 30
0.0
 10
-3.37158
 20
-1.2211
 30
0.0
 10
-3.7067
 20
-1.2211
 30
0.0
 10
-3.7067
 20
-1.2211
 30
0.0
 10
-3.7067
 20
-1.2211
 30
0.0
 10
-3.7067
 20
-0.39345
 30
0.0
 10
-3.7067
 20
-0.39345
 30
0.0
 10
-3.7067
 20
-0.39345
 30
0.0
 10
-3.7067
 20
-0.39345
 30
0.0
 10
-4.0067
 20
-0.39345
 30
0.0
 10
-4.0067
 20
-0.39345
 30
0.0
 10
-4.0067
 20
-0.39345
 30
0.0
 10
-4.0067
 20
-0.39345
 30
0.0
 10
-4.0067
 20
0.02037
 30
0.0
 10
-4.0067
 20
0.02037
 30
0.0
 10
-4.0067
 20
0.02037
 30
0.0
 10
-4.0067
 20
0.02037
 30
0.0
 10
-3.7067
 20
0.02037
 30
0.0
 10
-3.7067
 20
0.02037
 30
0.0
 10
-3.7067
 20
0.02037
 30
0.0
 10
-3.7067
 20
0.02037
 30
0.0
 10
-3.7067
 20
0.4342
 30
0.0
 10
-3.7067
 20
0.4342
 30
0.0
  0
SPLINE
  5
BF
330
1F
100
AcDbEntity
  8
Camada 1
 62
   250
370
    20
100
AcDbSpline
210
0.0
220
0.0
230
1.0
 70
    11
 71
     3
 72
    32
 73
    28
 74
     0
 42
0.0000000001
 43
0.0000000001
 40
0.0
 40
0.0
 40
0.0
 40
0.0
 40
0.125
 40
0.125
 40
0.125
 40
0.125
 40
0.25
 40
0.25
 40
0.25
 40
0.25
 40
0.375
 40
0.375
 40
0.375
 40
0.375
 40
0.5
 40
0.5
 40
0.5
 40
0.5
 40
0.625
 40
0.625
 40
0.625
 40
0.625
 40
0.75
 40
0.75
 40
0.75
 40
0.75
 40
1.0
 40
1.0
 40
1.0
 40
1.0
 10
-4.0067
 20
-0.39345
 30
0.0
 10
-4.0067
 20
-0.39345
 30
0.0
 10
-3.7067
 20
-0.39345
 30
0.0
 10
-3.7067
 20
-0.39345
 30
0.0
 10
-3.7067
 20
-0.39345
 30
0.0
 10
-3.7067
 20
-0.39345
 30
0.0
 10
-3.7067
 20
-0.80727
 30
0.0
 10
-3.7067
 20
-0.80727
 30
0.0
 10
-3.7067
 20
-0.80727
 30
0.0
 10
-3.7067
 20
-0.80727
 30
0.0
 10
-4.0067
 20
-0.80727
 30
0.0
 10
-4.0067
 20
-0.80727
 30
0.0
 10
-4.0067
 20
-0.80727
 30
0.0
 10
-4.0067
 20
-0.80727
 30
0.0
 10
-4.0067
 20
-1.2211
 30
0.0
 10
-4.0067
 20
-1.2211
 30
0.0
 10
-4.0067
 20
-1.2211
 30
0.0
 10
-4.34182
 20
-1.2211
 30
0.0
 10
-4.6135
 20
-0.85055
 30
0.0
 10
-4.6135
 20
-0.39345
 30
0.0
 10
-4.6135
 20
-0.39345
 30
0.0
 10
-4.6135
 20
0.06365
 30
0.0
 10
-4.34182
 20
0.4342
 30
0.0
 10
-4.0067
 20
0.4342
 30
0.0
 10
-4.0067
 20
0.4342
 30
0.0
 10
-4.0067
 20
0.4342
 30
0.0
 10
-4.0067
 20
-0.39345
 30
0.0
 10
-4.0067
 20
-0.39345
 30
0.0
  0
ENDSEC
  0
SECTION
  2
OBJECTS
  0
DICTIONARY
  5
C
330
0
100
AcDbDictionary
281
     1
  3
ACAD_GROUP
350
D
  3
ACAD_IMAGE_DICT
350
41
  3
ACAD_LAYOUT
350
1A
  3
ACAD_MATERIAL
350
3B
  3
ACAD_MLEADERSTYLE
350
E1
  3
ACAD_MLINESTYLE
350
17
  3
ACAD_PLOTSETTINGS
350
19
  3
ACAD_PLOTSTYLENAME
350
E
  3
ACAD_TABLESTYLE
350
E0
  3
ACAD_VISUALSTYLE
350
2A
  0
IMAGEDEF_REACTOR
  5
44
330
43
100
AcDbRasterImageDefReactor
 90
        2
330
43
  0
DICTIONARY
  5
D
102
{ACAD_REACTORS
330
C
102
}
330
C
100
AcDbDictionary
281
     1
  0
DICTIONARY
  5
41
102
{ACAD_REACTORS
330
C
102
}
330
C
100
AcDbDictionary
281
     1
  3
Image #1
350
42
  0
DICTIONARY
  5
1A
102
{ACAD_REACTORS
330
C
102
}
330
C
100
AcDbDictionary
281
     1
  3
Layout1
350
1E
  3
Layout2
350
26
  3
Model
350
22
  0
DICTIONARY
  5
3B
102
{ACAD_REACTORS
330
C
102
}
330
C
100
AcDbDictionary
281
     1
  3
ByBlock
350
3D
  3
ByLayer
350
3C
  3
Global
350
3E
  0
DICTIONARY
  5
E1
102
{ACAD_REACTORS
330
C
102
}
330
C
100
AcDbDictionary
281
     1
  0
DICTIONARY
  5
17
102
{ACAD_REACTORS
330
C
102
}
330
C
100
AcDbDictionary
281
     1
  3
Standard
350
18
  0
DICTIONARY
  5
19
102
{ACAD_REACTORS
330
C
102
}
330
C
100
AcDbDictionary
281
     1
  0
ACDBDICTIONARYWDFLT
  5
E
102
{ACAD_REACTORS
330
C
102
}
330
C
100
AcDbDictionary
281
     1
  3
Normal
350
F
100
AcDbDictionaryWithDefault
340
F
  0
DICTIONARY
  5
E0
102
{ACAD_REACTORS
330
C
102
}
330
C
100
AcDbDictionary
281
     1
  0
DICTIONARY
  5
2A
102
{ACAD_REACTORS
330
C
102
}
330
C
100
AcDbDictionary
281
     1
  3
2dWireframe
350
2F
  3
3D Hidden
350
31
  3
3dWireframe
350
30
  3
Basic
350
32
  3
Brighten
350
36
  3
ColorChange
350
3A
  3
Conceptual
350
34
  3
Dim
350
35
  3
Facepattern
350
39
  3
Flat
350
2B
  3
FlatWithEdges
350
2C
  3
Gouraud
350
2D
  3
GouraudWithEdges
350
2E
  3
Linepattern
350
38
  3
Realistic
350
33
  3
Thicken
350
37
  0
IMAGEDEF
  5
42
102
{ACAD_REACTORS
330
41
330
44
102
}
330
41
100
AcDbRasterImageDef
 90
        0
  1
C:\\Documents and Settings\\Administrateur\\Bureau\\DXF\\--------------------------------\\Fish Mehta\\Fish_Mehta_ACD_0.jpg
 10
335.0
 20
335.0
 11
0.002985074626865672
 21
0.002985074626865672
280
     1
281
     5
  0
LAYOUT
  5
1E
102
{ACAD_REACTORS
330
1A
102
}
330
1A
100
AcDbPlotSettings
  1

  2
none_device
  4

  6

 40
0.0
 41
0.0
 42
0.0
 43
0.0
 44
0.0
 45
0.0
 46
0.0
 47
0.0
 48
0.0
 49
0.0
140
0.0
141
0.0
142
1.0
143
1.0
 70
   688
 72
     0
 73
     0
 74
     5
  7

 75
    16
 76
     0
 77
     2
 78
   300
147
1.0
148
0.0
149
0.0
100
AcDbLayout
  1
Layout1
 70
     1
 71
     1
 10
0.0
 20
0.0
 11
12.0
 21
9.0
 12
0.0
 22
0.0
 32
0.0
 14
1.000000000000000E+20
 24
1.000000000000000E+20
 34
1.000000000000000E+20
 15
-1.000000000000000E+20
 25
-1.000000000000000E+20
 35
-1.000000000000000E+20
146
0.0
 13
0.0
 23
0.0
 33
0.0
 16
1.0
 26
0.0
 36
0.0
 17
0.0
 27
1.0
 37
0.0
 76
     0
330
1B
  0
LAYOUT
  5
26
102
{ACAD_REACTORS
330
1A
102
}
330
1A
100
AcDbPlotSettings
  1

  2
none_device
  4

  6

 40
0.0
 41
0.0
 42
0.0
 43
0.0
 44
0.0
 45
0.0
 46
0.0
 47
0.0
 48
0.0
 49
0.0
140
0.0
141
0.0
142
1.0
143
1.0
 70
   688
 72
     0
 73
     0
 74
     5
  7

 75
    16
 76
     0
 77
     2
 78
   300
147
1.0
148
0.0
149
0.0
100
AcDbLayout
  1
Layout2
 70
     1
 71
     2
 10
0.0
 20
0.0
 11
0.0
 21
0.0
 12
0.0
 22
0.0
 32
0.0
 14
0.0
 24
0.0
 34
0.0
 15
0.0
 25
0.0
 35
0.0
146
0.0
 13
0.0
 23
0.0
 33
0.0
 16
1.0
 26
0.0
 36
0.0
 17
0.0
 27
1.0
 37
0.0
 76
     0
330
23
  0
LAYOUT
  5
22
102
{ACAD_REACTORS
330
1A
102
}
330
1A
100
AcDbPlotSettings
  1

  2
none_device
  4

  6

 40
0.0
 41
0.0
 42
0.0
 43
0.0
 44
0.0
 45
0.0
 46
0.0
 47
0.0
 48
0.0
 49
0.0
140
0.0
141
0.0
142
1.0
143
1.0
 70
  1712
 72
     0
 73
     0
 74
     0
  7

 75
     0
 76
     0
 77
     2
 78
   300
147
1.0
148
0.0
149
0.0
100
AcDbLayout
  1
Model
 70
     1
 71
     0
 10
0.0
 20
0.0
 11
12.0
 21
9.0
 12
0.0
 22
0.0
 32
0.0
 14
-39.01927
 24
-24.31865
 34
0.0
 15
17.73281
 25
12.04507
 35
0.0
146
0.0
 13
0.0
 23
0.0
 33
0.0
 16
1.0
 26
0.0
 36
0.0
 17
0.0
 27
1.0
 37
0.0
 76
     0
330
1F
331
29
  0
MATERIAL
  5
3D
102
{ACAD_REACTORS
330
3B
102
}
330
3B
100
AcDbMaterial
  1
ByBlock
 72
     1
 94
      127
  0
MATERIAL
  5
3C
102
{ACAD_REACTORS
330
3B
102
}
330
3B
100
AcDbMaterial
  1
ByLayer
 72
     1
 94
      127
  0
MATERIAL
  5
3E
102
{ACAD_REACTORS
330
3B
102
}
330
3B
100
AcDbMaterial
  1
Global
 72
     1
 94
      127
  0
MLINESTYLE
  5
18
102
{ACAD_REACTORS
330
17
102
}
330
17
100
AcDbMlineStyle
  2
Standard
 70
     0
  3

 62
   256
 51
90.0
 52
90.0
 71
     2
 49
0.5
 62
   256
  6
BYLAYER
 49
-0.5
 62
   256
  6
BYLAYER
  0
ACDBPLACEHOLDER
  5
F
102
{ACAD_REACTORS
330
E
102
}
330
E
  0
VISUALSTYLE
  5
2F
102
{ACAD_REACTORS
330
2A
102
}
102
{ACAD_XDICTIONARY
360
C8
102
}
330
2A
100
AcDbVisualStyle
  2
2dWireframe
 70
     4
 71
     0
 72
     2
 73
     0
 90
        0
 40
-0.6
 41
-30.0
 62
     5
 63
     7
421
 16777215
 74
     1
 91
        4
 64
     7
 65
   257
 75
     1
175
     1
 42
1.0
 92
        0
 66
   257
 43
1.0
 76
     1
 77
     6
 78
     2
 67
     7
 79
     5
170
     0
171
     0
290
     0
174
     0
 93
        1
 44
0.0
173
     0
291
     0
 45
0.0
  0
VISUALSTYLE
  5
31
102
{ACAD_REACTORS
330
2A
102
}
102
{ACAD_XDICTIONARY
360
CC
102
}
330
2A
100
AcDbVisualStyle
  2
3D Hidden
 70
     6
 71
     1
 72
     2
 73
     2
 90
        0
 40
-0.6
 41
-30.0
 62
     5
 63
     7
421
 16777215
 74
     2
 91
        2
 64
     7
 65
   257
 75
     2
175
     1
 42
40.0
 92
        0
 66
   257
 43
1.0
 76
     1
 77
     6
 78
     2
 67
     7
 79
     3
170
     0
171
     0
290
     0
174
     0
 93
        1
 44
0.0
173
     0
291
     0
 45
0.0
  0
VISUALSTYLE
  5
30
102
{ACAD_REACTORS
330
2A
102
}
102
{ACAD_XDICTIONARY
360
CA
102
}
330
2A
100
AcDbVisualStyle
  2
3dWireframe
 70
     5
 71
     0
 72
     2
 73
     0
 90
        0
 40
-0.6
 41
-30.0
 62
     5
 63
     7
421
 16777215
 74
     1
 91
        4
 64
     7
 65
   257
 75
     1
175
     1
 42
1.0
 92
        0
 66
   257
 43
1.0
 76
     1
 77
     6
 78
     2
 67
     7
 79
     5
170
     0
171
     0
290
     0
174
     0
 93
        1
 44
0.0
173
     0
291
     0
 45
0.0
  0
VISUALSTYLE
  5
32
102
{ACAD_REACTORS
330
2A
102
}
102
{ACAD_XDICTIONARY
360
CE
102
}
330
2A
100
AcDbVisualStyle
  2
Basic
 70
     7
 71
     1
 72
     0
 73
     1
 90
        0
 40
-0.6
 41
-30.0
 62
     5
 63
     7
421
 16777215
 74
     0
 91
        4
 64
     7
 65
   257
 75
     1
175
     1
 42
1.0
 92
        8
 66
     7
 43
1.0
 76
     1
 77
     6
 78
     2
 67
     7
 79
     5
170
     0
171
     0
290
     0
174
     0
 93
        1
 44
0.0
173
     0
291
     1
 45
0.0
  0
VISUALSTYLE
  5
36
102
{ACAD_REACTORS
330
2A
102
}
102
{ACAD_XDICTIONARY
360
D6
102
}
330
2A
100
AcDbVisualStyle
  2
Brighten
 70
    12
 71
     2
 72
     2
 73
     0
 90
        0
 40
-0.6
 41
-30.0
 62
     5
 63
     7
421
 16777215
 74
     1
 91
        4
 64
     7
 65
   257
 75
     1
175
     1
 42
1.0
 92
        8
 66
     7
 43
1.0
 76
     1
 77
     6
 78
     2
 67
     7
 79
     5
170
     0
171
     0
290
     0
174
     0
 93
        1
 44
50.0
173
     0
291
     1
 45
0.0
  0
VISUALSTYLE
  5
3A
102
{ACAD_REACTORS
330
2A
102
}
102
{ACAD_XDICTIONARY
360
DE
102
}
330
2A
100
AcDbVisualStyle
  2
ColorChange
 70
    16
 71
     2
 72
     2
 73
     3
 90
        0
 40
-0.6
 41
-30.0
 62
     5
 63
     8
421
  8421504
 74
     1
 91
        4
 64
     7
 65
   257
 75
     1
175
     1
 42
1.0
 92
        8
 66
     8
424
  8421504
 43
1.0
 76
     1
 77
     6
 78
     2
 67
     7
 79
     5
170
     0
171
     0
290
     0
174
     0
 93
        1
 44
0.0
173
     0
291
     1
 45
0.0
  0
VISUALSTYLE
  5
34
102
{ACAD_REACTORS
330
2A
102
}
102
{ACAD_XDICTIONARY
360
D2
102
}
330
2A
100
AcDbVisualStyle
  2
Conceptual
 70
     9
 71
     3
 72
     2
 73
     0
 90
        0
 40
-0.6
 41
-30.0
 62
     5
 63
     7
421
 16777215
 74
     2
 91
        2
 64
     7
 65
   257
 75
     1
175
     1
 42
40.0
 92
        8
 66
     7
 43
1.0
 76
     1
 77
     6
 78
     2
 67
     7
 79
     3
170
     0
171
     0
290
     0
174
     0
 93
        1
 44
0.0
173
     0
291
     0
 45
0.0
  0
VISUALSTYLE
  5
35
102
{ACAD_REACTORS
330
2A
102
}
102
{ACAD_XDICTIONARY
360
D4
102
}
330
2A
100
AcDbVisualStyle
  2
Dim
 70
    11
 71
     2
 72
     2
 73
     0
 90
        0
 40
-0.6
 41
-30.0
 62
     5
 63
     7
421
 16777215
 74
     1
 91
        4
 64
     7
 65
   257
 75
     1
175
     1
 42
1.0
 92
        8
 66
     7
 43
1.0
 76
     1
 77
     6
 78
     2
 67
     7
 79
     5
170
     0
171
     0
290
     0
174
     0
 93
        1
 44
-50.0
173
     0
291
     1
 45
0.0
  0
VISUALSTYLE
  5
39
102
{ACAD_REACTORS
330
2A
102
}
102
{ACAD_XDICTIONARY
360
DC
102
}
330
2A
100
AcDbVisualStyle
  2
Facepattern
 70
    15
 71
     2
 72
     2
 73
     0
 90
        0
 40
-0.6
 41
-30.0
 62
     5
 63
     7
421
 16777215
 74
     1
 91
        4
 64
     7
 65
   257
 75
     1
175
     1
 42
1.0
 92
        8
 66
     7
 43
1.0
 76
     1
 77
     6
 78
     2
 67
     7
 79
     5
170
     0
171
     0
290
     0
174
     0
 93
        1
 44
0.0
173
     0
291
     1
 45
0.0
  0
VISUALSTYLE
  5
2B
102
{ACAD_REACTORS
330
2A
102
}
102
{ACAD_XDICTIONARY
360
C0
102
}
330
2A
100
AcDbVisualStyle
  2
Flat
 70
     0
 71
     2
 72
     1
 73
     1
 90
        2
 40
-0.6
 41
30.0
 62
     5
 63
     7
421
 16777215
 74
     0
 91
        4
 64
     7
 65
   257
 75
     1
175
     1
 42
1.0
 92
        8
 66
     7
 43
1.0
 76
     1
 77
     6
 78
     2
 67
     7
 79
     5
170
     0
171
     0
290
     0
174
     0
 93
       13
 44
0.0
173
     0
291
     1
 45
0.0
  0
VISUALSTYLE
  5
2C
102
{ACAD_REACTORS
330
2A
102
}
102
{ACAD_XDICTIONARY
360
C2
102
}
330
2A
100
AcDbVisualStyle
  2
FlatWithEdges
 70
     1
 71
     2
 72
     1
 73
     1
 90
        2
 40
-0.6
 41
30.0
 62
     5
 63
     7
421
 16777215
 74
     1
 91
        4
 64
     7
 65
   257
 75
     1
175
     1
 42
1.0
 92
        0
 66
   257
 43
1.0
 76
     1
 77
     6
 78
     2
 67
     7
 79
     5
170
     0
171
     0
290
     0
174
     0
 93
       13
 44
0.0
173
     0
291
     1
 45
0.0
  0
VISUALSTYLE
  5
2D
102
{ACAD_REACTORS
330
2A
102
}
102
{ACAD_XDICTIONARY
360
C4
102
}
330
2A
100
AcDbVisualStyle
  2
Gouraud
 70
     2
 71
     2
 72
     2
 73
     1
 90
        2
 40
-0.6
 41
30.0
 62
     5
 63
     7
421
 16777215
 74
     0
 91
        4
 64
     7
 65
   257
 75
     1
175
     1
 42
1.0
 92
        0
 66
     7
 43
1.0
 76
     1
 77
     6
 78
     2
 67
     7
 79
     5
170
     0
171
     0
290
     0
174
     0
 93
       13
 44
0.0
173
     0
291
     1
 45
0.0
  0
VISUALSTYLE
  5
2E
102
{ACAD_REACTORS
330
2A
102
}
102
{ACAD_XDICTIONARY
360
C6
102
}
330
2A
100
AcDbVisualStyle
  2
GouraudWithEdges
 70
     3
 71
     2
 72
     2
 73
     1
 90
        2
 40
-0.6
 41
30.0
 62
     5
 63
     7
421
 16777215
 74
     1
 91
        4
 64
     7
 65
   257
 75
     1
175
     1
 42
1.0
 92
        0
 66
   257
 43
1.0
 76
     1
 77
     6
 78
     2
 67
     7
 79
     5
170
     0
171
     0
290
     0
174
     0
 93
       13
 44
0.0
173
     0
291
     1
 45
0.0
  0
VISUALSTYLE
  5
38
102
{ACAD_REACTORS
330
2A
102
}
102
{ACAD_XDICTIONARY
360
DA
102
}
330
2A
100
AcDbVisualStyle
  2
Linepattern
 70
    14
 71
     2
 72
     2
 73
     0
 90
        0
 40
-0.6
 41
-30.0
 62
     5
 63
     7
421
 16777215
 74
     1
 91
        4
 64
     7
 65
   257
 75
     7
175
     7
 42
1.0
 92
        8
 66
     7
 43
1.0
 76
     1
 77
     6
 78
     2
 67
     7
 79
     5
170
     0
171
     0
290
     0
174
     0
 93
        1
 44
0.0
173
     0
291
     1
 45
0.0
  0
VISUALSTYLE
  5
33
102
{ACAD_REACTORS
330
2A
102
}
102
{ACAD_XDICTIONARY
360
D0
102
}
330
2A
100
AcDbVisualStyle
  2
Realistic
 70
     8
 71
     2
 72
     2
 73
     0
 90
        0
 40
-0.6
 41
-30.0
 62
     5
 63
     7
421
 16777215
 74
     1
 91
        0
 64
     7
 65
   257
 75
     1
175
     1
 42
1.0
 92
        8
 66
     8
424
  7895160
 43
1.0
 76
     1
 77
     6
 78
     2
 67
     7
 79
     5
170
     0
171
     0
290
     0
174
     0
 93
       13
 44
0.0
173
     0
291
     0
 45
0.0
  0
VISUALSTYLE
  5
37
102
{ACAD_REACTORS
330
2A
102
}
102
{ACAD_XDICTIONARY
360
D8
102
}
330
2A
100
AcDbVisualStyle
  2
Thicken
 70
    13
 71
     2
 72
     2
 73
     0
 90
        0
 40
-0.6
 41
-30.0
 62
     5
 63
     7
421
 16777215
 74
     1
 91
        4
 64
     7
 65
   257
 75
     1
175
     1
 42
1.0
 92
       12
 66
     7
 43
1.0
 76
     1
 77
     6
 78
     2
 67
     7
 79
     5
170
     0
171
     0
290
     0
174
     0
 93
        1
 44
0.0
173
     0
291
     1
 45
0.0
  0
DICTIONARY
  5
C8
330
2F
100
AcDbDictionary
280
     1
281
     1
  3
ACAD_XREC_ROUNDTRIP
360
C9
  0
DICTIONARY
  5
CC
330
31
100
AcDbDictionary
280
     1
281
     1
  3
ACAD_XREC_ROUNDTRIP
360
CD
  0
DICTIONARY
  5
CA
330
30
100
AcDbDictionary
280
     1
281
     1
  3
ACAD_XREC_ROUNDTRIP
360
CB
  0
DICTIONARY
  5
CE
330
32
100
AcDbDictionary
280
     1
281
     1
  3
ACAD_XREC_ROUNDTRIP
360
CF
  0
DICTIONARY
  5
D6
330
36
100
AcDbDictionary
280
     1
281
     1
  3
ACAD_XREC_ROUNDTRIP
360
D7
  0
DICTIONARY
  5
DE
330
3A
100
AcDbDictionary
280
     1
281
     1
  3
ACAD_XREC_ROUNDTRIP
360
DF
  0
DICTIONARY
  5
D2
330
34
100
AcDbDictionary
280
     1
281
     1
  3
ACAD_XREC_ROUNDTRIP
360
D3
  0
DICTIONARY
  5
D4
330
35
100
AcDbDictionary
280
     1
281
     1
  3
ACAD_XREC_ROUNDTRIP
360
D5
  0
DICTIONARY
  5
DC
330
39
100
AcDbDictionary
280
     1
281
     1
  3
ACAD_XREC_ROUNDTRIP
360
DD
  0
DICTIONARY
  5
C0
330
2B
100
AcDbDictionary
280
     1
281
     1
  3
ACAD_XREC_ROUNDTRIP
360
C1
  0
DICTIONARY
  5
C2
330
2C
100
AcDbDictionary
280
     1
281
     1
  3
ACAD_XREC_ROUNDTRIP
360
C3
  0
DICTIONARY
  5
C4
330
2D
100
AcDbDictionary
280
     1
281
     1
  3
ACAD_XREC_ROUNDTRIP
360
C5
  0
DICTIONARY
  5
C6
330
2E
100
AcDbDictionary
280
     1
281
     1
  3
ACAD_XREC_ROUNDTRIP
360
C7
  0
DICTIONARY
  5
DA
330
38
100
AcDbDictionary
280
     1
281
     1
  3
ACAD_XREC_ROUNDTRIP
360
DB
  0
DICTIONARY
  5
D0
330
33
100
AcDbDictionary
280
     1
281
     1
  3
ACAD_XREC_ROUNDTRIP
360
D1
  0
DICTIONARY
  5
D8
330
37
100
AcDbDictionary
280
     1
281
     1
  3
ACAD_XREC_ROUNDTRIP
360
D9
  0
XRECORD
  5
C9
102
{ACAD_REACTORS
330
C8
102
}
330
C8
100
AcDbXrecord
280
     1
102
RTVSPropertyOp0
 70
     1
102
RTVSPropertyOp1
 70
     1
102
RTVSPropertyOp2
 70
     1
102
RTVSPropertyOp3
 70
     1
102
RTVSPropertyOp4
 70
     1
102
RTVSPropertyOp5
 70
     1
102
RTVSPropertyOp6
 70
     1
102
RTVSPropertyOp7
 70
     1
102
RTVSPropertyOp8
 70
     1
102
RTVSPropertyOp9
 70
     1
102
RTVSPropertyOp10
 70
     1
102
RTVSPropertyOp11
 70
     1
102
RTVSPropertyOp12
 70
     1
102
RTVSPropertyOp13
 70
     1
102
RTVSPropertyOp14
 70
     1
102
RTVSPropertyOp15
 70
     1
102
RTVSPropertyOp16
 70
     1
102
RTVSPropertyOp17
 70
     1
102
RTVSPropertyOp18
 70
     1
102
RTVSPropertyOp19
 70
     1
102
RTVSPropertyOp20
 70
     1
102
RTVSPropertyOp21
 70
     1
102
RTVSPropertyOp22
 70
     1
102
RTVSPropertyOp23
 70
     1
102
RTVSPropertyOp24
 70
     1
102
RTVSPropertyOp25
 70
     1
102
RTVSPropertyOp26
 70
     1
102
RTVSPropertyOp27
 70
     1
  0
XRECORD
  5
CD
102
{ACAD_REACTORS
330
CC
102
}
330
CC
100
AcDbXrecord
280
     1
102
RTVSPropertyOp0
 70
     1
102
RTVSPropertyOp1
 70
     1
102
RTVSPropertyOp2
 70
     1
102
RTVSPropertyOp3
 70
     1
102
RTVSPropertyOp4
 70
     1
102
RTVSPropertyOp5
 70
     1
102
RTVSPropertyOp6
 70
     1
102
RTVSPropertyOp7
 70
     1
102
RTVSPropertyOp8
 70
     1
102
RTVSPropertyOp9
 70
     1
102
RTVSPropertyOp10
 70
     1
102
RTVSPropertyOp11
 70
     1
102
RTVSPropertyOp12
 70
     1
102
RTVSPropertyOp13
 70
     1
102
RTVSPropertyOp14
 70
     1
102
RTVSPropertyOp15
 70
     1
102
RTVSPropertyOp16
 70
     1
102
RTVSPropertyOp17
 70
     1
102
RTVSPropertyOp18
 70
     1
102
RTVSPropertyOp19
 70
     1
102
RTVSPropertyOp20
 70
     1
102
RTVSPropertyOp21
 70
     1
102
RTVSPropertyOp22
 70
     1
102
RTVSPropertyOp23
 70
     1
102
RTVSPropertyOp24
 70
     1
102
RTVSPropertyOp25
 70
     1
102
RTVSPropertyOp26
 70
     1
102
RTVSPropertyOp27
 70
     1
  0
XRECORD
  5
CB
102
{ACAD_REACTORS
330
CA
102
}
330
CA
100
AcDbXrecord
280
     1
102
RTVSPropertyOp0
 70
     1
102
RTVSPropertyOp1
 70
     1
102
RTVSPropertyOp2
 70
     1
102
RTVSPropertyOp3
 70
     1
102
RTVSPropertyOp4
 70
     1
102
RTVSPropertyOp5
 70
     1
102
RTVSPropertyOp6
 70
     1
102
RTVSPropertyOp7
 70
     1
102
RTVSPropertyOp8
 70
     1
102
RTVSPropertyOp9
 70
     1
102
RTVSPropertyOp10
 70
     1
102
RTVSPropertyOp11
 70
     1
102
RTVSPropertyOp12
 70
     1
102
RTVSPropertyOp13
 70
     1
102
RTVSPropertyOp14
 70
     1
102
RTVSPropertyOp15
 70
     1
102
RTVSPropertyOp16
 70
     1
102
RTVSPropertyOp17
 70
     1
102
RTVSPropertyOp18
 70
     1
102
RTVSPropertyOp19
 70
     1
102
RTVSPropertyOp20
 70
     1
102
RTVSPropertyOp21
 70
     1
102
RTVSPropertyOp22
 70
     1
102
RTVSPropertyOp23
 70
     1
102
RTVSPropertyOp24
 70
     1
102
RTVSPropertyOp25
 70
     1
102
RTVSPropertyOp26
 70
     1
102
RTVSPropertyOp27
 70
     1
  0
XRECORD
  5
CF
102
{ACAD_REACTORS
330
CE
102
}
330
CE
100
AcDbXrecord
280
     1
102
RTVSPropertyOp0
 70
     1
102
RTVSPropertyOp1
 70
     1
102
RTVSPropertyOp2
 70
     1
102
RTVSPropertyOp3
 70
     1
102
RTVSPropertyOp4
 70
     1
102
RTVSPropertyOp5
 70
     1
102
RTVSPropertyOp6
 70
     1
102
RTVSPropertyOp7
 70
     1
102
RTVSPropertyOp8
 70
     1
102
RTVSPropertyOp9
 70
     1
102
RTVSPropertyOp10
 70
     1
102
RTVSPropertyOp11
 70
     1
102
RTVSPropertyOp12
 70
     1
102
RTVSPropertyOp13
 70
     1
102
RTVSPropertyOp14
 70
     1
102
RTVSPropertyOp15
 70
     1
102
RTVSPropertyOp16
 70
     1
102
RTVSPropertyOp17
 70
     1
102
RTVSPropertyOp18
 70
     1
102
RTVSPropertyOp19
 70
     1
102
RTVSPropertyOp20
 70
     1
102
RTVSPropertyOp21
 70
     1
102
RTVSPropertyOp22
 70
     1
102
RTVSPropertyOp23
 70
     1
102
RTVSPropertyOp24
 70
     1
102
RTVSPropertyOp25
 70
     1
102
RTVSPropertyOp26
 70
     1
102
RTVSPropertyOp27
 70
     1
  0
XRECORD
  5
D7
102
{ACAD_REACTORS
330
D6
102
}
330
D6
100
AcDbXrecord
280
     1
102
RTVSPropertyOp0
 70
     1
102
RTVSPropertyOp1
 70
     1
102
RTVSPropertyOp2
 70
     1
102
RTVSPropertyOp3
 70
     1
102
RTVSPropertyOp4
 70
     1
102
RTVSPropertyOp5
 70
     1
102
RTVSPropertyOp6
 70
     1
102
RTVSPropertyOp7
 70
     1
102
RTVSPropertyOp8
 70
     1
102
RTVSPropertyOp9
 70
     1
102
RTVSPropertyOp10
 70
     1
102
RTVSPropertyOp11
 70
     1
102
RTVSPropertyOp12
 70
     1
102
RTVSPropertyOp13
 70
     1
102
RTVSPropertyOp14
 70
     1
102
RTVSPropertyOp15
 70
     1
102
RTVSPropertyOp16
 70
     1
102
RTVSPropertyOp17
 70
     1
102
RTVSPropertyOp18
 70
     1
102
RTVSPropertyOp19
 70
     1
102
RTVSPropertyOp20
 70
     1
102
RTVSPropertyOp21
 70
     1
102
RTVSPropertyOp22
 70
     1
102
RTVSPropertyOp23
 70
     1
102
RTVSPropertyOp24
 70
     1
102
RTVSPropertyOp25
 70
     1
102
RTVSPropertyOp26
 70
     1
102
RTVSPropertyOp27
 70
     1
  0
XRECORD
  5
DF
102
{ACAD_REACTORS
330
DE
102
}
330
DE
100
AcDbXrecord
280
     1
102
RTVSPropertyOp0
 70
     1
102
RTVSPropertyOp1
 70
     1
102
RTVSPropertyOp2
 70
     1
102
RTVSPropertyOp3
 70
     1
102
RTVSPropertyOp4
 70
     1
102
RTVSPropertyOp5
 70
     1
102
RTVSPropertyOp6
 70
     1
102
RTVSPropertyOp7
 70
     1
102
RTVSPropertyOp8
 70
     1
102
RTVSPropertyOp9
 70
     1
102
RTVSPropertyOp10
 70
     1
102
RTVSPropertyOp11
 70
     1
102
RTVSPropertyOp12
 70
     1
102
RTVSPropertyOp13
 70
     1
102
RTVSPropertyOp14
 70
     1
102
RTVSPropertyOp15
 70
     1
102
RTVSPropertyOp16
 70
     1
102
RTVSPropertyOp17
 70
     1
102
RTVSPropertyOp18
 70
     1
102
RTVSPropertyOp19
 70
     1
102
RTVSPropertyOp20
 70
     1
102
RTVSPropertyOp21
 70
     1
102
RTVSPropertyOp22
 70
     1
102
RTVSPropertyOp23
 70
     1
102
RTVSPropertyOp24
 70
     1
102
RTVSPropertyOp25
 70
     1
102
RTVSPropertyOp26
 70
     1
102
RTVSPropertyOp27
 70
     1
  0
XRECORD
  5
D3
102
{ACAD_REACTORS
330
D2
102
}
330
D2
100
AcDbXrecord
280
     1
102
RTVSPropertyOp0
 70
     1
102
RTVSPropertyOp1
 70
     1
102
RTVSPropertyOp2
 70
     1
102
RTVSPropertyOp3
 70
     1
102
RTVSPropertyOp4
 70
     1
102
RTVSPropertyOp5
 70
     1
102
RTVSPropertyOp6
 70
     1
102
RTVSPropertyOp7
 70
     1
102
RTVSPropertyOp8
 70
     1
102
RTVSPropertyOp9
 70
     1
102
RTVSPropertyOp10
 70
     1
102
RTVSPropertyOp11
 70
     1
102
RTVSPropertyOp12
 70
     1
102
RTVSPropertyOp13
 70
     1
102
RTVSPropertyOp14
 70
     1
102
RTVSPropertyOp15
 70
     1
102
RTVSPropertyOp16
 70
     1
102
RTVSPropertyOp17
 70
     1
102
RTVSPropertyOp18
 70
     1
102
RTVSPropertyOp19
 70
     1
102
RTVSPropertyOp20
 70
     1
102
RTVSPropertyOp21
 70
     1
102
RTVSPropertyOp22
 70
     1
102
RTVSPropertyOp23
 70
     1
102
RTVSPropertyOp24
 70
     1
102
RTVSPropertyOp25
 70
     1
102
RTVSPropertyOp26
 70
     1
102
RTVSPropertyOp27
 70
     1
  0
XRECORD
  5
D5
102
{ACAD_REACTORS
330
D4
102
}
330
D4
100
AcDbXrecord
280
     1
102
RTVSPropertyOp0
 70
     1
102
RTVSPropertyOp1
 70
     1
102
RTVSPropertyOp2
 70
     1
102
RTVSPropertyOp3
 70
     1
102
RTVSPropertyOp4
 70
     1
102
RTVSPropertyOp5
 70
     1
102
RTVSPropertyOp6
 70
     1
102
RTVSPropertyOp7
 70
     1
102
RTVSPropertyOp8
 70
     1
102
RTVSPropertyOp9
 70
     1
102
RTVSPropertyOp10
 70
     1
102
RTVSPropertyOp11
 70
     1
102
RTVSPropertyOp12
 70
     1
102
RTVSPropertyOp13
 70
     1
102
RTVSPropertyOp14
 70
     1
102
RTVSPropertyOp15
 70
     1
102
RTVSPropertyOp16
 70
     1
102
RTVSPropertyOp17
 70
     1
102
RTVSPropertyOp18
 70
     1
102
RTVSPropertyOp19
 70
     1
102
RTVSPropertyOp20
 70
     1
102
RTVSPropertyOp21
 70
     1
102
RTVSPropertyOp22
 70
     1
102
RTVSPropertyOp23
 70
     1
102
RTVSPropertyOp24
 70
     1
102
RTVSPropertyOp25
 70
     1
102
RTVSPropertyOp26
 70
     1
102
RTVSPropertyOp27
 70
     1
  0
XRECORD
  5
DD
102
{ACAD_REACTORS
330
DC
102
}
330
DC
100
AcDbXrecord
280
     1
102
RTVSPropertyOp0
 70
     1
102
RTVSPropertyOp1
 70
     1
102
RTVSPropertyOp2
 70
     1
102
RTVSPropertyOp3
 70
     1
102
RTVSPropertyOp4
 70
     1
102
RTVSPropertyOp5
 70
     1
102
RTVSPropertyOp6
 70
     1
102
RTVSPropertyOp7
 70
     1
102
RTVSPropertyOp8
 70
     1
102
RTVSPropertyOp9
 70
     1
102
RTVSPropertyOp10
 70
     1
102
RTVSPropertyOp11
 70
     1
102
RTVSPropertyOp12
 70
     1
102
RTVSPropertyOp13
 70
     1
102
RTVSPropertyOp14
 70
     1
102
RTVSPropertyOp15
 70
     1
102
RTVSPropertyOp16
 70
     1
102
RTVSPropertyOp17
 70
     1
102
RTVSPropertyOp18
 70
     1
102
RTVSPropertyOp19
 70
     1
102
RTVSPropertyOp20
 70
     1
102
RTVSPropertyOp21
 70
     1
102
RTVSPropertyOp22
 70
     1
102
RTVSPropertyOp23
 70
     1
102
RTVSPropertyOp24
 70
     1
102
RTVSPropertyOp25
 70
     1
102
RTVSPropertyOp26
 70
     1
102
RTVSPropertyOp27
 70
     1
  0
XRECORD
  5
C1
102
{ACAD_REACTORS
330
C0
102
}
330
C0
100
AcDbXrecord
280
     1
102
RTVSPropertyOp0
 70
     1
102
RTVSPropertyOp1
 70
     1
102
RTVSPropertyOp2
 70
     1
102
RTVSPropertyOp3
 70
     1
102
RTVSPropertyOp4
 70
     1
102
RTVSPropertyOp5
 70
     1
102
RTVSPropertyOp6
 70
     1
102
RTVSPropertyOp7
 70
     1
102
RTVSPropertyOp8
 70
     1
102
RTVSPropertyOp9
 70
     1
102
RTVSPropertyOp10
 70
     1
102
RTVSPropertyOp11
 70
     1
102
RTVSPropertyOp12
 70
     1
102
RTVSPropertyOp13
 70
     1
102
RTVSPropertyOp14
 70
     1
102
RTVSPropertyOp15
 70
     1
102
RTVSPropertyOp16
 70
     1
102
RTVSPropertyOp17
 70
     1
102
RTVSPropertyOp18
 70
     1
102
RTVSPropertyOp19
 70
     1
102
RTVSPropertyOp20
 70
     1
102
RTVSPropertyOp21
 70
     1
102
RTVSPropertyOp22
 70
     1
102
RTVSPropertyOp23
 70
     1
102
RTVSPropertyOp24
 70
     1
102
RTVSPropertyOp25
 70
     1
102
RTVSPropertyOp26
 70
     1
102
RTVSPropertyOp27
 70
     1
  0
XRECORD
  5
C3
102
{ACAD_REACTORS
330
C2
102
}
330
C2
100
AcDbXrecord
280
     1
102
RTVSPropertyOp0
 70
     1
102
RTVSPropertyOp1
 70
     1
102
RTVSPropertyOp2
 70
     1
102
RTVSPropertyOp3
 70
     1
102
RTVSPropertyOp4
 70
     1
102
RTVSPropertyOp5
 70
     1
102
RTVSPropertyOp6
 70
     1
102
RTVSPropertyOp7
 70
     1
102
RTVSPropertyOp8
 70
     1
102
RTVSPropertyOp9
 70
     1
102
RTVSPropertyOp10
 70
     1
102
RTVSPropertyOp11
 70
     1
102
RTVSPropertyOp12
 70
     1
102
RTVSPropertyOp13
 70
     1
102
RTVSPropertyOp14
 70
     1
102
RTVSPropertyOp15
 70
     1
102
RTVSPropertyOp16
 70
     1
102
RTVSPropertyOp17
 70
     1
102
RTVSPropertyOp18
 70
     1
102
RTVSPropertyOp19
 70
     1
102
RTVSPropertyOp20
 70
     1
102
RTVSPropertyOp21
 70
     1
102
RTVSPropertyOp22
 70
     1
102
RTVSPropertyOp23
 70
     1
102
RTVSPropertyOp24
 70
     1
102
RTVSPropertyOp25
 70
     1
102
RTVSPropertyOp26
 70
     1
102
RTVSPropertyOp27
 70
     1
  0
XRECORD
  5
C5
102
{ACAD_REACTORS
330
C4
102
}
330
C4
100
AcDbXrecord
280
     1
102
RTVSPropertyOp0
 70
     1
102
RTVSPropertyOp1
 70
     1
102
RTVSPropertyOp2
 70
     1
102
RTVSPropertyOp3
 70
     1
102
RTVSPropertyOp4
 70
     1
102
RTVSPropertyOp5
 70
     1
102
RTVSPropertyOp6
 70
     1
102
RTVSPropertyOp7
 70
     1
102
RTVSPropertyOp8
 70
     1
102
RTVSPropertyOp9
 70
     1
102
RTVSPropertyOp10
 70
     1
102
RTVSPropertyOp11
 70
     1
102
RTVSPropertyOp12
 70
     1
102
RTVSPropertyOp13
 70
     1
102
RTVSPropertyOp14
 70
     1
102
RTVSPropertyOp15
 70
     1
102
RTVSPropertyOp16
 70
     1
102
RTVSPropertyOp17
 70
     1
102
RTVSPropertyOp18
 70
     1
102
RTVSPropertyOp19
 70
     1
102
RTVSPropertyOp20
 70
     1
102
RTVSPropertyOp21
 70
     1
102
RTVSPropertyOp22
 70
     1
102
RTVSPropertyOp23
 70
     1
102
RTVSPropertyOp24
 70
     1
102
RTVSPropertyOp25
 70
     1
102
RTVSPropertyOp26
 70
     1
102
RTVSPropertyOp27
 70
     1
  0
XRECORD
  5
C7
102
{ACAD_REACTORS
330
C6
102
}
330
C6
100
AcDbXrecord
280
     1
102
RTVSPropertyOp0
 70
     1
102
RTVSPropertyOp1
 70
     1
102
RTVSPropertyOp2
 70
     1
102
RTVSPropertyOp3
 70
     1
102
RTVSPropertyOp4
 70
     1
102
RTVSPropertyOp5
 70
     1
102
RTVSPropertyOp6
 70
     1
102
RTVSPropertyOp7
 70
     1
102
RTVSPropertyOp8
 70
     1
102
RTVSPropertyOp9
 70
     1
102
RTVSPropertyOp10
 70
     1
102
RTVSPropertyOp11
 70
     1
102
RTVSPropertyOp12
 70
     1
102
RTVSPropertyOp13
 70
     1
102
RTVSPropertyOp14
 70
     1
102
RTVSPropertyOp15
 70
     1
102
RTVSPropertyOp16
 70
     1
102
RTVSPropertyOp17
 70
     1
102
RTVSPropertyOp18
 70
     1
102
RTVSPropertyOp19
 70
     1
102
RTVSPropertyOp20
 70
     1
102
RTVSPropertyOp21
 70
     1
102
RTVSPropertyOp22
 70
     1
102
RTVSPropertyOp23
 70
     1
102
RTVSPropertyOp24
 70
     1
102
RTVSPropertyOp25
 70
     1
102
RTVSPropertyOp26
 70
     1
102
RTVSPropertyOp27
 70
     1
  0
XRECORD
  5
DB
102
{ACAD_REACTORS
330
DA
102
}
330
DA
100
AcDbXrecord
280
     1
102
RTVSPropertyOp0
 70
     1
102
RTVSPropertyOp1
 70
     1
102
RTVSPropertyOp2
 70
     1
102
RTVSPropertyOp3
 70
     1
102
RTVSPropertyOp4
 70
     1
102
RTVSPropertyOp5
 70
     1
102
RTVSPropertyOp6
 70
     1
102
RTVSPropertyOp7
 70
     1
102
RTVSPropertyOp8
 70
     1
102
RTVSPropertyOp9
 70
     1
102
RTVSPropertyOp10
 70
     1
102
RTVSPropertyOp11
 70
     1
102
RTVSPropertyOp12
 70
     1
102
RTVSPropertyOp13
 70
     1
102
RTVSPropertyOp14
 70
     1
102
RTVSPropertyOp15
 70
     1
102
RTVSPropertyOp16
 70
     1
102
RTVSPropertyOp17
 70
     1
102
RTVSPropertyOp18
 70
     1
102
RTVSPropertyOp19
 70
     1
102
RTVSPropertyOp20
 70
     1
102
RTVSPropertyOp21
 70
     1
102
RTVSPropertyOp22
 70
     1
102
RTVSPropertyOp23
 70
     1
102
RTVSPropertyOp24
 70
     1
102
RTVSPropertyOp25
 70
     1
102
RTVSPropertyOp26
 70
     1
102
RTVSPropertyOp27
 70
     1
  0
XRECORD
  5
D1
102
{ACAD_REACTORS
330
D0
102
}
330
D0
100
AcDbXrecord
280
     1
102
RTVSPropertyOp0
 70
     1
102
RTVSPropertyOp1
 70
     1
102
RTVSPropertyOp2
 70
     1
102
RTVSPropertyOp3
 70
     1
102
RTVSPropertyOp4
 70
     1
102
RTVSPropertyOp5
 70
     1
102
RTVSPropertyOp6
 70
     1
102
RTVSPropertyOp7
 70
     1
102
RTVSPropertyOp8
 70
     1
102
RTVSPropertyOp9
 70
     1
102
RTVSPropertyOp10
 70
     1
102
RTVSPropertyOp11
 70
     1
102
RTVSPropertyOp12
 70
     1
102
RTVSPropertyOp13
 70
     1
102
RTVSPropertyOp14
 70
     1
102
RTVSPropertyOp15
 70
     1
102
RTVSPropertyOp16
 70
     1
102
RTVSPropertyOp17
 70
     1
102
RTVSPropertyOp18
 70
     1
102
RTVSPropertyOp19
 70
     1
102
RTVSPropertyOp20
 70
     1
102
RTVSPropertyOp21
 70
     1
102
RTVSPropertyOp22
 70
     1
102
RTVSPropertyOp23
 70
     1
102
RTVSPropertyOp24
 70
     1
102
RTVSPropertyOp25
 70
     1
102
RTVSPropertyOp26
 70
     1
102
RTVSPropertyOp27
 70
     1
  0
XRECORD
  5
D9
102
{ACAD_REACTORS
330
D8
102
}
330
D8
100
AcDbXrecord
280
     1
102
RTVSPropertyOp0
 70
     1
102
RTVSPropertyOp1
 70
     1
102
RTVSPropertyOp2
 70
     1
102
RTVSPropertyOp3
 70
     1
102
RTVSPropertyOp4
 70
     1
102
RTVSPropertyOp5
 70
     1
102
RTVSPropertyOp6
 70
     1
102
RTVSPropertyOp7
 70
     1
102
RTVSPropertyOp8
 70
     1
102
RTVSPropertyOp9
 70
     1
102
RTVSPropertyOp10
 70
     1
102
RTVSPropertyOp11
 70
     1
102
RTVSPropertyOp12
 70
     1
102
RTVSPropertyOp13
 70
     1
102
RTVSPropertyOp14
 70
     1
102
RTVSPropertyOp15
 70
     1
102
RTVSPropertyOp16
 70
     1
102
RTVSPropertyOp17
 70
     1
102
RTVSPropertyOp18
 70
     1
102
RTVSPropertyOp19
 70
     1
102
RTVSPropertyOp20
 70
     1
102
RTVSPropertyOp21
 70
     1
102
RTVSPropertyOp22
 70
     1
102
RTVSPropertyOp23
 70
     1
102
RTVSPropertyOp24
 70
     1
102
RTVSPropertyOp25
 70
     1
102
RTVSPropertyOp26
 70
     1
102
RTVSPropertyOp27
 70
     1
  0
ENDSEC
  0
EOF
