  0
SECTION
  2
HEADER
  9
$ACADVER
  1
AC1015
  9
$ACADMAINTVER
 70
    20
  9
$DWGCODEPAGE
  3
ANSI_1252
  9
$INSBASE
 10
0.0
 20
0.0
 30
0.0
  9
$EXTMIN
 10
-5.294879167092501
 20
1.479650087151802
 30
0.0
  9
$EXTMAX
 10
7.716743438493981
 20
14.49127269273828
 30
0.0
  9
$LIMMIN
 10
0.0
 20
0.0
  9
$LIMMAX
 10
12.0
 20
9.0
  9
$ORTHOMODE
 70
     0
  9
$REGENMODE
 70
     1
  9
$FILLMODE
 70
     1
  9
$QTEXTMODE
 70
     0
  9
$MIRRTEXT
 70
     0
  9
$LTSCALE
 40
1.0
  9
$ATTMODE
 70
     1
  9
$TEXTSIZE
 40
0.2
  9
$TRACEWID
 40
0.05
  9
$TEXTSTYLE
  7
Standard
  9
$CLAYER
  8
0
  9
$CELTYPE
  6
ByLayer
  9
$CECOLOR
 62
   256
  9
$CELTSCALE
 40
1.0
  9
$DISPSILH
 70
     0
  9
$DIMSCALE
 40
1.0
  9
$DIMASZ
 40
0.18
  9
$DIMEXO
 40
0.0625
  9
$DIMDLI
 40
0.38
  9
$DIMRND
 40
0.0
  9
$DIMDLE
 40
0.0
  9
$DIMEXE
 40
0.18
  9
$DIMTP
 40
0.0
  9
$DIMTM
 40
0.0
  9
$DIMTXT
 40
0.18
  9
$DIMCEN
 40
0.09
  9
$DIMTSZ
 40
0.0
  9
$DIMTOL
 70
     0
  9
$DIMLIM
 70
     0
  9
$DIMTIH
 70
     1
  9
$DIMTOH
 70
     1
  9
$DIMSE1
 70
     0
  9
$DIMSE2
 70
     0
  9
$DIMTAD
 70
     0
  9
$DIMZIN
 70
     0
  9
$DIMBLK
  1

  9
$DIMASO
 70
     1
  9
$DIMSHO
 70
     1
  9
$DIMPOST
  1

  9
$DIMAPOST
  1

  9
$DIMALT
 70
     0
  9
$DIMALTD
 70
     2
  9
$DIMALTF
 40
25.4
  9
$DIMLFAC
 40
1.0
  9
$DIMTOFL
 70
     0
  9
$DIMTVP
 40
0.0
  9
$DIMTIX
 70
     0
  9
$DIMSOXD
 70
     0
  9
$DIMSAH
 70
     0
  9
$DIMBLK1
  1

  9
$DIMBLK2
  1

  9
$DIMSTYLE
  2
Standard
  9
$DIMCLRD
 70
     0
  9
$DIMCLRE
 70
     0
  9
$DIMCLRT
 70
     0
  9
$DIMTFAC
 40
1.0
  9
$DIMGAP
 40
0.09
  9
$DIMJUST
 70
     0
  9
$DIMSD1
 70
     0
  9
$DIMSD2
 70
     0
  9
$DIMTOLJ
 70
     1
  9
$DIMTZIN
 70
     0
  9
$DIMALTZ
 70
     0
  9
$DIMALTTZ
 70
     0
  9
$DIMUPT
 70
     0
  9
$DIMDEC
 70
     4
  9
$DIMTDEC
 70
     4
  9
$DIMALTU
 70
     2
  9
$DIMALTTD
 70
     2
  9
$DIMTXSTY
  7
Standard
  9
$DIMAUNIT
 70
     0
  9
$DIMADEC
 70
     0
  9
$DIMALTRND
 40
0.0
  9
$DIMAZIN
 70
     0
  9
$DIMDSEP
 70
    46
  9
$DIMATFIT
 70
     3
  9
$DIMFRAC
 70
     0
  9
$DIMLDRBLK
  1

  9
$DIMLUNIT
 70
     2
  9
$DIMLWD
 70
    -2
  9
$DIMLWE
 70
    -2
  9
$DIMTMOVE
 70
     0
  9
$LUNITS
 70
     2
  9
$LUPREC
 70
     4
  9
$SKETCHINC
 40
0.1
  9
$FILLETRAD
 40
0.0
  9
$AUNITS
 70
     0
  9
$AUPREC
 70
     0
  9
$MENU
  1
.
  9
$ELEVATION
 40
0.0
  9
$PELEVATION
 40
0.0
  9
$THICKNESS
 40
0.0
  9
$LIMCHECK
 70
     0
  9
$CHAMFERA
 40
0.0
  9
$CHAMFERB
 40
0.0
  9
$CHAMFERC
 40
0.0
  9
$CHAMFERD
 40
0.0
  9
$SKPOLY
 70
     0
  9
$TDCREATE
 40
2453353.508792488
  9
$TDUCREATE
 40
2453353.717125822
  9
$TDUPDATE
 40
2454702.797538878
  9
$TDUUPDATE
 40
2454703.005872211
  9
$TDINDWG
 40
9763408.075090383
  9
$TDUSRTIMER
 40
9763408.075090383
  9
$USRTIMER
 70
     1
  9
$ANGBASE
 50
0.0
  9
$ANGDIR
 70
     0
  9
$PDMODE
 70
     0
  9
$PDSIZE
 40
0.0
  9
$PLINEWID
 40
0.0
  9
$SPLFRAME
 70
     0
  9
$SPLINETYPE
 70
     6
  9
$SPLINESEGS
 70
     8
  9
$HANDSEED
  5
2F77
  9
$SURFTAB1
 70
     6
  9
$SURFTAB2
 70
     6
  9
$SURFTYPE
 70
     6
  9
$SURFU
 70
     6
  9
$SURFV
 70
     6
  9
$UCSBASE
  2

  9
$UCSNAME
  2

  9
$UCSORG
 10
0.0
 20
0.0
 30
0.0
  9
$UCSXDIR
 10
1.0
 20
0.0
 30
0.0
  9
$UCSYDIR
 10
0.0
 20
1.0
 30
0.0
  9
$UCSORTHOREF
  2

  9
$UCSORTHOVIEW
 70
     0
  9
$UCSORGTOP
 10
0.0
 20
0.0
 30
0.0
  9
$UCSORGBOTTOM
 10
0.0
 20
0.0
 30
0.0
  9
$UCSORGLEFT
 10
0.0
 20
0.0
 30
0.0
  9
$UCSORGRIGHT
 10
0.0
 20
0.0
 30
0.0
  9
$UCSORGFRONT
 10
0.0
 20
0.0
 30
0.0
  9
$UCSORGBACK
 10
0.0
 20
0.0
 30
0.0
  9
$PUCSBASE
  2

  9
$PUCSNAME
  2

  9
$PUCSORG
 10
0.0
 20
0.0
 30
0.0
  9
$PUCSXDIR
 10
1.0
 20
0.0
 30
0.0
  9
$PUCSYDIR
 10
0.0
 20
1.0
 30
0.0
  9
$PUCSORTHOREF
  2

  9
$PUCSORTHOVIEW
 70
     0
  9
$PUCSORGTOP
 10
0.0
 20
0.0
 30
0.0
  9
$PUCSORGBOTTOM
 10
0.0
 20
0.0
 30
0.0
  9
$PUCSORGLEFT
 10
0.0
 20
0.0
 30
0.0
  9
$PUCSORGRIGHT
 10
0.0
 20
0.0
 30
0.0
  9
$PUCSORGFRONT
 10
0.0
 20
0.0
 30
0.0
  9
$PUCSORGBACK
 10
0.0
 20
0.0
 30
0.0
  9
$USERI1
 70
     0
  9
$USERI2
 70
     0
  9
$USERI3
 70
     0
  9
$USERI4
 70
     0
  9
$USERI5
 70
     0
  9
$USERR1
 40
0.0
  9
$USERR2
 40
0.0
  9
$USERR3
 40
0.0
  9
$USERR4
 40
0.0
  9
$USERR5
 40
0.0
  9
$WORLDVIEW
 70
     1
  9
$SHADEDGE
 70
     3
  9
$SHADEDIF
 70
    70
  9
$TILEMODE
 70
     1
  9
$MAXACTVP
 70
    64
  9
$PINSBASE
 10
0.0
 20
0.0
 30
0.0
  9
$PLIMCHECK
 70
     0
  9
$PEXTMIN
 10
1.000000000000000E 20
 20
1.000000000000000E 20
 30
1.000000000000000E 20
  9
$PEXTMAX
 10
-1.000000000000000E 20
 20
-1.000000000000000E 20
 30
-1.000000000000000E 20
  9
$PLIMMIN
 10
0.0
 20
0.0
  9
$PLIMMAX
 10
12.0
 20
9.0
  9
$UNITMODE
 70
     0
  9
$VISRETAIN
 70
     1
  9
$PLINEGEN
 70
     0
  9
$PSLTSCALE
 70
     1
  9
$TREEDEPTH
 70
  3020
  9
$CMLSTYLE
  2
Standard
  9
$CMLJUST
 70
     0
  9
$CMLSCALE
 40
1.0
  9
$PROXYGRAPHICS
 70
     1
  9
$MEASUREMENT
 70
     0
  9
$CELWEIGHT
370
    -1
  9
$ENDCAPS
280
     0
  9
$JOINSTYLE
280
     0
  9
$LWDISPLAY
290
     0
  9
$INSUNITS
 70
     1
  9
$HYPERLINKBASE
  1

  9
$STYLESHEET
  1

  9
$XEDIT
290
     0
  9
$CEPSNTYPE
380
     0
  9
$PSTYLEMODE
290
     1
  9
$FINGERPRINTGUID
  2
{A8C9F376-D1D3-46D5-9313-C61AEC2E4F41}
  9
$VERSIONGUID
  2
{29259956-C53B-4396-9F06-6980D1CA3AD3}
  9
$EXTNAMES
290
     1
  9
$PSVPSCALE
 40
0.0
  9
$OLESTARTUP
290
     0
  0
ENDSEC
  0
SECTION
  2
CLASSES
  0
CLASS
  1
ACDBDICTIONARYWDFLT
  2
AcDbDictionaryWithDefault
  3
ObjectDBX Classes
 90
        0
280
     0
281
     0
  0
CLASS
  1
ACDBPLACEHOLDER
  2
AcDbPlaceHolder
  3
ObjectDBX Classes
 90
        0
280
     0
281
     0
  0
CLASS
  1
LAYOUT
  2
AcDbLayout
  3
ObjectDBX Classes
 90
        0
280
     0
281
     0
  0
CLASS
  1
DICTIONARYVAR
  2
AcDbDictionaryVar
  3
ObjectDBX Classes
 90
        0
280
     0
281
     0
  0
CLASS
  1
TABLESTYLE
  2
AcDbTableStyle
  3
ObjectDBX Classes
 90
     4095
280
     0
281
     0
  0
CLASS
  1
MATERIAL
  2
AcDbMaterial
  3
ObjectDBX Classes
 90
     1024
280
     0
281
     0
  0
CLASS
  1
VISUALSTYLE
  2
AcDbVisualStyle
  3
ObjectDBX Classes
 90
     4095
280
     0
281
     0
  0
ENDSEC
  0
SECTION
  2
TABLES
  0
TABLE
  2
VPORT
  5
8
330
0
100
AcDbSymbolTable
 70
     1
  0
VPORT
  5
97
330
8
100
AcDbSymbolTableRecord
100
AcDbViewportTableRecord
  2
*Active
 70
     0
 10
0.0
 20
0.0
 11
1.0
 21
1.0
 12
3.325533183281553
 22
7.532277388481854
 13
0.0
 23
0.0
 14
0.5
 24
0.5
 15
0.5
 25
0.5
 16
0.0
 26
0.0
 36
1.0
 17
0.0
 27
0.0
 37
0.0
 40
15.0482017169602
 41
1.821092278719397
 42
50.0
 43
0.0
 44
0.0
 50
0.0
 51
0.0
 71
    16
 72
  1000
 73
     1
 74
     1
 75
     0
 76
     0
 77
     0
 78
     0
281
     0
 65
     1
110
0.0
120
0.0
130
0.0
111
1.0
121
0.0
131
0.0
112
0.0
122
1.0
132
0.0
 79
     0
146
0.0
  0
ENDTAB
  0
TABLE
  2
LTYPE
  5
5
330
0
100
AcDbSymbolTable
 70
     1
  0
LTYPE
  5
14
330
5
100
AcDbSymbolTableRecord
100
AcDbLinetypeTableRecord
  2
ByBlock
 70
     0
  3

 72
    65
 73
     0
 40
0.0
  0
LTYPE
  5
15
330
5
100
AcDbSymbolTableRecord
100
AcDbLinetypeTableRecord
  2
ByLayer
 70
     0
  3

 72
    65
 73
     0
 40
0.0
  0
LTYPE
  5
16
330
5
100
AcDbSymbolTableRecord
100
AcDbLinetypeTableRecord
  2
Continuous
 70
     0
  3
Solid line
 72
    65
 73
     0
 40
0.0
  0
ENDTAB
  0
TABLE
  2
LAYER
  5
2
330
0
100
AcDbSymbolTable
 70
     1
  0
LAYER
  5
10
330
2
100
AcDbSymbolTableRecord
100
AcDbLayerTableRecord
  2
0
 70
     0
 62
     7
  6
Continuous
370
    -3
390
F
  0
ENDTAB
  0
TABLE
  2
STYLE
  5
3
330
0
100
AcDbSymbolTable
 70
     1
  0
STYLE
  5
11
330
3
100
AcDbSymbolTableRecord
100
AcDbTextStyleTableRecord
  2
Standard
 70
     0
 40
0.0
 41
1.0
 50
0.0
 71
     0
 42
0.2
  3
ariblk.ttf
  4

1001
ACAD
1000
Arial Black
1071
 33554466
  0
ENDTAB
  0
TABLE
  2
VIEW
  5
6
330
0
100
AcDbSymbolTable
 70
     0
  0
ENDTAB
  0
TABLE
  2
UCS
  5
7
330
0
100
AcDbSymbolTable
 70
     0
  0
ENDTAB
  0
TABLE
  2
APPID
  5
9
330
0
100
AcDbSymbolTable
 70
     1
  0
APPID
  5
12
330
9
100
AcDbSymbolTableRecord
100
AcDbRegAppTableRecord
  2
ACAD
 70
     0
  0
ENDTAB
  0
TABLE
  2
DIMSTYLE
  5
A
330
0
100
AcDbSymbolTable
 70
     1
100
AcDbDimStyleTable
 71
     0
  0
DIMSTYLE
105
27
330
A
100
AcDbSymbolTableRecord
100
AcDbDimStyleTableRecord
  2
Standard
 70
     0
340
11
  0
ENDTAB
  0
TABLE
  2
BLOCK_RECORD
  5
1
330
0
100
AcDbSymbolTable
 70
     1
  0
BLOCK_RECORD
  5
1F
330
1
100
AcDbSymbolTableRecord
100
AcDbBlockTableRecord
  2
*Model_Space
340
22
  0
BLOCK_RECORD
  5
73
330
1
100
AcDbSymbolTableRecord
100
AcDbBlockTableRecord
  2
*Paper_Space
340
74
  0
BLOCK_RECORD
  5
25
330
1
100
AcDbSymbolTableRecord
100
AcDbBlockTableRecord
  2
*Paper_Space0
340
28
  0
ENDTAB
  0
ENDSEC
  0
SECTION
  2
BLOCKS
  0
BLOCK
  5
20
330
1F
100
AcDbEntity
  8
0
100
AcDbBlockBegin
  2
*Model_Space
 70
     0
 10
0.0
 20
0.0
 30
0.0
  3
*Model_Space
  1

  0
ENDBLK
  5
21
330
1F
100
AcDbEntity
  8
0
100
AcDbBlockEnd
  0
BLOCK
  5
75
330
73
100
AcDbEntity
 67
     1
  8
0
100
AcDbBlockBegin
  2
*Paper_Space
 70
     0
 10
0.0
 20
0.0
 30
0.0
  3
*Paper_Space
  1

  0
ENDBLK
  5
76
330
73
100
AcDbEntity
 67
     1
  8
0
100
AcDbBlockEnd
  0
BLOCK
  5
2F4B
330
25
100
AcDbEntity
 67
     1
  8
0
100
AcDbBlockBegin
  2
*Paper_Space0
 70
     0
 10
0.0
 20
0.0
 30
0.0
  3
*Paper_Space0
  1

  0
ENDBLK
  5
2F4C
330
25
100
AcDbEntity
 67
     1
  8
0
100
AcDbBlockEnd
  0
ENDSEC
  0
SECTION
  2
ENTITIES
  0
CIRCLE
  5
31
330
1F
100
AcDbEntity
  8
0
100
AcDbCircle
 10
1.21093213570074
 20
7.985461389945044
 30
0.0
 40
6.505811302793241
  0
LWPOLYLINE
  5
17BC
330
1F
100
AcDbEntity
  8
0
100
AcDbPolyline
 90
      213
 70
     0
 43
0.0
 10
1.320881466059821
 20
3.344010832513027
 10
1.305673013604543
 20
3.363063543014913
 10
1.285187139339313
 20
3.390102744153723
 10
1.269890475478647
 20
3.411451630878937
 10
1.259003526897397
 20
3.42752222204243
 10
1.251746798470413
 20
3.438726536496063
 10
1.247363066361836
 20
3.445574957952729
 10
1.245184191892966
 20
3.44897132956945
 10
1.244564307674395
 20
3.449917859364278
 10
1.244857546316713
 20
3.449416755355251
 10
1.245418040430511
 20
3.448470225560426
 10
1.245599922626379
 20
3.448080477997853
 10
1.244757325514908
 20
3.449249720685576
 10
1.242244381706689
 20
3.452980161641647
 10
1.237602673830503
 20
3.460284216558374
 10
1.231123584587894
 20
3.47221513182509
 10
1.223285946698597
 20
3.489836361505398
 10
1.214568592882345
 20
3.514211359662889
 10
1.205450355858874
 20
3.546403580361166
 10
1.196410068347917
 20
3.587476477663818
 10
1.18792656306921
 20
3.638493505634445
 10
1.180478672742487
 20
3.700518118336642
 10
1.174478416219612
 20
3.773938207392214
 10
1.170070556880971
 20
3.856439414655774
 10
1.167333044239078
 20
3.945031819540139
 10
1.166343827806448
 20
4.036725501458132
 10
1.167180857095597
 20
4.128530539822581
 10
1.169922081619038
 20
4.217457014046297
 10
1.174645450889287
 20
4.300515003542104
 10
1.181428914418859
 20
4.374714587722822
 10
1.190285463793174
 20
4.43780543839978
 10
1.200968258889266
 20
4.490495596978316
 10
1.213165501657076
 20
4.534232697262281
 10
1.226565394046546
 20
4.570464373055527
 10
1.240856138007614
 20
4.600638258161895
 10
1.255725935490222
 20
4.626201986385241
 10
1.27086298844431
 20
4.648603191529409
 10
1.285955498819817
 20
4.669289507398249
 10
1.300732499263717
 20
4.689476575198838
 10
1.315086345211107
 20
4.709452065751175
 10
1.328950222794117
 20
4.72927165727848
 10
1.342257318144878
 20
4.748991028003979
 10
1.35494081739552
 20
4.768665856150902
 10
1.366933906678173
 20
4.788351819942465
 10
1.378169772124966
 20
4.808104597601901
 10
1.38858159986803
 20
4.82797986735243
 10
1.398147118618076
 20
4.847979485134828
 10
1.407022227400131
 20
4.867890017760068
 10
1.415407367817807
 20
4.887444209756671
 10
1.423502981474714
 20
4.906374805653151
 10
1.431509509974461
 20
4.924414549978028
 10
1.439627394920657
 20
4.941296187259832
 10
1.448057077916913
 20
4.956752462027078
 10
1.456999000566839
 20
4.970516118808284
 10
1.466581222783852
 20
4.982355165006679
 10
1.476642277720599
 20
4.992178659524332
 10
1.486948316839535
 20
4.999930924138019
 10
1.497265491603117
 20
5.005556280624513
 10
1.507359953473799
 20
5.008999050760586
 10
1.516997853914037
 20
5.010203556323021
 10
1.525945344386285
 20
5.009114119088584
 10
1.533968576352999
 20
5.005675060834057
 10
1.540913506729923
 20
4.999908652848731
 10
1.546945314245959
 20
4.992148964471947
 10
1.552308983083295
 20
4.982808014555575
 10
1.557249497424121
 20
4.972297821951481
 10
1.562011841450628
 20
4.961030405511526
 10
1.566840999345005
 20
4.949417784087577
 10
1.571981955289441
 20
4.937871976531496
 10
1.577679693466127
 20
4.926805001695154
 10
1.584090112900092
 20
4.916478547227701
 10
1.591012771987726
 20
4.906552975967469
 10
1.598158143968261
 20
4.896538319550077
 10
1.605236702080925
 20
4.885944609611143
 10
1.611958919564949
 20
4.87428187778629
 10
1.618035269659565
 20
4.861060155711145
 10
1.623176225604001
 20
4.845789475021317
 10
1.627092260637489
 20
4.82797986735243
 10
1.629582933156418
 20
4.807330670299073
 10
1.630804142185818
 20
4.784298445291691
 10
1.63100087190788
 20
4.759529059719685
 10
1.630418106504792
 20
4.733668380972474
 10
1.629300830158745
 20
4.707362276439464
 10
1.627894027051928
 20
4.681256613510065
 10
1.626442681366531
 20
4.655997259573678
 10
1.625191777284744
 20
4.632230082019726
 10
1.624365883640241
 20
4.610402362574773
 10
1.624107907872632
 20
4.590167040314059
 10
1.624540342073012
 20
4.570978468649968
 10
1.625785678332477
 20
4.552291000994901
 10
1.627966408742121
 20
4.533558990761258
 10
1.631205025393038
 20
4.514236791361431
 10
1.635624020376324
 20
4.493778756207813
 10
1.641345885783074
 20
4.471639238712801
 10
1.648457850829673
 20
4.447411787846856
 10
1.656906093233671
 20
4.421246734812679
 10
1.666601527837908
 20
4.393433606371047
 10
1.677455069485223
 20
4.364261929282726
 10
1.689377633018457
 20
4.334021230308486
 10
1.70228013328045
 20
4.303001036209095
 10
1.716073485114043
 20
4.271490873745329
 10
1.730668603362074
 20
4.239780269677949
 10
1.745928148407257
 20
4.208156894826954
 10
1.761521762791789
 20
4.176900996249247
 10
1.777070834597741
 20
4.146290965060947
 10
1.792196751907184
 20
4.116605192378183
 10
1.806520902802187
 20
4.088122069317076
 10
1.819664675364822
 20
4.061119986993755
 10
1.831249457677158
 20
4.035877336524339
 10
1.840896637821266
 20
4.012672509024957
 10
1.848307409332506
 20
3.991728217388507
 10
1.853502187559393
 20
3.973044461614994
 10
1.856581193303732
 20
3.956565563481182
 10
1.857644647367329
 20
3.942235844763858
 10
1.856792770551987
 20
3.929999627239789
 10
1.854125783659512
 20
3.919801232685752
 10
1.84974390749171
 20
3.911584982878527
 10
1.843747362850383
 20
3.905295199594885
 10
1.836260497767403
 20
3.900879916493145
 10
1.827504169194893
 20
3.898302014757832
 10
1.817723361315045
 20
3.897528087455004
 10
1.807163058310047
 20
3.898524727650729
 10
1.796068244362091
 20
3.901258528411075
 10
1.784683903653365
 20
3.905696082802104
 10
1.773255020366058
 20
3.911803983889879
 10
1.762026578682361
 20
3.919548824740469
 10
1.751199020205885
 20
3.928876783071422
 10
1.740794616225917
 20
3.93965237520622
 10
1.730791095453169
 20
3.951719702119841
 10
1.721166186598351
 20
3.964922864787252
 10
1.711897618372172
 20
3.979105964183417
 10
1.702963119485343
 20
3.994113101283313
 10
1.694340418648574
 20
4.009788377061906
 10
1.686007244572574
 20
4.02597589249417
 10
1.677945037849602
 20
4.042460358450304
 10
1.67015008659811
 20
4.058788925381405
 10
1.662622390818099
 20
4.074449353633806
 10
1.655361950509566
 20
4.088929403553842
 10
1.648368765672513
 20
4.101716835487835
 10
1.64164283630694
 20
4.112299409782121
 10
1.635184162412847
 20
4.120164886783034
 10
1.628992743990233
 20
4.124801026836896
 10
1.623079716683745
 20
4.125829218025783
 10
1.617500758716605
 20
4.123405359374721
 10
1.612322683956686
 20
4.117818977644488
 10
1.607612306271856
 20
4.109359599595844
 10
1.603436439529985
 20
4.098316751989562
 10
1.599861897598944
 20
4.084979961586418
 10
1.596955494346602
 20
4.06963875514717
 10
1.594784043640829
 20
4.052582659432597
 10
1.593405079645624
 20
4.034108624966561
 10
1.592839017709504
 20
4.014543297325316
 10
1.593096993477113
 20
3.994220745848212
 10
1.594190142593096
 20
3.973475039874598
 10
1.596129600702099
 20
3.952640248743826
 10
1.598926503448765
 20
3.932050441795242
 10
1.60259198647774
 20
3.912039688368198
 10
1.60713718543367
 20
3.892942057802042
 10
1.61257880378352
 20
3.87499511051587
 10
1.618955816283551
 20
3.858050371247747
 10
1.62631276551234
 20
3.841862855815479
 10
1.634694194048468
 20
3.826187580036883
 10
1.644144644470514
 20
3.810779559729771
 10
1.65470865935706
 20
3.795393810711944
 10
1.666430781286685
 20
3.779785348801219
 10
1.679355552837968
 20
3.763709189815405
 10
1.693497821537103
 20
3.746979739677083
 10
1.708753654700737
 20
3.729648964727932
 10
1.72498942459313
 20
3.711828221414404
 10
1.742071503478543
 20
3.693628866182945
 10
1.759866263621234
 20
3.675162255480006
 10
1.778240077285465
 20
3.656539745752033
 10
1.797059316735495
 20
3.637872693445488
 10
1.816190354235586
 20
3.61927245500681
 10
1.835469866997609
 20
3.600842963119354
 10
1.854615752023892
 20
3.582658455414083
 10
1.873316211264376
 20
3.564785745758881
 10
1.891259446669001
 20
3.547291648021603
 10
1.908133660187706
 20
3.530242976070127
 10
1.923627053770433
 20
3.513706543772317
 10
1.937427829367122
 20
3.49774916499605
 10
1.949224188927713
 20
3.482437653609191
 10
1.958789707677758
 20
3.467816552190322
 10
1.966239453945256
 20
3.453841318160861
 10
1.971773869333815
 20
3.440445137652941
 10
1.975593395447046
 20
3.427561196798689
 10
1.977898473888559
 20
3.415122681730235
 10
1.978889546261963
 20
3.403062778579715
 10
1.978767054170868
 20
3.391314673479249
 10
1.977731439218884
 20
3.379811552560978
 10
1.975949736075685
 20
3.368499593542443
 10
1.973455351675209
 20
3.357376940482875
 10
1.970248286017451
 20
3.346454729026917
 10
1.966328539102416
 20
3.33574409481921
 10
1.9616961109301
 20
3.325256173504405
 10
1.956351001500506
 20
3.315002100727145
 10
1.950293210813632
 20
3.304993012132075
 10
1.943522738869479
 20
3.295240043363839
 10
1.936008034674886
 20
3.285771961504436
 10
1.927591343264049
 20
3.276688059385286
 10
1.918083358678004
 20
3.268105261275162
 10
1.907294774957784
 20
3.260140491442834
 10
1.895036286144426
 20
3.252910674157078
 10
1.881118586278964
 20
3.24653273368666
 10
1.865352369402435
 20
3.241123594300356
 10
1.847548329555873
 20
3.23680018026694
 10
1.827077302816836
 20
3.233701687144472
 10
1.801550693408974
 20
3.232056395648176
 10
1.76814004759246
 20
3.23211485778256
 10
1.724016911627468
 20
3.234127625552144
 10
1.66635283177417
 20
3.238345250961434
 10
1.592319354292738
 20
3.245018286014941
 10
1.499088025443347
 20
3.254397282717182
  0
ARC
  5
196D
330
1F
100
AcDbEntity
  8
0
100
AcDbCircle
 10
1.504919663231364
 20
3.544096054712008
 30
0.0
 40
0.2897574614994431
100
AcDbArc
 50
240.5985823607171
 51
268.8467914099901
  0
LWPOLYLINE
  5
1A46
330
1F
100
AcDbEntity
  8
0
100
AcDbPolyline
 90
       72
 70
     0
 43
0.0
 10
1.362670391779547
 20
3.291658871900068
 10
1.305673013604543
 20
3.363063543014913
 10
1.285187139339313
 20
3.390102744153723
 10
1.269890475478647
 20
3.411451630878937
 10
1.259003526897397
 20
3.42752222204243
 10
1.251746798470413
 20
3.438726536496063
 10
1.247363066361836
 20
3.445574957952729
 10
1.245184191892966
 20
3.44897132956945
 10
1.244564307674395
 20
3.449917859364278
 10
1.244857546316713
 20
3.449416755355251
 10
1.245418040430511
 20
3.448470225560426
 10
1.245599922626379
 20
3.448080477997853
 10
1.244757325514908
 20
3.449249720685576
 10
1.242244381706689
 20
3.452980161641647
 10
1.237602673830503
 20
3.460284216558374
 10
1.231123584587894
 20
3.47221513182509
 10
1.223285946698597
 20
3.489836361505398
 10
1.214568592882345
 20
3.514211359662889
 10
1.205450355858874
 20
3.546403580361166
 10
1.196410068347917
 20
3.587476477663818
 10
1.18792656306921
 20
3.638493505634445
 10
1.180478672742487
 20
3.700518118336642
 10
1.174478416219612
 20
3.773938207392214
 10
1.170070556880971
 20
3.856439414655774
 10
1.167333044239078
 20
3.945031819540139
 10
1.166343827806448
 20
4.036725501458132
 10
1.167180857095597
 20
4.128530539822581
 10
1.169922081619038
 20
4.217457014046297
 10
1.174645450889287
 20
4.300515003542104
 10
1.181428914418859
 20
4.374714587722822
 10
1.190285463793174
 20
4.43780543839978
 10
1.200968258889266
 20
4.490495596978316
 10
1.213165501657076
 20
4.534232697262281
 10
1.226565394046546
 20
4.570464373055527
 10
1.240856138007614
 20
4.600638258161895
 10
1.255725935490222
 20
4.626201986385241
 10
1.27086298844431
 20
4.648603191529409
 10
1.285955498819817
 20
4.669289507398249
 10
1.300732499263717
 20
4.689476575198838
 10
1.315086345211107
 20
4.709452065751175
 10
1.328950222794117
 20
4.72927165727848
 10
1.342257318144878
 20
4.748991028003979
 10
1.35494081739552
 20
4.768665856150902
 10
1.366933906678173
 20
4.788351819942465
 10
1.378169772124966
 20
4.808104597601901
 10
1.38858159986803
 20
4.82797986735243
 10
1.398147118618076
 20
4.847979485134828
 10
1.407022227400131
 20
4.867890017760068
 10
1.415407367817807
 20
4.887444209756671
 10
1.423502981474714
 20
4.906374805653151
 10
1.431509509974461
 20
4.924414549978028
 10
1.439627394920657
 20
4.941296187259832
 10
1.448057077916913
 20
4.956752462027078
 10
1.456999000566839
 20
4.970516118808284
 10
1.466581222783852
 20
4.982355165006679
 10
1.476642277720599
 20
4.992178659524332
 10
1.486948316839535
 20
4.999930924138019
 10
1.497265491603117
 20
5.005556280624513
 10
1.507359953473799
 20
5.008999050760586
 10
1.516997853914037
 20
5.010203556323021
 10
1.525945344386285
 20
5.009114119088584
 10
1.533968576352999
 20
5.005675060834057
 10
1.540913506729923
 20
4.999908652848731
 10
1.546945314245959
 20
4.992148964471947
 10
1.552308983083295
 20
4.982808014555575
 10
1.557249497424121
 20
4.972297821951481
 10
1.562011841450628
 20
4.961030405511526
 10
1.566840999345005
 20
4.949417784087577
 10
1.571981955289441
 20
4.937871976531496
 10
1.577679693466127
 20
4.926805001695154
 10
1.584090112900092
 20
4.916478547227701
 10
1.591012771987726
 20
4.906552975967469
  0
LINE
  5
1B1E
330
1F
100
AcDbEntity
  8
0
100
AcDbLine
 10
0.1000049631982043
 20
3.069278732920141
 30
0.0
 11
0.1682873631436431
 21
3.080761659037092
 31
0.0
  0
LWPOLYLINE
  5
1B20
330
1F
100
AcDbEntity
  8
0
100
AcDbPolyline
 90
     1705
 70
     0
 43
0.0
 10
0.1682873631436413
 20
3.080761659037092
 10
0.1923681115584286
 20
3.091040553953575
 10
0.253322207044188
 20
3.109782901681169
 10
0.3249388265216253
 20
3.12824091543565
 10
0.4031662108739031
 20
3.1471254301498
 10
0.4839526009841836
 20
3.167147280756396
 10
0.5632462377356291
 20
3.189017302188217
 10
0.636995362011402
 20
3.213446329378035
 10
0.7011482146946648
 20
3.24114519725864
 10
0.7525001149634743
 20
3.272611490282971
 10
0.7912346951754645
 20
3.307489790984639
 10
0.8183826659831645
 20
3.345211431417418
 10
0.8349747380391036
 20
3.385207743635094
 10
0.8420416219958102
 20
3.426910059691432
 10
0.8406140285058134
 20
3.469749711640218
 10
0.8317226682216418
 20
3.513158031535228
 10
0.8163982517958244
 20
3.556566351430235
 10
0.795718878876409
 20
3.59953336130448
 10
0.7709522050935171
 20
3.642127182839016
 10
0.7434132750727886
 20
3.684543295640353
 10
0.7144171334398642
 20
3.726977179315011
 10
0.685278824820384
 20
3.769624313469503
 10
0.6573133938399886
 20
3.812680177710346
 10
0.6318358851243179
 20
3.856340251644047
 10
0.6101613432990125
 20
3.900800014877125
 10
0.5933264026410409
 20
3.945955803981881
 10
0.5812540560326854
 20
3.990507383393776
 10
0.5735888860075568
 20
4.032855374514057
 10
0.569975475099266
 20
4.071400398743974
 10
0.5700584058414233
 20
4.104543077484771
 10
0.57348226076764
 20
4.130684032137699
 10
0.5798916224115266
 20
4.148223884104014
 10
0.5889310733066936
 20
4.155563254784951
 10
0.6002600050478515
 20
4.151733631584606
 10
0.6135970454741086
 20
4.138289965918434
 10
0.6286756314856734
 20
4.117418075204723
 10
0.6452291999827535
 20
4.091303776861771
 10
0.6629911878655572
 20
4.062132888307871
 10
0.6816950320342924
 20
4.032091226961319
 10
0.701074169389167
 20
4.003364610240407
 10
0.7208620368303896
 20
3.978138855563429
 10
0.7407743003848483
 20
3.958564238602037
 10
0.760455542586154
 20
3.94664886804134
 10
0.7795325750945978
 20
3.944365310819788
 10
0.7976322095704714
 20
3.953686133875846
 10
0.8143812576740653
 20
3.976583904147977
 10
0.8294065310656717
 20
4.015031188574636
 10
0.8423348414055812
 20
4.071000554094285
 10
0.8527930003540854
 20
4.146464567645383
 10
0.8604937121258531
 20
4.242175529531794
 10
0.8654932511530621
 20
4.354004673518958
 10
0.8679337844222684
 20
4.476602966737713
 10
0.8679574789200275
 20
4.60462137631891
 10
0.8657065016328955
 20
4.732710869393382
 10
0.8613230195474278
 20
4.855522413091973
 10
0.8549491996501805
 20
4.967706974545526
 10
0.8467272089277086
 20
5.06391552088488
 10
0.8368466033620871
 20
5.140087407556538
 10
0.8256864949174641
 20
5.197315543269652
 10
0.8136733845535069
 20
5.237981225049022
 10
0.8012337732298824
 20
5.264465749919464
 10
0.7887941619062581
 20
5.279150414905782
 10
0.7767810515423009
 20
5.28441651703278
 10
0.765620943097678
 20
5.282645353325278
 10
0.7557403375320564
 20
5.27621822080807
 10
0.7473939506963485
 20
5.267226158908417
 10
0.740149358006447
 20
5.256599176663383
 10
0.733402349769491
 20
5.244977025512453
 10
0.7265487162926179
 20
5.232999456895133
 10
0.7189842478829663
 20
5.221306222250929
 10
0.7101047348476744
 20
5.210537073019334
 10
0.6993059674938804
 20
5.201331760639853
 10
0.6859837361287228
 20
5.194330036551984
 10
0.6697618906002726
 20
5.190035408833111
 10
0.6511765189203338
 20
5.188406412112159
 10
0.6309917686416434
 20
5.189265337655938
 10
0.6099717873169381
 20
5.192434476731238
 10
0.588880722498955
 20
5.197736120604877
 10
0.568482721740431
 20
5.204992560543661
 10
0.5495419325941029
 20
5.214026087814389
 10
0.5328225026127078
 20
5.224658993683863
 10
0.518810169000311
 20
5.236663218611162
 10
0.5068770275662913
 20
5.249609299824392
 10
0.4961167637713562
 20
5.263017423743928
 10
0.4856230630762132
 20
5.276407776790145
 10
0.4744896109415694
 20
5.289300545383414
 10
0.4618100928281323
 20
5.301215915944111
 10
0.4466781941966092
 20
5.311674074892621
 10
0.4281876005077076
 20
5.320195208649303
 10
0.405757796566325
 20
5.32652163955103
 10
0.3801114645541193
 20
5.331284233600645
 10
0.3522970859969392
 20
5.335335992717482
 10
0.3233631424206329
 20
5.339529918820877
 10
0.2943581153510488
 20
5.344719013830162
 10
0.2663304863140352
 20
5.351756279664665
 10
0.2403287368354403
 20
5.361494718243732
 10
0.2174013484411127
 20
5.374787331486692
 10
0.1981939961949927
 20
5.392149474719806
 10
0.1817411293133895
 20
5.412745916897065
 10
0.1666743905507045
 20
5.435403780379382
 10
0.1516254226613389
 20
5.458950187527673
 10
0.1352258683996942
 20
5.482212260702848
 10
0.1161073705201715
 20
5.504017122265832
 10
0.0929015717771723
 20
5.523191894577532
 10
0.0642401149250978
 20
5.538563699998868
 10
0.0292788834812735
 20
5.549309154732702
 10
-0.0107292759852784
 20
5.556002850349699
 10
-0.0540072761426115
 20
5.559568872262472
 10
-0.0987780296587795
 20
5.560931305883632
 10
-0.1432644492018361
 20
5.561014236625789
 10
-0.185689447439835
 20
5.560741749901559
 10
-0.2242759370408299
 20
5.56103793112355
 10
-0.2572468306728742
 20
5.562826865704376
 10
-0.2831271458504527
 20
5.566940822877831
 10
-0.3016503194737734
 20
5.573844807162442
 10
-0.3128518932894751
 20
5.583912006897917
 10
-0.3167674090441968
 20
5.597515610423967
 10
-0.3134324084845776
 20
5.615028806080295
 10
-0.3028824333572562
 20
5.636824782206619
 10
-0.2851530254088715
 20
5.66327672714264
 10
-0.2602797263860626
 20
5.694757829228072
 10
-0.2286268391918785
 20
5.731377675515044
 10
-0.1918737113550083
 20
5.77219144790541
 10
-0.1520284515605515
 20
5.815990727013451
 10
-0.1110991684936075
 20
5.861567093453436
 10
-0.0710939708392755
 20
5.907712127839639
 10
-0.034020967282655
 20
5.953217410786344
 10
-0.0018882665088453
 20
5.996874522907829
 10
0.0232960227970541
 20
6.03747504481836
 10
0.0400776508350674
 20
6.074083043856457
 10
0.0492178033457114
 20
6.106852534257545
 10
0.0520315249546264
 20
6.1362100169813
 10
0.0498338602874528
 20
6.162581992987384
 10
0.0439398539698307
 20
6.186394963235463
 10
0.0356645506274006
 20
6.208075428685212
 10
0.0263229948858028
 20
6.228049890296289
 10
0.0172302313706773
 20
6.246744849028364
 10
0.0094051234856736
 20
6.264500913286726
 10
0.0026818097464766
 20
6.281315121259161
 10
-0.0034017525532197
 20
6.297098618579062
 10
-0.0093076061197213
 20
6.311762550879839
 10
-0.0154977936593344
 20
6.325218063794893
 10
-0.0224343578783649
 20
6.337376302957625
 10
-0.030579341483119
 20
6.348148414001443
 10
-0.0403947871799026
 20
6.357445542559736
 10
-0.0522183415617855
 20
6.365166987017047
 10
-0.0658900667688927
 20
6.371164656762366
 10
-0.0811256288281126
 20
6.375278613935821
 10
-0.0976406937663339
 20
6.377348920677537
 10
-0.1151509276104451
 20
6.377215639127644
 10
-0.1333719963873349
 20
6.374718831426256
 10
-0.1520195661238918
 20
6.369698559713508
 10
-0.1708093028470044
 20
6.361994886129521
 10
-0.1894361398980219
 20
6.351613734298735
 10
-0.2075120798761361
 20
6.339224473782847
 10
-0.2246283926949992
 20
6.325662335627877
 10
-0.2403763482682637
 20
6.311762550879839
 10
-0.2543472165095817
 20
6.298360350584744
 10
-0.2661322673326059
 20
6.28629096578861
 10
-0.2753227706509884
 20
6.276389627537448
 10
-0.2815099963783815
 20
6.269491566877275
 10
-0.2844925412838315
 20
6.266236535247593
 10
-0.2848983095579592
 20
6.266482365661847
 10
-0.2835625322467796
 20
6.269891411526963
 10
-0.2813204403963073
 20
6.276126026249876
 10
-0.2790072650525571
 20
6.28484856323751
 10
-0.2774582372615439
 20
6.295721375896802
 10
-0.2775085880692823
 20
6.308406817634678
 10
-0.2799935485217873
 20
6.322567241858072
 10
-0.2855291755608002
 20
6.33784723110059
 10
-0.2938548297109688
 20
6.35382028440257
 10
-0.3044906973926676
 20
6.370042129931018
 10
-0.3169569650262711
 20
6.386068495852954
 10
-0.3307738190321539
 20
6.40145511033539
 10
-0.3454614458306904
 20
6.415757701545337
 10
-0.3605400318422551
 20
6.42853199764981
 10
-0.3755297634872225
 20
6.439333726815823
 10
-0.3900100634303651
 20
6.44776600620591
 10
-0.4037972993140488
 20
6.453621508964672
 10
-0.4167670750250372
 20
6.456740297232238
 10
-0.4287949944500939
 20
6.456962433148732
 10
-0.4397566614759829
 20
6.454127978854279
 10
-0.4495276799894678
 20
6.448076996489001
 10
-0.4579836538773125
 20
6.438649548193027
 10
-0.4650001870262807
 20
6.425685696106476
 10
-0.4705061959430944
 20
6.409244676473754
 10
-0.4746438476143095
 20
6.390262421956349
 10
-0.4776086216464399
 20
6.369894039320021
 10
-0.4795959976459999
 20
6.349294635330545
 10
-0.4808014552195036
 20
6.329619316753679
 10
-0.4814204739734648
 20
6.312023190355191
 10
-0.481648533514398
 20
6.297661362900845
 10
-0.481681113448817
 20
6.287688941156407
 10
-0.4816988843221364
 20
6.282763447434694
 10
-0.4818232804353726
 20
6.281552066236752
 10
-0.4821609270284425
 20
6.282224397610669
 10
-0.4828184493412626
 20
6.282950041604549
 10
-0.4839024726137498
 20
6.281898598266481
 10
-0.4855196220858211
 20
6.27723966764456
 10
-0.4877765229973928
 20
6.267142849786887
 10
-0.4907798005883821
 20
6.24977774474155
 10
-0.4946183092253863
 20
6.223962589432812
 10
-0.4993098197817246
 20
6.191110168289563
 10
-0.5048543322573972
 20
6.153281902616863
 10
-0.511251846652404
 20
6.112539213719773
 10
-0.518502362966745
 20
6.070943522903349
 10
-0.5266058812004203
 20
6.030556251472649
 10
-0.5355624013534298
 20
5.993438820732729
 10
-0.5453719234257737
 20
5.961652651988652
 10
-0.5559781729852733
 20
5.936803047463601
 10
-0.5670997778710376
 20
5.918670833053305
 10
-0.5783990914899963
 20
5.906580715571633
 10
-0.5895384672490799
 20
5.899857401832435
 10
-0.6001802585552185
 20
5.897825598649576
 10
-0.6099868188153425
 20
5.899810012836919
 10
-0.6186205014363817
 20
5.905135351208318
 10
-0.6257436598252668
 20
5.913126320577634
 10
-0.6311460053143835
 20
5.923166864003135
 10
-0.6351266809379432
 20
5.93487786952066
 10
-0.6381121876556132
 20
5.947939461410466
 10
-0.6405290264270601
 20
5.962031763952796
 10
-0.6428036982119516
 20
5.976834901427909
 10
-0.6453627039699541
 20
5.992028998116054
 10
-0.6486325446607354
 20
6.007294178297474
 10
-0.6530397212439624
 20
6.022310566252417
 10
-0.6588863385660658
 20
6.036853064252181
 10
-0.6659769170205317
 20
6.051075686532191
 10
-0.6739915808876097
 20
6.065227225318924
 10
-0.6826104544475494
 20
6.079556472838851
 10
-0.6915136619806006
 20
6.094312221318443
 10
-0.7003813277670128
 20
6.109743262984178
 10
-0.7088935760870358
 20
6.126098390062525
 10
-0.7167305312209191
 20
6.143626394779956
 10
-0.7236374773177504
 20
6.162590878424044
 10
-0.7296203380019698
 20
6.183314678526755
 10
-0.734750196766855
 20
6.206135441681169
 10
-0.7390981371056836
 20
6.231390814480346
 10
-0.7427352425117339
 20
6.259418443517359
 10
-0.7457325964782834
 20
6.290555975385279
 10
-0.74816128249861
 20
6.325141056677173
 10
-0.7500923840659917
 20
6.363511333986115
 10
-0.7515614429270673
 20
6.40574381442982
 10
-0.7524618338419202
 20
6.450872947224596
 10
-0.7526513898239945
 20
6.497672542111401
 10
-0.7519879438867344
 20
6.544916408831197
 10
-0.7503293290435846
 20
6.591378357124936
 10
-0.7475333783079888
 20
6.635832196733571
 10
-0.743457924693392
 20
6.677051737398066
 10
-0.737960801213238
 20
6.713810788859377
 10
-0.7309857334353487
 20
6.745226731075966
 10
-0.7228200171450552
 20
6.771791224876346
 10
-0.7138368406820664
 20
6.794339501306527
 10
-0.7044093923860912
 20
6.813706791412517
 10
-0.694910860596838
 20
6.830728326240345
 10
-0.6857144336540157
 20
6.84623933683602
 10
-0.6771932998973329
 20
6.861075054245551
 10
-0.6697206476664986
 20
6.87607070951496
 10
-0.6635822918407339
 20
6.891826069618773
 10
-0.658714553457311
 20
6.907999045245592
 10
-0.6549663800930141
 20
6.924012083012541
 10
-0.652186719324628
 20
6.939287629536729
 10
-0.6502245187289374
 20
6.953248131435277
 10
-0.6489287258827266
 20
6.965316035325304
 10
-0.64814828836278
 20
6.974913787823921
 10
-0.6477321537458826
 20
6.981463835548255
 10
-0.6475973912898767
 20
6.984578181097491
 10
-0.6479335569768365
 20
6.984627050999121
 10
-0.6489983284698943
 20
6.982170227762704
 10
-0.6510493834321825
 20
6.977767493897808
 10
-0.654344399526833
 20
6.971978631913993
 10
-0.6591410544169781
 20
6.965363424320822
 10
-0.6656970257657501
 20
6.95848165362786
 10
-0.6742699912362812
 20
6.951893102344667
 10
-0.6849636142562684
 20
6.946006500557594
 10
-0.6972655013116669
 20
6.940626368660127
 10
-0.710509244652997
 20
6.935406174622537
 10
-0.7240284365307788
 20
6.929999386415089
 10
-0.7371566691955323
 20
6.924059472008059
 10
-0.7492275348977779
 20
6.917239899371717
 10
-0.7595746258880354
 20
6.909194136476324
 10
-0.7675315344168251
 20
6.899575651292166
 10
-0.7726288132472911
 20
6.888206735086041
 10
-0.775184857193074
 20
6.875584972310891
 10
-0.7757150215804379
 20
6.862376770716198
 10
-0.7747346617356476
 20
6.849248538051448
 10
-0.7727591329849673
 20
6.836866682066113
 10
-0.7703037906546614
 20
6.825897610509673
 10
-0.7678839900709944
 20
6.817007731131608
 10
-0.7660150865602308
 20
6.810863451681406
 10
-0.7651398710492474
 20
6.80783055596822
 10
-0.7654108768673691
 20
6.807072332039919
 10
-0.7669080729445339
 20
6.80745144400407
 10
-0.7697114282106793
 20
6.807830555968217
 10
-0.7739009115957427
 20
6.807072332039922
 10
-0.7795564920296619
 20
6.804039436326733
 10
-0.7867581384423744
 20
6.797594532936207
 10
-0.7955858197638178
 20
6.786600285975898
 10
-0.8060661923039713
 20
6.770257006146435
 10
-0.8180126618929806
 20
6.749115590520712
 10
-0.8311853217410327
 20
6.724064582764707
 10
-0.8453442650583152
 20
6.695992526544393
 10
-0.8602495850550152
 20
6.665787965525749
 10
-0.8756613749413197
 20
6.634339443374735
 10
-0.8913397279274162
 20
6.602535503757338
 10
-0.9070447372234919
 20
6.571264690339519
 10
-0.9225483432886139
 20
6.541237838054067
 10
-0.9376698755773674
 20
6.512454946900979
 10
-0.9522405107932172
 20
6.484738308147053
 10
-0.9660914256396289
 20
6.457910213059105
 10
-0.9790537968200677
 20
6.43179295290393
 10
-0.990958801037998
 20
6.406208818948348
 10
-1.001637614996885
 20
6.380980102459147
 10
-1.010921415400195
 20
6.355929094703147
 10
-1.018728752411879
 20
6.330978788562618
 10
-1.02532767003784
 20
6.306454983381758
 10
-1.031073585744466
 20
6.282784180120232
 10
-1.036321916998148
 20
6.260392879737707
 10
-1.041428081265274
 20
6.239707583193855
 10
-1.046747496012233
 20
6.221154791448332
 10
-1.052635578705415
 20
6.205161005460818
 10
-1.05944774681121
 20
6.192152726190967
 10
-1.067420945307209
 20
6.182485371105184
 10
-1.07631822921582
 20
6.17623002369673
 10
-1.085784181070654
 20
6.173386683965616
 10
-1.095463383405322
 20
6.173955351911839
 10
-1.105000418753434
 20
6.177936027535402
 10
-1.114039869648601
 20
6.185328710836294
 10
-1.122226318624434
 20
6.19613340181453
 10
-1.129204348214543
 20
6.210350100470103
 10
-1.134739975253556
 20
6.227857372501993
 10
-1.139084953780165
 20
6.248048046405124
 10
-1.142612472134078
 20
6.270193516373394
 10
-1.145695718655005
 20
6.29356517660071
 10
-1.148707881682654
 20
6.317434421280966
 10
-1.152022149556734
 20
6.341072644608072
 10
-1.156011710616953
 20
6.363751240775929
 10
-1.161049753203021
 20
6.384741603978436
 10
-1.16738803135363
 20
6.403605386007045
 10
-1.174792561903406
 20
6.421065269043417
 10
-1.182907927385961
 20
6.438134192866761
 10
-1.191378710334906
 20
6.455825097256286
 10
-1.19984949328385
 20
6.475150921991204
 10
-1.207964858766405
 20
6.497124606850722
 10
-1.215369389316181
 20
6.522759091614046
 10
-1.22170766746679
 20
6.553067316060391
 10
-1.226692397432899
 20
6.588689031629253
 10
-1.23030877015341
 20
6.628771236401306
 10
-1.23261009824828
 20
6.672087740117498
 10
-1.233649694337469
 20
6.717412352518789
 10
-1.233480871040934
 20
6.763518883346136
 10
-1.232156940978634
 20
6.809181142340496
 10
-1.229731216770527
 20
6.853172939242829
 10
-1.226257011036572
 20
6.894268083794089
 10
-1.221790598208947
 20
6.931524719708345
 10
-1.21640009996871
 20
6.965138326592109
 10
-1.210156599809139
 20
6.99558871802501
 10
-1.203131181223511
 20
7.023355707586668
 10
-1.195394927705104
 20
7.048919108856718
 10
-1.187018922747197
 20
7.072758735414777
 10
-1.178074249843067
 20
7.095354400840474
 10
-1.168631992485992
 20
7.117185918713436
 10
-1.158807661352549
 20
7.138647210058911
 10
-1.148894475852509
 20
7.159788625684631
 10
-1.13923008257894
 20
7.180574623843963
 10
-1.130152128124914
 20
7.200969662790269
 10
-1.1219982590835
 20
7.220938200776906
 10
-1.115106122047768
 20
7.240444696057235
 10
-1.109813363610788
 20
7.259453606884624
 10
-1.10645763036563
 20
7.277929391512422
 10
-1.105246249167686
 20
7.295792081010706
 10
-1.105865267921648
 20
7.312783997716329
 10
-1.107870414794527
 20
7.328603036782875
 10
-1.110817417953338
 20
7.342947093363901
 10
-1.114262005565094
 20
7.355514062612978
 10
-1.117759905796809
 20
7.366001839683683
 10
-1.120866846815495
 20
7.374108319729578
 10
-1.123138556788166
 20
7.379531397904234
 10
-1.124249236370633
 20
7.382122983596656
 10
-1.12434697617389
 20
7.38235104313759
 10
-1.123698339297729
 20
7.380837557093217
 10
-1.122569888841943
 20
7.378204506029716
 10
-1.121228187906324
 20
7.375073870513272
 10
-1.119939799590663
 20
7.372067631110061
 10
-1.118971286994752
 20
7.369807768386268
 10
-1.118589213218383
 20
7.368916262908077
 10
-1.11903644686359
 20
7.369852195569566
 10
-1.120461078541367
 20
7.37242304857645
 10
-1.122987504364951
 20
7.376273404462334
 10
-1.126740120447577
 20
7.381047845760829
 10
-1.131843322902483
 20
7.386390955005548
 10
-1.138421507842905
 20
7.391947314730098
 10
-1.146599071382078
 20
7.397361507468096
 10
-1.156500409633239
 20
7.402278115753148
 10
-1.168149217094147
 20
7.406374302053283
 10
-1.181166381800654
 20
7.409457548574208
 10
-1.195072090173134
 20
7.411367917456052
 10
-1.209386528631962
 20
7.411945470838936
 10
-1.223629883597512
 20
7.411030270862983
 10
-1.237322341490158
 20
7.408462379668322
 10
-1.249984088730276
 20
7.404081859395071
 10
-1.261135311738239
 20
7.397728772183363
 10
-1.270447249357638
 20
7.389317225478817
 10
-1.278195350124924
 20
7.379057507949049
 10
-1.284806114999764
 20
7.367233953567166
 10
-1.290706044941826
 20
7.354130896306281
 10
-1.296321640910777
 20
7.340032670139507
 10
-1.302079403866283
 20
7.325223609039953
 10
-1.308405834768011
 20
7.309988046980734
 10
-1.31572743457563
 20
7.294610317934958
 10
-1.32434926994779
 20
7.279294786945799
 10
-1.334090670339076
 20
7.263925943336686
 10
-1.344649530903057
 20
7.248308307501099
 10
-1.355723746793303
 20
7.232246399832519
 10
-1.367011213163382
 20
7.215544740724445
 10
-1.378209825166864
 20
7.198007850570356
 10
-1.389017477957317
 20
7.179440249763738
 10
-1.399132066688312
 20
7.159646458698072
 10
-1.408307760945595
 20
7.138327334339157
 10
-1.416523828043627
 20
7.114769079941988
 10
-1.423815809729046
 20
7.088154235333873
 10
-1.430219247748493
 20
7.057665340342117
 10
-1.435769683848605
 20
7.022484934794018
 10
-1.440502659776023
 20
6.981795558516886
 10
-1.444453717277383
 20
6.934779751338025
 10
-1.447658398099327
 20
6.880620053084742
 10
-1.450161129425151
 20
6.819152083178827
 10
-1.452041880184794
 20
6.752823779420041
 10
-1.453389504744853
 20
6.684736159202626
 10
-1.454292857471926
 20
6.617990239920831
 10
-1.45484079273261
 20
6.555687038968901
 10
-1.455122164893501
 20
6.500927573741087
 10
-1.455225828321198
 20
6.456812861631628
 10
-1.455240637382298
 20
6.426443920034778
 10
-1.455240637382298
 20
6.411819972198966
 10
-1.455240637382298
 20
6.410533064789413
 10
-1.455240637382298
 20
6.419073450325529
 10
-1.455240637382298
 20
6.433931381326708
 10
-1.455240637382298
 20
6.451597110312365
 10
-1.455240637382298
 20
6.468560889801901
 10
-1.455240637382298
 20
6.481312972314727
 10
-1.455240637382298
 20
6.486343610370244
 10
-1.455305797251136
 20
6.481126378144871
 10
-1.455761916333002
 20
6.467068136443065
 10
-1.456999953840924
 20
6.446559067726298
 10
-1.459410868987932
 20
6.421989354456027
 10
-1.463385620987051
 20
6.395749179093732
 10
-1.469315169051313
 20
6.370228724100873
 10
-1.477590472393743
 20
6.347818171938918
 10
-1.48860249022737
 20
6.330907705069338
 10
-1.502620747464207
 20
6.321345494317359
 10
-1.519429031812199
 20
6.318811663963223
 10
-1.538689696678278
 20
6.322444326650943
 10
-1.560065095469372
 20
6.331381595024526
 10
-1.583217581592413
 20
6.34476158172797
 10
-1.60780950845433
 20
6.361722399405289
 10
-1.633503229462054
 20
6.381402160700483
 10
-1.659961098022515
 20
6.402938978257565
 10
-1.686818811232664
 20
6.425747894163095
 10
-1.713605440949535
 20
6.450351668273892
 10
-1.739823402720184
 20
6.477549989889331
 10
-1.764975112091664
 20
6.508142548308788
 10
-1.788562984611032
 20
6.542929032831636
 10
-1.810089435825342
 20
6.582709132757258
 10
-1.829056881281649
 20
6.62828253738502
 10
-1.844967736527009
 20
6.680448936014306
 10
-1.85751101127833
 20
6.739495624430443
 10
-1.86712209193194
 20
6.803660324362582
 10
-1.87442295905402
 20
6.870668364025841
 10
-1.88003559321075
 20
6.938245071635321
 10
-1.884581974968313
 20
7.004115775406131
 10
-1.888684084892889
 20
7.066005803553383
 10
-1.89296390355066
 20
7.12164048429218
 10
-1.898043411507806
 20
7.16874514583764
 10
-1.904396498719514
 20
7.205513082735611
 10
-1.911904692696987
 20
7.232009454854928
 10
-1.920301430340434
 20
7.248767388395184
 10
-1.929320148550062
 20
7.256320009555957
 10
-1.938694284226079
 20
7.255200444536828
 10
-1.948157274268693
 20
7.245941819537391
 10
-1.957442555578112
 20
7.229077260757216
 10
-1.966283565054546
 20
7.205139894395901
 10
-1.974487784903698
 20
7.174876097132854
 10
-1.982158878553266
 20
7.139885247566831
 10
-1.989474554736445
 20
7.101979974776415
 10
-1.99661252218643
 20
7.062972907840194
 10
-2.003750489636414
 20
7.024676675836749
 10
-2.011066165819593
 20
6.98890390784467
 10
-2.018737259469161
 20
6.95746723294254
 10
-2.026941479318314
 20
6.932179280208942
 10
-2.035800259668066
 20
6.914440986823898
 10
-2.045209937090722
 20
6.904006522373156
 10
-2.055010573726406
 20
6.900218364543889
 10
-2.065042231715243
 20
6.902418991023282
 10
-2.075144973197358
 20
6.909950879498516
 10
-2.085158860312876
 20
6.922156507656769
 10
-2.094923955201921
 20
6.938378353185217
 10
-2.104280320004618
 20
6.957958893771046
 10
-2.113106520419951
 20
6.98035611777801
 10
-2.12143513638234
 20
7.005490056276168
 10
-2.129337251385062
 20
7.033396251012169
 10
-2.136883948921394
 20
7.064110243732639
 10
-2.144146312484614
 20
7.097667576184226
 10
-2.151195425568002
 20
7.134103790113569
 10
-2.158102371664833
 20
7.173454427267299
 10
-2.164938234268387
 20
7.215755029392061
 10
-2.171717822439762
 20
7.260916742121258
 10
-2.178230847511345
 20
7.308353126635343
 10
-2.184210746383345
 20
7.357353348001545
 10
-2.189390955955968
 20
7.407206571287078
 10
-2.193504913129424
 20
7.457201961559169
 10
-2.19628605480392
 20
7.506628683885035
 10
-2.197467817879665
 20
7.554775903331902
 10
-2.196783639256865
 20
7.600932784966988
 10
-2.194029153892348
 20
7.644551393529611
 10
-2.189248788969412
 20
7.685735392447465
 10
-2.182549169727975
 20
7.724751344820349
 10
-2.174036921407952
 20
7.761865813748046
 10
-2.16381866924926
 20
7.797345362330355
 10
-2.152001038491818
 20
7.831456553667068
 10
-2.138690654375539
 20
7.864465950857971
 10
-2.123994142140343
 20
7.896640117002861
 10
-2.107997394340606
 20
7.928227844328205
 10
-2.090703372788548
 20
7.959406841567205
 10
-2.07209430661085
 20
7.990337046579729
 10
-2.052152424934193
 20
8.021178397225659
 10
-2.030859956885255
 20
8.052090831364864
 10
-2.00819913159072
 20
8.083234286857225
 10
-1.984152178177266
 20
8.114768701562612
 10
-1.958701325771574
 20
8.146854013340902
 10
-1.93190345463105
 20
8.179580682476361
 10
-1.904114049535997
 20
8.212761258950791
 10
-1.875763246397443
 20
8.246138815170393
 10
-1.847281181126416
 20
8.279456423541363
 10
-1.819097989633943
 20
8.312457156469896
 10
-1.791643807831052
 20
8.344884086362188
 10
-1.765348771628772
 20
8.376480285624436
 10
-1.74064301693813
 20
8.406988826662836
 10
-1.717898751238945
 20
8.436183101993744
 10
-1.697256468286192
 20
8.463957784574159
 10
-1.678798733403639
 20
8.490237867471238
 10
-1.662608111915053
 20
8.514948343752143
 10
-1.6487671691442
 20
8.538014206484023
 10
-1.637358470414847
 20
8.559360448734043
 10
-1.62846458105076
 20
8.578912063569358
 10
-1.622168066375707
 20
8.59659404405713
 10
-1.618500198510918
 20
8.612371088857555
 10
-1.617287076767482
 20
8.626366719002984
 10
-1.618303507253951
 20
8.638744161118809
 10
-1.621324296078877
 20
8.649666641830423
 10
-1.626124249350812
 20
8.659297387763224
 10
-1.63247817317831
 20
8.667799625542597
 10
-1.640160873669922
 20
8.675336581793931
 10
-1.648947156934201
 20
8.682071483142625
 10
-1.658624407165359
 20
8.688107079470395
 10
-1.669030320900257
 20
8.693304213684275
 10
-1.680015172761413
 20
8.697463251947622
 10
-1.691429237371347
 20
8.700384560423801
 10
-1.703122789352577
 20
8.701868505276163
 10
-1.714946103327624
 20
8.701715452668072
 10
-1.726749453919007
 20
8.699725768762885
 10
-1.738383115749245
 20
8.695699819723964
 10
-1.749758917207156
 20
8.689507843557491
 10
-1.761034901746746
 20
8.681299565640946
 10
-1.772430666588321
 20
8.671294583194635
 10
-1.784165808952185
 20
8.65971249343886
 10
-1.796459926058643
 20
8.646772893593933
 10
-1.809532615128
 20
8.63269538088015
 10
-1.82360347338056
 20
8.617699552517821
 10
-1.838892098036629
 20
8.602005005727248
 10
-1.855534905551244
 20
8.585783092884883
 10
-1.873335589318375
 20
8.569012186991761
 10
-1.892014661966726
 20
8.551622416205049
 10
-1.911292636124998
 20
8.533543908681926
 10
-1.930890024421896
 20
8.514706792579568
 10
-1.950527339486123
 20
8.495041196055151
 10
-1.96992509394638
 20
8.474477247265852
 10
-1.988803800431371
 20
8.452945074368845
 10
-2.006935543644265
 20
8.430431368441682
 10
-2.024298696586092
 20
8.407149072243459
 10
-2.040923204332348
 20
8.383367691453635
 10
-2.05683901195853
 20
8.359356731751674
 10
-2.072076064540133
 20
8.335385698817036
 10
-2.086664307152654
 20
8.311724098329193
 10
-2.100633684871589
 20
8.288641435967612
 10
-2.114014142772433
 20
8.266407217411748
 10
-2.126842280391905
 20
8.245182813346227
 10
-2.139181315111607
 20
8.22469705447628
 10
-2.151101118774364
 20
8.204570636512286
 10
-2.162671563223
 20
8.184424255164625
 10
-2.173962520300338
 20
8.163878606143684
 10
-2.185043861849204
 20
8.142554385159844
 10
-2.19598545971242
 20
8.120072287923488
 10
-2.206857185732813
 20
8.096053010144997
 10
-2.21770229390832
 20
8.070238691452047
 10
-2.228457566857339
 20
8.042857247141464
 10
-2.239033169353382
 20
8.014258036427374
 10
-2.249339266169959
 20
7.9847904185239
 10
-2.259286022080583
 20
7.954803752645158
 10
-2.268783601858766
 20
7.924647398005269
 10
-2.277742170278019
 20
7.894670713818358
 10
-2.286071892111853
 20
7.865223059298548
 10
-2.293689586595001
 20
7.836578930971216
 10
-2.300538690807084
 20
7.808713374606782
 10
-2.306569296288939
 20
7.781526573286924
 10
-2.311731494581407
 20
7.754918710093323
 10
-2.315975377225328
 20
7.728789968107666
 10
-2.319251035761542
 20
7.703040530411624
 10
-2.321508561730887
 20
7.67757058008688
 10
-2.322698046674204
 20
7.652280300215109
 10
-2.322802854438441
 20
7.6270715374933
 10
-2.32193943809497
 20
7.60185279307966
 10
-2.320257523021272
 20
7.5765342317477
 10
-2.317906834594827
 20
7.551026018270936
 10
-2.315037098193117
 20
7.52523831742287
 10
-2.311798039193621
 20
7.499081293977018
 10
-2.308339382973821
 20
7.472465112706893
 10
-2.304810854911196
 20
7.445299938386003
 10
-2.301315599154678
 20
7.417534198939891
 10
-2.297770434938999
 20
7.389269374902174
 10
-2.294045600270345
 20
7.360645209958505
 10
-2.290011333154896
 20
7.33180144779453
 10
-2.285537871598839
 20
7.302877832095902
 10
-2.280495453608355
 20
7.274014106548264
 10
-2.274754317189629
 20
7.245350014837267
 10
-2.268184700348844
 20
7.217025300648558
 10
-2.260720058473786
 20
7.189151426207596
 10
-2.252546716478654
 20
7.161726727899081
 10
-2.243914216659248
 20
7.134721260647504
 10
-2.235072101311369
 20
7.10810507937738
 10
-2.226269912730818
 20
7.081848239013209
 10
-2.217757193213397
 20
7.055920794479493
 10
-2.209783485054905
 20
7.03029280070074
 10
-2.202598330551144
 20
7.00493431260145
 10
-2.196373082078565
 20
6.979773794723499
 10
-2.190966332336212
 20
6.954573350078216
 10
-2.186158484103781
 20
6.929053491294312
 10
-2.181729940160967
 20
6.902934731000483
 10
-2.177461103287466
 20
6.875937581825435
 10
-2.173132376262973
 20
6.847782556397875
 10
-2.168524161867183
 20
6.818190167346497
 10
-2.163416862879791
 20
6.78688092730001
 10
-2.157692362614119
 20
6.7537267378799
 10
-2.151638466517989
 20
6.719205056678804
 10
-2.145644460572851
 20
6.683944730282135
 10
-2.140099630760155
 20
6.648574605275314
 10
-2.13539326306135
 20
6.61372352824376
 10
-2.131914643457885
 20
6.580020345772888
 10
-2.13005305793121
 20
6.548093904448122
 10
-2.130197792462775
 20
6.518573050854874
 10
-2.13265162503815
 20
6.491901970279672
 10
-2.137371301659398
 20
6.467786202813474
 10
-2.144227060332702
 20
6.445746627248338
 10
-2.153089139064245
 20
6.425304122376329
 10
-2.163827775860211
 20
6.405979566989503
 10
-2.176313208726782
 20
6.387293839879935
 10
-2.190415675670144
 20
6.368767819839671
 10
-2.20600541469648
 20
6.34992238566079
 10
-2.22294600935075
 20
6.330421487051602
 10
-2.241074425333033
 20
6.310501357385465
 10
-2.260220973882185
 20
6.290541300952006
 10
-2.280215966237058
 20
6.270920622040834
 10
-2.30088971363651
 20
6.252018624941568
 10
-2.322072527319397
 20
6.234214613943827
 10
-2.343594718524573
 20
6.217887893337226
 10
-2.365286598490893
 20
6.20341776741138
 10
-2.38696516953477
 20
6.191110341382481
 10
-2.408394198282846
 20
6.180978924172966
 10
-2.429324142439321
 20
6.17296362563184
 10
-2.449505459708393
 20
6.167004555608117
 10
-2.468688607794261
 20
6.163041823950797
 10
-2.486624044401125
 20
6.16101554050889
 10
-2.503062227233184
 20
6.160865815131413
 10
-2.517753613994635
 20
6.162532757667362
 10
-2.530491916387619
 20
6.165966459657583
 10
-2.541243862106028
 20
6.171156939410241
 10
-2.550019432841692
 20
6.178104196925338
 10
-2.556828610286447
 20
6.186808232202873
 10
-2.561681376132121
 20
6.197269045242848
 10
-2.56458771207055
 20
6.20948663604526
 10
-2.565557599793562
 20
6.223461004610111
 10
-2.564601020992992
 20
6.2391921509374
 10
-2.561762893282083
 20
6.256623512106744
 10
-2.557227877959728
 20
6.275472273516242
 10
-2.551215572246232
 20
6.295399057643598
 10
-2.543945573361899
 20
6.316064486966526
 10
-2.535637478527034
 20
6.337129183962728
 10
-2.526510884961942
 20
6.358253771109931
 10
-2.516785389886928
 20
6.379098870885834
 10
-2.506680590522297
 20
6.399325105768149
 10
-2.496409429627131
 20
6.418714542151876
 10
-2.48615823211563
 20
6.437535022101184
 10
-2.476106668440769
 20
6.45617583159751
 10
-2.466434409055527
 20
6.475026256622313
 10
-2.457321124412877
 20
6.494475583157033
 10
-2.448946484965799
 20
6.514913097183128
 10
-2.441490161167268
 20
6.536728084682041
 10
-2.435131823470261
 20
6.560309831635229
 10
-2.430014542791037
 20
6.585897898646651
 10
-2.426134991898985
 20
6.613132944810362
 10
-2.423453244026779
 20
6.641505903842929
 10
-2.421929372407088
 20
6.670507709460906
 10
-2.421523450272585
 20
6.699629295380874
 10
-2.422195550855942
 20
6.728361595319391
 10
-2.423905747389831
 20
6.756195542993024
 10
-2.426614113106924
 20
6.782622072118339
 10
-2.430269075932754
 20
6.807278514558774
 10
-2.434772482564308
 20
6.830387794765246
 10
-2.440014534391432
 20
6.852319235335534
 10
-2.445885432803974
 20
6.873442158867426
 10
-2.452275379191783
 20
6.894125887958709
 10
-2.459074574944705
 20
6.914739745207169
 10
-2.466173221452588
 20
6.935653053210592
 10
-2.47346152010528
 20
6.957235134566759
 10
-2.480844644830376
 20
6.979745513263306
 10
-2.488287659706465
 20
7.003004518847257
 10
-2.495770601349881
 20
7.026722682255482
 10
-2.503273506376962
 20
7.050610534424848
 10
-2.510776411404042
 20
7.074378606292232
 10
-2.518259353047459
 20
7.097737428794505
 10
-2.525702367923547
 20
7.120397532868531
 10
-2.533085492648643
 20
7.142069449451187
 10
-2.540393754684999
 20
7.162488663708922
 10
-2.547632144878531
 20
7.181490477726506
 10
-2.55481064492107
 20
7.198935147818295
 10
-2.561939236504449
 20
7.214682930298639
 10
-2.569027901320501
 20
7.228594081481888
 10
-2.576086621061056
 20
7.240528857682393
 10
-2.583125377417947
 20
7.250347515214506
 10
-2.590154152083005
 20
7.257910310392576
 10
-2.597172945056232
 20
7.263115762682985
 10
-2.604141829570298
 20
7.266015444160192
 10
-2.611010897166045
 20
7.266699190050687
 10
-2.61773023938431
 20
7.265256835580954
 10
-2.624249947765936
 20
7.261778215977492
 10
-2.630520113851759
 20
7.256353166466782
 10
-2.636490829182623
 20
7.249071522275308
 10
-2.642112185299364
 20
7.240023118629569
 10
-2.647342591819352
 20
7.229311099678489
 10
-2.652173730666057
 20
7.21709184526077
 10
-2.656605601839481
 20
7.20353504413756
 10
-2.660638205339624
 20
7.188810385070004
 10
-2.664271541166485
 20
7.173087556819242
 10
-2.667505609320064
 20
7.15653624814642
 10
-2.670340409800363
 20
7.13932614781268
 10
-2.67277594260738
 20
7.121626944579175
 10
-2.674812207741115
 20
7.103566736824415
 10
-2.676449205201569
 20
7.085107261396368
 10
-2.677686934988741
 20
7.066168664760383
 10
-2.678525397102633
 20
7.046671093381806
 10
-2.678964591543242
 20
7.026534693725977
 10
-2.67900451831057
 20
7.005679612258243
 10
-2.678645177404617
 20
6.984025995443947
 10
-2.677886568825383
 20
6.961493989748429
 10
-2.67674532872592
 20
6.938040341173755
 10
-2.675304637871496
 20
6.913768193868854
 10
-2.673664313180431
 20
6.888817291519375
 10
-2.671924171571046
 20
6.863327377810964
 10
-2.670184029961661
 20
6.837438196429272
 10
-2.668543705270597
 20
6.811289491059949
 10
-2.667103014416173
 20
6.785021005388636
 10
-2.66596177431671
 20
6.758772483100994
 10
-2.665201502122169
 20
6.732670358960218
 10
-2.664830515909079
 20
6.706787832039752
 10
-2.664838833985605
 20
6.681184792490575
 10
-2.665216474659918
 20
6.655921130463692
 10
-2.665953456240183
 20
6.631056736110091
 10
-2.66703979703457
 20
6.606651499580761
 10
-2.668465515351245
 20
6.5827653110267
 10
-2.670220629498379
 20
6.559458060598895
 10
-2.67233674816677
 20
6.536901100673797
 10
-2.675011841577756
 20
6.51571163252969
 10
-2.678485470335305
 20
6.49661831967031
 10
-2.682997195043385
 20
6.480349825599395
 10
-2.688786576305966
 20
6.467634813820688
 10
-2.696093174727017
 20
6.459201947837921
 10
-2.705156550910506
 20
6.455779891154839
 10
-2.716216265460402
 20
6.458097307275178
 10
-2.729402080370522
 20
6.466688216711946
 10
-2.744404563194072
 20
6.481308068015273
 10
-2.760804482874108
 20
6.501517666744533
 10
-2.778182608353683
 20
6.526877818459127
 10
-2.796119708575852
 20
6.556949328718443
 10
-2.814196552483669
 20
6.591293003081866
 10
-2.83199390902019
 20
6.629469647108797
 10
-2.849092547128468
 20
6.671040066358616
 10
-2.865138116748466
 20
6.715734755151864
 10
-2.880035791807781
 20
6.763962962853655
 10
-2.893755627230914
 20
6.816303627590238
 10
-2.906267677942372
 20
6.873335687487886
 10
-2.917541998866657
 20
6.935638080672844
 10
-2.927548644928273
 20
7.003789745271375
 10
-2.936257671051725
 20
7.078369619409742
 10
-2.943639132161515
 20
7.159956641214194
 10
-2.94964145618318
 20
7.248708854138746
 10
-2.954126563046375
 20
7.343100722948398
 10
-2.956934745681788
 20
7.4411858177359
 10
-2.957906297020106
 20
7.541017708594011
 10
-2.956881509992017
 20
7.64064996561548
 10
-2.953700677528208
 20
7.73813615889306
 10
-2.948204092559367
 20
7.83152985851951
 10
-2.94023204801618
 20
7.918884634587574
 10
-2.929679736134413
 20
7.998773105165279
 10
-2.916661946370132
 20
8.071844080221698
 10
-2.901348367484483
 20
8.139265417701187
 10
-2.883908688238611
 20
8.20220497554809
 10
-2.864512597393659
 20
8.261830611706761
 10
-2.843329783710773
 20
8.319310184121544
 10
-2.820529935951097
 20
8.375811550736784
 10
-2.796282742875775
 20
8.432502569496833
 10
-2.770753844794834
 20
8.490257686610799
 10
-2.744092688213825
 20
8.548777701346832
 10
-2.716444671187179
 20
8.607470001237837
 10
-2.687955191769328
 20
8.665741973816725
 10
-2.658769648014704
 20
8.723001006616403
 10
-2.62903343797774
 20
8.778654487169781
 10
-2.598891959712867
 20
8.832109803009769
 10
-2.568490611274516
 20
8.882774341669266
 10
-2.537912486881496
 20
8.930245421697931
 10
-2.506991465410106
 20
8.974880085712356
 10
-2.475499121901024
 20
9.017225307345889
 10
-2.443207031394925
 20
9.057828060231862
 10
-2.409886768932486
 20
9.097235318003614
 10
-2.375309909554383
 20
9.135994054294489
 10
-2.339248028301291
 20
9.174651242737821
 10
-2.301472700213888
 20
9.213753856966961
 10
-2.261845739442821
 20
9.253684326560376
 10
-2.220589916578632
 20
9.294166904877158
 10
-2.178018241321834
 20
9.334761301221508
 10
-2.134443723372939
 20
9.375027224897651
 10
-2.090179372432462
 20
9.41452438520981
 10
-2.045538198200914
 20
9.452812491462193
 10
-2.000833210378812
 20
9.48945125295903
 10
-1.956377418666665
 20
9.524000379004526
 10
-1.91247265865525
 20
9.556100769099572
 10
-1.869376069496387
 20
9.585718083531709
 10
-1.827333616232155
 20
9.612899172785144
 10
-1.786591263904636
 20
9.637690887344078
 10
-1.74739497755591
 20
9.660140077692716
 10
-1.709990722228058
 20
9.680293594315271
 10
-1.674624462963161
 20
9.698198287695943
 10
-1.641542164803299
 20
9.713901008318938
 10
-1.610802390853731
 20
9.727460319289516
 10
-1.581714096472419
 20
9.73898163419714
 10
-1.553398835080503
 20
9.748582079252326
 10
-1.524978160099125
 20
9.756378780665581
 10
-1.495573624949423
 20
9.762488864647432
 10
-1.464306783052538
 20
9.76702945740838
 10
-1.430299187829611
 20
9.770117685158949
 10
-1.392672392701782
 20
9.771870674109653
 10
-1.350872000272613
 20
9.772376268918375
 10
-1.305639809875366
 20
9.771605188032486
 10
-1.258041670025723
 20
9.769498868346731
 10
-1.209143429239367
 20
9.765998746755849
 10
-1.160010936031982
 20
9.761046260154591
 10
-1.111710038919251
 20
9.754582845437692
 10
-1.065306586416857
 20
9.746549939499896
 10
-1.021866427040484
 20
9.736888979235946
 10
-0.9822504384374145
 20
9.725680000889695
 10
-0.9464996147813277
 20
9.71355743810143
 10
-0.9144499793775036
 20
9.701294323860544
 10
-0.8859375555312219
 20
9.689663691156439
 10
-0.860798366547762
 20
9.679438572978515
 10
-0.8388684357324031
 20
9.671392002316157
 10
-0.8199837863904253
 20
9.666297012158771
 10
-0.8039804418271076
 20
9.664926635495747
 10
-0.7907178505898327
 20
9.667835269723529
 10
-0.7801491621943946
 20
9.674702769866705
 10
-0.7722509513986903
 20
9.684990355356909
 10
-0.7669997929606171
 20
9.69815924562577
 10
-0.7643722616380719
 20
9.713670660104925
 10
-0.7643449321889518
 20
9.730985818226006
 10
-0.7668943793711539
 20
9.749565939420648
 10
-0.7719971779425752
 20
9.768872243120478
 10
-0.7795166806576156
 20
9.788372781119411
 10
-0.7888633522566842
 20
9.807562934660484
 10
-0.7993344354766934
 20
9.825944917349003
 10
-0.8102271730545552
 20
9.843020942790282
 10
-0.8208388077271822
 20
9.858293224589637
 10
-0.8304665822314859
 20
9.871263976352379
 10
-0.8384077393043789
 20
9.881435411683821
 10
-0.8439595216827731
 20
9.888309744189278
 10
-0.8466358555930327
 20
9.891648817240696
 10
-0.8468174012193305
 20
9.892252993276603
 10
-0.845101502235291
 20
9.89118226450215
 10
-0.8420855023145389
 20
9.889496623122495
 10
-0.8383667451306989
 20
9.88825606134279
 10
-0.8345425743573954
 20
9.888520571368202
 10
-0.831210333668254
 20
9.891350145403889
 10
-0.8289673667368985
 20
9.897804775654998
 10
-0.8282216631966219
 20
9.908561842039013
 10
-0.828623796519389
 20
9.922768275322686
 10
-0.8296349861368319
 20
9.939188393985086
 10
-0.8307164514805839
 20
9.95658651650528
 10
-0.8313294119822772
 20
9.973726961362343
 10
-0.8309350870735446
 20
9.989374047035347
 10
-0.8289946961860186
 20
10.00229209200336
 10
-0.8249694587513319
 20
10.01124541474545
 10
-0.8184455288256662
 20
10.01529114926698
 10
-0.8095087989633988
 20
10.01465769167844
 10
-0.7983700963434562
 20
10.00986625361663
 10
-0.7852402481447644
 20
10.00143804671836
 10
-0.7703300815462502
 20
9.989894282620385
 10
-0.7538504237268395
 20
9.975756172959512
 10
-0.7360121018654592
 20
9.95954492937253
 10
-0.7170259431410352
 20
9.94178176349623
 10
-0.6971281520781057
 20
9.92302400088231
 10
-0.6766564425836542
 20
9.903973422742103
 10
-0.6559739059102765
 20
9.885367924201851
 10
-0.6354436333105679
 20
9.867945400387798
 10
-0.6154287160371235
 20
9.852443746426185
 10
-0.5962922453425392
 20
9.839600857443256
 10
-0.57839731247941
 20
9.830154628565249
 10
-0.5621070087003314
 20
9.824842954918411
 10
-0.5477492873947445
 20
9.824222186002684
 10
-0.5355115504994725
 20
9.82812248881282
 10
-0.5255460620881851
 20
9.836192484717278
 10
-0.5180050862345503
 20
9.848080795084515
 10
-0.5130408870122381
 20
9.863436041282984
 10
-0.5108057284949168
 20
9.881906844681145
 10
-0.5114518747562561
 20
9.903141826647448
 10
-0.5151315898699245
 20
9.926789608550356
 10
-0.5218429217324136
 20
9.952467578102185
 10
-0.5309670535315045
 20
9.979668188390702
 10
-0.5417309522778004
 20
10.00785265884754
 10
-0.5533615849819046
 20
10.03648220890434
 10
-0.5650859186544205
 20
10.06501805799272
 10
-0.5761309203059516
 20
10.09292142554433
 10
-0.585723556947101
 20
10.11965353099078
 10
-0.5930907955884721
 20
10.14467559376373
 10
-0.5976333404529318
 20
10.1675191090211
 10
-0.5994468446124002
 20
10.18799667482608
 10
-0.5988006983510611
 20
10.20599116496815
 10
-0.5959642919530981
 20
10.22138545323679
 10
-0.591207015702695
 20
10.23406241342149
 10
-0.5847982598840354
 20
10.24390491931174
 10
-0.5770074147813028
 20
10.25079584469702
 10
-0.5681038706786813
 20
10.25461806336681
 10
-0.5582418437533482
 20
10.25526225752464
 10
-0.547114853754457
 20
10.25265034303016
 10
-0.5343012463241547
 20
10.24671204415707
 10
-0.5193793671045889
 20
10.23737708517906
 10
-0.5019275617379068
 20
10.22457519036981
 10
-0.4815241758662556
 20
10.20823608400301
 10
-0.4577475551317827
 20
10.18828949035237
 10
-0.4301760451766353
 20
10.16466513369157
 10
-0.398575393579784
 20
10.13734934929604
 10
-0.3634609556674934
 20
10.10655491644823
 10
-0.3255354887028514
 20
10.07255122543232
 10
-0.2855017499489457
 20
10.03560766653249
 10
-0.2440624966688643
 20
9.995993630032934
 10
-0.201920486125695
 20
9.953978506217824
 10
-0.1597784755825258
 20
9.909831685371345
 10
-0.1183392223024443
 20
9.863822557777682
 10
-0.0781571236818868
 20
9.816189280064886
 10
-0.0391931376506815
 20
9.767045074236451
 10
-0.0012598622720052
 20
9.716471928639734
 10
0.0358301043909658
 20
9.6645518316221
 10
0.0722641642750547
 20
9.611366771530907
 10
0.108229719317085
 20
9.556998736713516
 10
0.1439141714538802
 20
9.501529715517293
 10
0.1795049226222636
 20
9.445041696289587
 10
0.2151249553432758
 20
9.387632284205833
 10
0.2506395744748247
 20
9.329461551753734
 10
0.2858496654590356
 20
9.270705188249063
 10
0.3205561137380335
 20
9.211538883007589
 10
0.3545598047539435
 20
9.152138325345086
 10
0.3876616239488908
 20
9.092679204577329
 10
0.4196624567650004
 20
9.033337210020084
 10
0.4503631886443974
 20
8.974288030989125
 10
0.4796291244449901
 20
8.915639033177425
 10
0.5075832466878186
 20
8.857224287786754
 10
0.5344129573097068
 20
8.798809542396083
 10
0.5603056582474775
 20
8.740160544584385
 10
0.5854487514379546
 20
8.68104304193063
 10
0.6100296388179616
 20
8.621222782013779
 10
0.6342357223243216
 20
8.56046551241282
 10
0.6582544038938579
 20
8.498536980706706
 10
0.6822145223581372
 20
8.435364959065633
 10
0.706010664127696
 20
8.371525318024627
 10
0.7294788525078137
 20
8.307755952709928
 10
0.75245511080377
 20
8.244794758247781
 10
0.774775462320844
 20
8.183379629764425
 10
0.7962759303643157
 20
8.124248462386107
 10
0.8167925382394644
 20
8.068139151239064
 10
0.8361613092515696
 20
8.015789591449546
 10
0.8543041592602881
 20
7.967843977175376
 10
0.8714865743427864
 20
7.924571698700738
 10
0.8880599331306086
 20
7.88614844534141
 10
0.9043756142552988
 20
7.852749906413158
 10
0.9207849963484004
 20
7.824551771231759
 10
0.9376394580414579
 20
7.80172972911298
 10
0.955290377966015
 20
7.784459469372594
 10
0.9740891347536155
 20
7.772916681326377
 10
0.9943773465182607
 20
7.767234108012907
 10
1.016457589303779
 20
7.767372707362016
 10
1.040622678636459
 20
7.773250491026343
 10
1.067165430042586
 20
7.784785470658527
 10
1.096378659048447
 20
7.801895657911208
 10
1.128555181180329
 20
7.824499064437028
 10
1.163987811964517
 20
7.85251370188862
 10
1.2029693669273
 20
7.885857581918632
 10
1.245654062245854
 20
7.924356967314795
 10
1.29164171670092
 20
7.967471125405237
 10
1.340393549724133
 20
8.014567574653174
 10
1.391370780747124
 20
8.065013833521833
 10
1.444034629201525
 20
8.118177420474429
 10
1.49784631451897
 20
8.173425853974189
 10
1.552267056131091
 20
8.230126652484328
 10
1.606758073469521
 20
8.28764733446807
 10
1.660737639688704
 20
8.345523299290375
 10
1.713452242834329
 20
8.403961469923148
 10
1.764105424674895
 20
8.463336650240039
 10
1.811900726978905
 20
8.524023644114695
 10
1.856041691514857
 20
8.586397255420758
 10
1.895731860051254
 20
8.650832288031883
 10
1.930174774356593
 20
8.717703545821711
 10
1.958573976199378
 20
8.787385832663892
 10
1.980408253942816
 20
8.860121209393485
 10
1.996257382328956
 20
8.935620764691226
 10
2.006976382694555
 20
9.01346284419926
 10
2.013420276376369
 20
9.093225793559732
 10
2.016444084711155
 20
9.174487958414792
 10
2.016902829035671
 20
9.256827684406587
 10
2.015651530686673
 20
9.339823317177263
 10
2.013545211000918
 20
9.42305320236897
 10
2.011308052298721
 20
9.506081443922887
 10
2.00914088083463
 20
9.58841517897633
 10
2.007113683846749
 20
9.669547302965641
 10
2.005296448573186
 20
9.748970711327178
 10
2.003759162252045
 20
9.826178299497282
 10
2.002571812121431
 20
9.900662962912306
 10
2.00180438541945
 20
9.971917597008596
 10
2.001526869384209
 20
10.03943509722249
 10
2.001822781350543
 20
10.10283885182096
 10
2.002829759040219
 20
10.16227422039332
 10
2.004698970271733
 20
10.21801705535951
 10
2.007581582863581
 20
10.27034320913947
 10
2.01162876463426
 20
10.31952853415314
 10
2.016991683402268
 20
10.36584888282046
 10
2.0238215069861
 20
10.40958010756135
 10
2.032269403204254
 20
10.45099806079576
 10
2.042480395076497
 20
10.49040890543751
 10
2.054574926427682
 20
10.52824004637597
 10
2.06866729628393
 20
10.56494919899439
 10
2.084871803671366
 20
10.60099407867604
 10
2.103302747616111
 20
10.63683240080417
 10
2.124074427144289
 20
10.67292188076203
 10
2.147301141282023
 20
10.7097202339329
 10
2.173097189055436
 20
10.74768517570001
 10
2.201410690669312
 20
10.78709514526088
 10
2.23152505104308
 20
10.82751147706992
 10
2.262557496274834
 20
10.8683162293958
 10
2.293625252462664
 20
10.90889146050718
 10
2.323845545704662
 20
10.94861922867274
 10
2.352335602098919
 20
10.98688159216112
 10
2.378212647743528
 20
11.023060609241
 10
2.400593908736579
 20
11.05653833818104
 10
2.41879670659393
 20
11.08683660978437
 10
2.432938744502503
 20
11.114036344992
 10
2.443337821066984
 20
11.13835823727942
 10
2.450311734892061
 20
11.16002298012209
 10
2.454178284582419
 20
11.17925126699549
 10
2.455255268742747
 20
11.1962637913751
 10
2.453860485977732
 20
11.2112812467364
 10
2.450311734892061
 20
11.22452432655486
 10
2.444831180251046
 20
11.23619606882793
 10
2.437258451462508
 20
11.24642888964088
 10
2.427337544094894
 20
11.25533754960097
 10
2.41481245371665
 20
11.26303680931545
 10
2.399427175896223
 20
11.26964142939156
 10
2.380925706202059
 20
11.27526617043655
 10
2.359052040202606
 20
11.28002579305768
 10
2.333550173466308
 20
11.28403505786218
 10
2.304339185052159
 20
11.28741461061665
 10
2.27203848798133
 20
11.29030863772507
 10
2.23744257876554
 20
11.29286721075077
 10
2.201345953916505
 20
11.29524040125707
 10
2.164543109945944
 20
11.29757828080729
 10
2.127828543365573
 20
11.30003092096476
 10
2.091996750687111
 20
11.3027483932928
 10
2.057842228422275
 20
11.30588076935474
 10
2.025968205404035
 20
11.30955752265619
 10
1.996212839750375
 20
11.31382573447191
 10
1.968223021900533
 20
11.31871188801898
 10
1.941645642293743
 20
11.32424246651444
 10
1.916127591369245
 20
11.33044395317534
 10
1.891315759566272
 20
11.33734283121875
 10
1.866857037324064
 20
11.34496558386174
 10
1.842398315081854
 20
11.35333869432134
 10
1.817714485494659
 20
11.36253425579955
 10
1.793092450080597
 20
11.37280680143809
 10
1.768947112573565
 20
11.38445647436361
 10
1.745693376707461
 20
11.39778341770275
 10
1.723746146216182
 20
11.41308777458217
 10
1.703520324833624
 20
11.43066968812851
 10
1.685430816293684
 20
11.45082930146843
 10
1.669892524330259
 20
11.47386675772857
 10
1.657195293041143
 20
11.49992330073323
 10
1.647128727979714
 20
11.52850457709735
 10
1.639357375063247
 20
11.55895733413351
 10
1.633545780209017
 20
11.59062831915432
 10
1.629358489334298
 20
11.62286427947234
 10
1.626460048356365
 20
11.65501196240017
 10
1.624515003192494
 20
11.6864181152504
 10
1.623187899759958
 20
11.71642948533561
 10
1.622224204917042
 20
11.74454436282156
 10
1.62169306928606
 20
11.77086720928663
 10
1.621744564430338
 20
11.79565402916238
 10
1.6225287619132
 20
11.81916082688037
 10
1.624195733297971
 20
11.84164360687213
 10
1.626895550147974
 20
11.86335837356925
 10
1.630778284026534
 20
11.88456113140325
 10
1.635994006496976
 20
11.9055078848057
 10
1.642660420746221
 20
11.92643551144027
 10
1.650765756455577
 20
11.94750438189916
 10
1.660265874929948
 20
11.96885574000665
 10
1.671116637474239
 20
11.99063082958706
 10
1.683273905393354
 20
12.01297089446468
 10
1.696693539992199
 20
12.03601717846384
 10
1.711331402575677
 20
12.05991092540882
 10
1.727143354448693
 20
12.08479337912395
 10
1.744066130148277
 20
12.11068955153643
 10
1.76195995713996
 20
12.13715952698516
 10
1.7806659361214
 20
12.16364715791192
 10
1.800025167790251
 20
12.18959629675852
 10
1.819878752844171
 20
12.21445079596675
 10
1.840067791980816
 20
12.23765450797841
 10
1.860433385897843
 20
12.2586512852353
 10
1.880816635292908
 20
12.27688498017922
 10
1.901035100226284
 20
12.29187006716412
 10
1.920812178208705
 20
12.30340350819255
 10
1.939847726113523
 20
12.31135288717923
 10
1.95784160081409
 20
12.31558578803889
 10
1.974493659183755
 20
12.31596979468622
 10
1.989503758095871
 20
12.31237249103594
 10
2.002571754423789
 20
12.30466146100277
 10
2.013397505040859
 20
12.29270428850142
 10
2.021792684848008
 20
12.27653187061846
 10
2.028016240856462
 20
12.25682835712786
 10
2.032438938105023
 20
12.23444121097547
 10
2.035431541632493
 20
12.2102178951071
 10
2.037364816477672
 20
12.18500587246859
 10
2.038609527679363
 20
12.15965260600578
 10
2.039536440276367
 20
12.1350055586645
 10
2.040516319307485
 20
12.11191219339058
 10
2.041872848536751
 20
12.09105665995799
 10
2.043741386629124
 20
12.07246985545331
 10
2.046210210974794
 20
12.05601936379125
 10
2.049367598963954
 20
12.04157276888652
 10
2.053301827986792
 20
12.02899765465383
 10
2.058101175433501
 20
12.0181616050079
 10
2.06385391869427
 20
12.00893220386345
 10
2.070648335159293
 20
12.00117703513519
 10
2.078502080306604
 20
11.99486961560605
 10
2.087150321965633
 20
11.9904071935319
 10
2.096257606053655
 20
11.98829295003683
 10
2.105488478487944
 20
11.98903006624493
 10
2.114507485185775
 20
11.99312172328027
 10
2.122979172064423
 20
12.00107110226696
 10
2.130568085041162
 20
12.01338138432907
 10
2.136938770033268
 20
12.0305557505907
 10
2.141846992927878
 20
12.05281636581716
 10
2.145413399491589
 20
12.07926132933866
 10
2.147849855460855
 20
12.10870772412665
 10
2.149368226572138
 20
12.13997263315257
 10
2.150180378561894
 20
12.17187313938787
 10
2.150498177166581
 20
12.20322632580399
 10
2.150533488122657
 20
12.23284927537236
 10
2.150498177166581
 20
12.25955907106443
 10
2.150596753585627
 20
12.28243468544255
 10
2.151004300870342
 20
12.30160264943266
 10
2.151888546062087
 20
12.31745138355158
 10
2.153417216202224
 20
12.33036930831618
 10
2.155758038332118
 20
12.34074484424328
 10
2.159078739493131
 20
12.34896641184972
 10
2.163547046726623
 20
12.35542243165234
 10
2.16933068707396
 20
12.36050132416799
 10
2.176512052765986
 20
12.36452088800134
 10
2.184832196791472
 20
12.36751643410848
 10
2.193946837328676
 20
12.36945265153333
 10
2.203511692555853
 20
12.37029422931982
 10
2.21318248065126
 20
12.37000585651187
 10
2.222614919793151
 20
12.36855222215339
 10
2.231464728159783
 20
12.36589801528832
 10
2.239387623929411
 20
12.36200792496058
 10
2.246142315568847
 20
12.35682751344621
 10
2.251899472699126
 20
12.35022583594977
 10
2.256932755229841
 20
12.34205282090794
 10
2.261515823070582
 20
12.33215839675738
 10
2.265922336130941
 20
12.32039249193478
 10
2.270425954320511
 20
12.3066050348768
 10
2.275300337548882
 20
12.29064595402014
 10
2.280819145725645
 20
12.27236517780145
 10
2.287194244587261
 20
12.25174505074271
 10
2.294390323177651
 20
12.22929758170701
 10
2.302310276367606
 20
12.20566719564276
 10
2.310856999027916
 20
12.18149831749834
 10
2.319933386029371
 20
12.15743537222216
 10
2.329442332242761
 20
12.13412278476259
 10
2.339286732538876
 20
12.11220498006804
 10
2.349369481788507
 20
12.0923263830869
 10
2.359578761964078
 20
12.07503137105868
 10
2.369743903444553
 20
12.06046413038735
 10
2.379679523710532
 20
12.04866879976802
 10
2.389200240242614
 20
12.03968951789578
 10
2.398120670521399
 20
12.03357042346572
 10
2.406255432027485
 20
12.03035565517293
 10
2.413419142241472
 20
12.03008935171253
 10
2.419426418643958
 20
12.03281565177958
 10
2.424147787729332
 20
12.03855073956232
 10
2.427677412047129
 20
12.04719898122135
 10
2.430165363160674
 20
12.05863678841041
 10
2.431761712633292
 20
12.07274057278323
 10
2.432616532028306
 20
12.08938674599355
 10
2.432879892909042
 20
12.10845171969509
 10
2.432701866838824
 20
12.12981190554161
 10
2.432232525380976
 20
12.15334371518681
 10
2.431633710417515
 20
12.17881615612638
 10
2.431114345105226
 20
12.20556861922371
 10
2.430895122919585
 20
12.23283309118415
 10
2.43119673733607
 20
12.25984155871304
 10
2.432239881830159
 20
12.28582600851572
 10
2.434245249877327
 20
12.31001842729751
 10
2.437433534953053
 20
12.33165080176378
 10
2.442025430532813
 20
12.34995511861985
 10
2.448166594310423
 20
12.36434433322096
 10
2.455702540853048
 20
12.3749552755219
 10
2.464403748946192
 20
12.38210574412736
 10
2.474040697375358
 20
12.38611353764202
 10
2.484383864926052
 20
12.38729645467058
 10
2.495203730383776
 20
12.38597229381772
 10
2.506270772534035
 20
12.38245885368812
 10
2.517355470162331
 20
12.37707393288648
 10
2.528260670430573
 20
12.37010149035124
 10
2.53891869400628
 20
12.36169012635589
 10
2.549294229933377
 20
12.35195460150768
 10
2.559351967255787
 20
12.34100967641385
 10
2.569056595017433
 20
12.32897011168165
 10
2.57837280226224
 20
12.31595066791834
 10
2.58726527803413
 20
12.30206610573116
 10
2.595698711377029
 20
12.28743118572735
 10
2.603646619073877
 20
12.27216655367352
 10
2.611117828863696
 20
12.25641639597364
 10
2.618129996224522
 20
12.24033078419103
 10
2.624700776634393
 20
12.22405978988902
 10
2.630847825571349
 20
12.20775348463094
 10
2.636588798513426
 20
12.1915619399801
 10
2.641941350938664
 20
12.17563522749984
 10
2.646923138325101
 20
12.16012341875347
 10
2.651581241947504
 20
12.14517511401449
 10
2.656080446267564
 20
12.13093302839703
 10
2.6606149615437
 20
12.11753840572541
 10
2.665378998034333
 20
12.10513248982392
 10
2.670566765997881
 20
12.09385652451688
 10
2.676372475692766
 20
12.08385175362858
 10
2.682990337377405
 20
12.07525942098334
 10
2.690614561310221
 20
12.06822077040546
 10
2.699348137779769
 20
12.06287410313957
 10
2.708929177195148
 20
12.0593459501116
 10
2.719004569995596
 20
12.05775989966784
 10
2.729221206620349
 20
12.05823954015455
 10
2.739225977508644
 20
12.06090845991798
 10
2.748665773099718
 20
12.06589024730442
 10
2.757187483832808
 20
12.07330849066013
 10
2.764438000147148
 20
12.08328677833136
 10
2.770170145350207
 20
12.0958398232165
 10
2.774560474222365
 20
12.1105468364223
 10
2.777891474412232
 20
12.1268781536076
 10
2.780445633568421
 20
12.14430411043127
 10
2.78250543933954
 20
12.16229504255216
 10
2.784353379374202
 20
12.18032128562913
 10
2.786271941321016
 20
12.19785317532104
 10
2.788543612828594
 20
12.21436104728672
 10
2.791399386401268
 20
12.22942117005328
 10
2.794864273966258
 20
12.24303354362071
 10
2.798911792306508
 20
12.25530410085724
 10
2.80351545820496
 20
12.26633877463109
 10
2.808648788444558
 20
12.2762434978105
 10
2.814285299808243
 20
12.2851242032637
 10
2.820398509078959
 20
12.29308682385892
 10
2.826961933039648
 20
12.30023729246437
 10
2.833931432995214
 20
12.30665064486174
 10
2.841192248338411
 20
12.3122783284864
 10
2.848611962983951
 20
12.3170408936872
 10
2.856058160846549
 20
12.32085889081296
 10
2.863398425840917
 20
12.32365287021249
 10
2.870500341881771
 20
12.32534338223465
 10
2.877231492883822
 20
12.32585097722825
 10
2.883459462761786
 20
12.32509620554211
 10
2.889087146386452
 20
12.32300697397426
 10
2.894158682452916
 20
12.31954061511944
 10
2.898753520612349
 20
12.31466181802155
 10
2.902951110515923
 20
12.30833527172455
 10
2.906830901814811
 20
12.30052566527233
 10
2.910472344160183
 20
12.29119768770883
 10
2.913954887203212
 20
12.28031602807797
 10
2.917357980595069
 20
12.26784537542368
 10
2.920752246247907
 20
12.25380338522399
 10
2.924172995117802
 20
12.2384195786934
 10
2.927646710421811
 20
12.22197644348052
 10
2.931199875376993
 20
12.20475646723396
 10
2.934858973200403
 20
12.18704213760233
 10
2.9386504871091
 20
12.16911594223424
 10
2.942600900320139
 20
12.15126036877831
 10
2.946736696050581
 20
12.13375790488314
 10
2.951090242676825
 20
12.11687044013963
 10
2.955717449212662
 20
12.10077747190784
 10
2.960680109831224
 20
12.08563789949011
 10
2.966040018705644
 20
12.07161062218879
 10
2.971858970009057
 20
12.05885453930621
 10
2.978198757914596
 20
12.04752855014473
 10
2.985121176595395
 20
12.03779155400668
 10
2.992688020224586
 20
12.0298024501944
 10
3.000921358149719
 20
12.02368188447451
 10
3.009684360415996
 20
12.01939748847058
 10
3.018800472243036
 20
12.01687864027046
 10
3.028093138850459
 20
12.01605471796202
 10
3.037385805457882
 20
12.01685509963308
 10
3.046501917284922
 20
12.01920916337151
 10
3.0552649195512
 20
12.02304628726513
 10
3.063498257476333
 20
12.02829584940182
 10
3.071054802076669
 20
12.03487251497104
 10
3.077905127555478
 20
12.04263209756881
 10
3.08404923391276
 20
12.0514156978928
 10
3.089487121148516
 20
12.06106441664065
 10
3.094218789262745
 20
12.07141935451004
 10
3.098244238255448
 20
12.08232161219861
 10
3.101563468126623
 20
12.09361229040402
 10
3.104176478876272
 20
12.10513248982392
 10
3.106133294358836
 20
12.11671742599663
 10
3.107684033846522
 20
12.12817877382308
 10
3.109128840465979
 20
12.13932232304484
 10
3.110767857343855
 20
12.14995386340349
 10
3.1129012276068
 20
12.15987918464061
 10
3.115829094381463
 20
12.16890407649779
 10
3.119851600794492
 20
12.1768343287166
 10
3.125268889972537
 20
12.18347573103862
 10
3.132257516695979
 20
12.188664970292
 10
3.14049968236013
 20
12.19236232165117
 10
3.149554000014037
 20
12.19455895737708
 10
3.158979082706746
 20
12.19524604973073
 10
3.168333543487302
 20
12.1944147709731
 10
3.177175995404752
 20
12.19205629336517
 10
3.18506505150814
 20
12.18816178916792
 10
3.191559324846512
 20
12.18272243064232
 10
3.19633807423551
 20
12.17574410294774
 10
3.199563141557149
 20
12.16729154283697
 10
3.201517014460039
 20
12.15744419996118
 10
3.202482180592792
 20
12.14628152397154
 10
3.202741127604019
 20
12.13388296451924
 10
3.202576343142329
 20
12.12032797125544
 10
3.202270314856334
 20
12.10569599383131
 10
3.202105530394645
 20
12.09006648189802
 10
3.202323281290449
 20
12.07357038025102
 10
3.203000074615245
 20
12.05654461426288
 10
3.204171221325111
 20
12.03937760445044
 10
3.20587203237612
 20
12.02245777133053
 10
3.208137818724352
 20
12.00617353541999
 10
3.211003891325881
 20
11.99091331723566
 10
3.214505561136785
 20
11.9770655372944
 10
3.218678139113139
 20
11.96501861611302
 10
3.223534866863472
 20
11.95508593842671
 10
3.229000708606121
 20
11.94728074584401
 10
3.234978559211878
 20
11.94154124419176
 10
3.241371313551531
 20
11.93780563929685
 10
3.248081866495871
 20
11.93601213698614
 10
3.255013112915688
 20
11.9360989430865
 10
3.262067947681773
 20
11.93800426342479
 10
3.269149265664915
 20
11.94166630382787
 10
3.276151133996886
 20
11.94700561464457
 10
3.282932308853379
 20
11.95387212431159
 10
3.28934271867107
 20
11.96209810578754
 10
3.295232291886636
 20
11.97151583203107
 10
3.300450956936751
 20
11.98195757600081
 10
3.304848642258091
 20
11.99325561065539
 10
3.308275276287333
 20
12.00524220895348
 10
3.31058078746115
 20
12.01774964385368
 10
3.311697496447064
 20
12.03058959025694
 10
3.311887292835975
 20
12.04349133083333
 10
3.311494458449625
 20
12.05616355019523
 10
3.310863275109761
 20
12.06831493295499
 10
3.310338024638125
 20
12.07965416372501
 10
3.310262988856463
 20
12.08988992711764
 10
3.310982449586518
 20
12.09873090774525
 10
3.312840688650035
 20
12.10588579022022
 10
3.316099595637914
 20
12.11115595041461
 10
3.320691491217674
 20
12.1147135292393
 10
3.326466303825991
 20
12.11682335886486
 10
3.333273961899542
 20
12.11775027146187
 10
3.340964393875001
 20
12.11775909920088
 10
3.349387528189044
 20
12.11711467425249
 10
3.358393293278346
 20
12.11608182878726
 10
3.367831617579583
 20
12.11492539497576
 10
3.377545073080249
 20
12.11382634146789
 10
3.387346805971105
 20
12.11263018283079
 10
3.397042605993732
 20
12.11109857011099
 10
3.406438262889711
 20
12.10899315435493
 10
3.41533956640062
 20
12.10607558660913
 10
3.423552306268041
 20
12.10210751792005
 10
3.430882272233555
 20
12.09685059933418
 10
3.437135254038739
 20
12.09006648189802
 10
3.4421744217288
 20
12.08149033344098
 10
3.446092466563437
 20
12.07075138892426
 10
3.449039460105975
 20
12.05745240009201
 10
3.451165473919736
 20
12.04119611868837
 10
3.452620579568049
 20
12.02158529645747
 10
3.453554848614236
 20
11.99822268514347
 10
3.45411835262162
 20
11.97071103649049
 10
3.454461163153529
 20
11.93865310224269
 10
3.454745122091976
 20
11.9019135237351
 10
3.455179152593748
 20
11.86140450066636
 10
3.45598394813432
 20
11.81830012232601
 10
3.457380202189173
 20
11.77377447800358
 10
3.45958860823378
 20
11.72900165698862
 10
3.46282985974362
 20
11.68515574857067
 10
3.46732465019417
 20
11.64341084203926
 10
3.473293673060907
 20
11.60494102668392
 10
3.480904655385195
 20
11.57064378930495
 10
3.490113458471935
 20
11.54031020674554
 10
3.500822977191921
 20
11.51345475335965
 10
3.512936106415941
 20
11.48959190350123
 10
3.526355741014786
 20
11.46823613152422
 10
3.540984775859244
 20
11.4489019117826
 10
3.556726105820108
 20
11.43110371863029
 10
3.573482625768166
 20
11.41435602642125
 10
3.591176357342083
 20
11.3981924362773
 10
3.609805829252024
 20
11.38222305639178
 10
3.629388696976025
 20
11.36607712172587
 10
3.649942615992126
 20
11.34938386724079
 10
3.671485241778364
 20
11.33177252789772
 10
3.694034229812778
 20
11.31287233865786
 10
3.717607235573405
 20
11.29231253448241
 10
3.742221914538285
 20
11.26972235033257
 10
3.767806173505427
 20
11.2448943343414
 10
3.793928924552733
 20
11.21827428732935
 10
3.820069331078078
 20
11.19047132328875
 10
3.845706556479335
 20
11.1620945562119
 10
3.870319764154377
 20
11.13375310009113
 10
3.893388117501081
 20
11.10605606891875
 10
3.914390779917319
 20
11.07961257668709
 10
3.932806914800965
 20
11.05503173738845
 10
3.948189250041718
 20
11.03280643311807
 10
3.960384771496583
 20
11.01296461838284
 10
3.969314029514386
 20
10.99541801579257
 10
3.974897574443956
 20
10.98007834795708
 10
3.977055956634123
 20
10.96685733748616
 10
3.975709726433713
 20
10.95566670698964
 10
3.970779434191554
 20
10.94641817907731
 10
3.962185630256476
 20
10.93902347635899
 10
3.949894474962238
 20
10.9333707808071
 10
3.934054568582329
 20
10.92925411184454
 10
3.914860121375166
 20
10.9264439482568
 10
3.892505343599173
 20
10.92471076882938
 10
3.867184445512767
 20
10.9238250523478
 10
3.839091637374369
 20
10.92355727759756
 10
3.808421129442396
 20
10.92367792336415
 10
3.775367131975273
 20
10.92395746843309
 10
3.740222431650463
 20
10.92418404706791
 10
3.703674120821618
 20
10.92421641544431
 10
3.666507868261438
 20
10.92393098521603
 10
3.62950934274262
 20
10.92320416803679
 10
3.593464213037863
 20
10.92191237556034
 10
3.559158147919866
 20
10.91993201944038
 10
3.527376816161327
 20
10.91713951133068
 10
3.498905886534944
 20
10.91341126288495
 10
3.474311805627775
 20
10.90867223832154
 10
3.453284131284317
 20
10.90304161211721
 10
3.435293199163424
 20
10.8966871113133
 10
3.419809344923951
 20
10.88977646295119
 10
3.406302904224752
 20
10.88247739407224
 10
3.394244212724683
 20
10.87495763171782
 10
3.383103606082598
 20
10.86738490292928
 10
3.372351419957354
 20
10.859926934748
 10
3.361584520933745
 20
10.85270878681006
 10
3.350905899300327
 20
10.84568484913054
 10
3.340545076271595
 20
10.83876684431925
 10
3.330731573062046
 20
10.831866494986
 10
3.321694910886177
 20
10.8248955237406
 10
3.313664610958483
 20
10.81776565319285
 10
3.306870194493462
 20
10.81038860595257
 10
3.301541182705608
 20
10.80267610462956
 10
3.297868843273669
 20
10.79454575699299
 10
3.295891429733394
 20
10.78593871144938
 10
3.295608942084783
 20
10.77680200156463
 10
3.297021380327837
 20
10.76708266090462
 10
3.300128744462555
 20
10.75672772303523
 10
3.304931034488936
 20
10.74568422152236
 10
3.311428250406982
 20
10.73389918993188
 10
3.319620392216692
 20
10.72131966182968
 10
3.329507459918066
 20
10.70787942917313
 10
3.341089453511105
 20
10.69345931748546
 10
3.354366372995807
 20
10.67792691068138
 10
3.369338218372174
 20
10.66114979267561
 10
3.386004989640204
 20
10.64299554738286
 10
3.404366686799899
 20
10.62333175871785
 10
3.424423309851258
 20
10.60202601059529
 10
3.446174858794281
 20
10.5789458869299
 10
3.469600735571257
 20
10.55397956969409
 10
3.494597949893631
 20
10.52709763309114
 10
3.521042913415134
 20
10.49829124938204
 10
3.548812037789498
 20
10.46755159082775
 10
3.57778173467046
 20
10.43486982968926
 10
3.607828415711749
 20
10.40023713822756
 10
3.6388284925671
 20
10.36364468870362
 10
3.670658376890244
 20
10.32508365337842
 10
3.703079719727666
 20
10.28469380478644
 10
3.73539512969686
 20
10.24320931655609
 10
3.76679245480807
 20
10.20151296258928
 10
3.796459543071538
 20
10.16048751678793
 10
3.823584242497511
 20
10.12101575305393
 10
3.84735440109623
 20
10.0839804452892
 10
3.866957866877944
 20
10.05026436739564
 10
3.881582487852892
 20
10.02075029327517
 10
3.890655932274674
 20
9.99603998047092
 10
3.894565149370292
 20
9.975611121090926
 10
3.893936908610101
 20
9.958660390884446
 10
3.889397979464455
 20
9.944384465600752
 10
3.88157513140371
 20
9.931980020989103
 10
3.87109513389822
 20
9.920643732798758
 10
3.858584756418342
 20
9.909572276778996
 10
3.844670768434428
 20
9.897962328679062
 10
3.82987694912828
 20
9.885241556752559
 10
3.814315116527471
 20
9.871761599270419
 10
3.797994098371022
 20
9.858105087007897
 10
3.78092272239795
 20
9.844854650740249
 10
3.763109816347275
 20
9.832592921242742
 10
3.744564207958016
 20
9.82190252929063
 10
3.725294724969192
 20
9.813366105659175
 10
3.705310195119821
 20
9.807566281123641
 10
3.684648871945655
 20
9.804938557475624
 10
3.663466712169364
 20
9.805329920572138
 10
3.641949098310346
 20
9.80844022728653
 10
3.620281412888004
 20
9.813969334492149
 10
3.598649038421738
 20
9.821617099062349
 10
3.57723735743095
 20
9.831083377870481
 10
3.556231752435039
 20
9.842068027789892
 10
3.535817605953408
 20
9.85427090569394
 10
3.51615234599856
 20
9.867381569427118
 10
3.497281582555432
 20
9.881048380718496
 10
3.47922297110206
 20
9.894909402268293
 10
3.461994167116481
 20
9.908602696776728
 10
3.445612826076733
 20
9.921766326944021
 10
3.430096603460856
 20
9.934038355470383
 10
3.415463154746888
 20
9.945056845056036
 10
3.401730135412866
 20
9.954459858401195
 10
3.388924028675849
 20
9.961957551408072
 10
3.377106628708967
 20
9.967548452786825
 10
3.366348557424377
 20
9.97130318444961
 10
3.356720436734229
 20
9.973292368308579
 10
3.348292888550677
 20
9.973586626275883
 10
3.341136534785873
 20
9.972256580263673
 10
3.335321997351969
 20
9.969372852184106
 10
3.33091989816112
 20
9.965006063949331
 10
3.327984674937274
 20
9.959240079080034
 10
3.326506028651577
 20
9.952211727531006
 10
3.326457476086972
 20
9.944071080865574
 10
3.327812534026402
 20
9.934968210647062
 10
3.330544719252809
 20
9.925053188438793
 10
3.334627548549135
 20
9.914476085804095
 10
3.340034538698324
 20
9.903386974306288
 10
3.346739206483318
 20
9.891935925508699
 10
3.354695941919186
 20
9.880215630671031
 10
3.363782627949496
 20
9.868089259838482
 10
3.373858020749945
 20
9.855362602752633
 10
3.384780876496225
 20
9.841841449155069
 10
3.396409951364031
 20
9.82733158878737
 10
3.408604001529059
 20
9.811638811391109
 10
3.421221783167004
 20
9.794568906707874
 10
3.434122052453559
 20
9.775927664479246
 10
3.447173018361213
 20
9.755540299319145
 10
3.460280701049621
 20
9.733309725330919
 10
3.473360573475239
 20
9.709158281490251
 10
3.486328108594516
 20
9.683008306772833
 10
3.499098779363902
 20
9.654782140154351
 10
3.511588058739851
 20
9.624402120610493
 10
3.523711419678812
 20
9.591790587116946
 10
3.535384335137238
 20
9.556869878649408
 10
3.546530644229472
 20
9.519206205112929
 10
3.557107650701437
 20
9.476941260130086
 10
3.567081024456947
 20
9.427860608252823
 10
3.576416435399815
 20
9.369749814033085
 10
3.585079553433858
 20
9.300394442022813
 10
3.59303604846289
 20
9.217580056773961
 10
3.600251590390725
 20
9.119092222838462
 10
3.606691849121178
 20
9.002716504768267
 10
3.612308589426668
 20
8.867488592278959
 10
3.616997955554029
 20
8.717444675740674
 10
3.6206421866187
 20
8.557871070687184
 10
3.623123521736117
 20
8.394054092652266
 10
3.62432420002172
 20
8.231280057169698
 10
3.624126460590948
 20
8.074835279773246
 10
3.622412542559237
 20
7.930006075996691
 10
3.619064685042026
 20
7.802078761373809
 10
3.613979888134487
 20
7.694952552075831
 10
3.60711419585072
 20
7.606978266823858
 10
3.598438413184554
 20
7.535119624976452
 10
3.587923345129824
 20
7.476340345892172
 10
3.575539796680362
 20
7.427604148929571
 10
3.561258572830001
 20
7.385874753447223
 10
3.545050478572572
 20
7.348115878803677
 10
3.526886318901907
 20
7.311291244357494
 10
3.506732032977478
 20
7.27292657333597
 10
3.484534096621312
 20
7.232795604441299
 10
3.460234119821071
 20
7.191234080244411
 10
3.433773712564422
 20
7.148577743316234
 10
3.405094484839028
 20
7.105162336227703
 10
3.374138046632555
 20
7.061323601549735
 10
3.340846007932665
 20
7.017397281853266
 10
3.305159978727026
 20
6.973719119709219
 10
3.267118885690526
 20
6.930595662682359
 10
3.227150922246959
 20
6.888216678312778
 10
3.185781598507342
 20
6.846742739134396
 10
3.143536424582695
 20
6.806334417681132
 10
3.100940910584036
 20
6.767152286486911
 10
3.058520566622382
 20
6.729356918085655
 10
3.016800902808753
 20
6.693108885011291
 10
2.976307429254168
 20
6.658568759797732
 10
2.937504833140127
 20
6.625804664126041
 10
2.90061450993007
 20
6.59451491626582
 10
2.865797032157919
 20
6.564305383633803
 10
2.833212972357597
 20
6.534781933646724
 10
2.803022903063025
 20
6.505550433721325
 10
2.775387396808126
 20
6.47621675127434
 10
2.750467026126822
 20
6.446386753722503
 10
2.728422363553036
 20
6.415666308482552
 10
2.709246110335225
 20
6.383753733824083
 10
2.692259482579991
 20
6.350717151428163
 10
2.67661582510847
 20
6.316717133828709
 10
2.6614684827418
 20
6.281914253559641
 10
2.645970800301118
 20
6.246469083154889
 10
2.629276122607561
 20
6.210542195148366
 10
2.610537794482266
 20
6.174294162073995
 10
2.588909160746369
 20
6.137885556465707
 10
2.563856508607607
 20
6.101324292516538
 10
2.536097894820112
 20
6.064007651056009
 10
2.506664318524618
 20
6.025180254572763
 10
2.476586778861856
 20
5.984086725555444
 10
2.446896274972558
 20
5.939971686492687
 10
2.418623805997456
 20
5.892079759873142
 10
2.392800371077283
 20
5.839655568185441
 10
2.37045696935277
 20
5.781943733918235
 10
2.352331149764316
 20
5.718618765448078
 10
2.337986660450984
 20
5.651074714703204
 10
2.326693799351505
 20
5.581135519499767
 10
2.317722864404607
 20
5.510625117653916
 10
2.31034415354902
 20
5.441367446981812
 10
2.303827964723474
 20
5.375186445299599
 10
2.2974445958667
 20
5.313906050423429
 10
2.290464344917425
 20
5.25935020016946
 10
2.282303052112915
 20
5.212855181511358
 10
2.272958726884567
 20
5.173806678052875
 10
2.26257492096231
 20
5.14110272255529
 10
2.251295186076077
 20
5.113641347779866
 10
2.239263073955801
 20
5.090320586487876
 10
2.22662213633141
 20
5.07003847144059
 10
2.213515924932837
 20
5.051693035399285
 10
2.200087991490013
 20
5.034182311125228
 10
2.186491369378481
 20
5.016489627725117
 10
2.172917018556241
 20
4.99793949968734
 10
2.159565380626899
 20
4.977941737845715
 10
2.146636897194068
 20
4.955906153034058
 10
2.134332009861356
 20
4.931242556086182
 10
2.122851160232373
 20
4.903360757835907
 10
2.112394789910729
 20
4.871670569117044
 10
2.103163340500033
 20
4.835581800763409
 10
2.095301575380672
 20
4.794788222547269
 10
2.088731545040128
 20
4.750119439994671
 10
2.083319621742664
 20
4.702689017570117
 10
2.078932177752538
 20
4.653610519738105
 10
2.075435585334012
 20
4.603997510963132
 10
2.072696216751344
 20
4.554963555709703
 10
2.070580444268797
 20
4.507622218442309
 10
2.068954640150629
 20
4.463087063625452
 10
2.067738998943551
 20
4.422148722028924
 10
2.067069004324078
 20
4.384306089643703
 10
2.067133962251173
 20
4.348735128766066
 10
2.068123178683803
 20
4.314611801692271
 10
2.070225959580931
 20
4.281112070718595
 10
2.073631610901524
 20
4.247411898141313
 10
2.078529438604544
 20
4.212687246256691
 10
2.085108748648959
 20
4.176114077361003
 10
2.09350502471128
 20
4.137022396834771
 10
2.103638461338219
 20
4.095358382395543
 10
2.115375430794037
 20
4.051222254845135
 10
2.128582305342993
 20
4.004714234985339
 10
2.143125457249348
 20
3.955934543617966
 10
2.158871258777362
 20
3.904983401544825
 10
2.175686082191294
 20
3.851961029567709
 10
2.193436299755406
 20
3.796967648488437
 10
2.212066233246471
 20
3.74027979348235
 10
2.231832002491326
 20
3.682879257218983
 10
2.253067676829319
 20
3.625924146741412
 10
2.2761073255998
 20
3.570572569092723
 10
2.301285018142119
 20
3.517982631315995
 10
2.328934823795625
 20
3.469312440454296
 10
2.359390811899668
 20
3.425720103550715
 10
2.392987051793598
 20
3.388363727648327
 10
2.430230215308762
 20
3.358121172733315
 10
2.472317384244496
 20
3.334749310564257
 10
2.520618242892132
 20
3.317724765842845
 10
2.576502475543007
 20
3.306524163270761
 10
2.641339766488452
 20
3.300624127549689
 10
2.716499800019801
 20
3.299501283381319
 10
2.803352260428388
 20
3.302632255467335
 10
2.893154474575837
 20
3.308799224645437
  0
LWPOLYLINE
  5
2F33
330
1F
100
AcDbEntity
  8
0
100
AcDbPolyline
 90
      141
 70
     0
 43
0.0
 10
1.598158143968261
 20
4.896538319550077
 10
1.598158143968261
 20
4.896538319550077
 10
1.605236702080925
 20
4.885944609611143
 10
1.611958919564949
 20
4.87428187778629
 10
1.618035269659565
 20
4.861060155711145
 10
1.623176225604001
 20
4.845789475021317
 10
1.627092260637489
 20
4.82797986735243
 10
1.629582933156418
 20
4.807330670299073
 10
1.630804142185818
 20
4.784298445291691
 10
1.63100087190788
 20
4.759529059719685
 10
1.630418106504792
 20
4.733668380972474
 10
1.629300830158745
 20
4.707362276439464
 10
1.627894027051928
 20
4.681256613510065
 10
1.626442681366531
 20
4.655997259573678
 10
1.625191777284744
 20
4.632230082019726
 10
1.624365883640241
 20
4.610402362574773
 10
1.624107907872632
 20
4.590167040314059
 10
1.624540342073012
 20
4.570978468649968
 10
1.625785678332477
 20
4.552291000994901
 10
1.627966408742121
 20
4.533558990761258
 10
1.631205025393038
 20
4.514236791361431
 10
1.635624020376324
 20
4.493778756207813
 10
1.641345885783074
 20
4.471639238712801
 10
1.648457850829673
 20
4.447411787846856
 10
1.656906093233671
 20
4.421246734812679
 10
1.666601527837908
 20
4.393433606371047
 10
1.677455069485223
 20
4.364261929282726
 10
1.689377633018457
 20
4.334021230308486
 10
1.70228013328045
 20
4.303001036209095
 10
1.716073485114043
 20
4.271490873745329
 10
1.730668603362074
 20
4.239780269677949
 10
1.745928148407257
 20
4.208156894826954
 10
1.761521762791789
 20
4.176900996249247
 10
1.777070834597741
 20
4.146290965060947
 10
1.792196751907184
 20
4.116605192378183
 10
1.806520902802187
 20
4.088122069317076
 10
1.819664675364822
 20
4.061119986993755
 10
1.831249457677158
 20
4.035877336524339
 10
1.840896637821266
 20
4.012672509024957
 10
1.848307409332506
 20
3.991728217388507
 10
1.853502187559393
 20
3.973044461614994
 10
1.856581193303732
 20
3.956565563481182
 10
1.857644647367329
 20
3.942235844763858
 10
1.856792770551987
 20
3.929999627239789
 10
1.854125783659512
 20
3.919801232685752
 10
1.84974390749171
 20
3.911584982878527
 10
1.843747362850383
 20
3.905295199594885
 10
1.836260497767403
 20
3.900879916493145
 10
1.827504169194893
 20
3.898302014757832
 10
1.817723361315045
 20
3.897528087455004
 10
1.807163058310047
 20
3.898524727650729
 10
1.796068244362091
 20
3.901258528411075
 10
1.784683903653365
 20
3.905696082802104
 10
1.773255020366058
 20
3.911803983889879
 10
1.762026578682361
 20
3.919548824740469
 10
1.751199020205885
 20
3.928876783071422
 10
1.740794616225917
 20
3.93965237520622
 10
1.730791095453169
 20
3.951719702119841
 10
1.721166186598351
 20
3.964922864787252
 10
1.711897618372172
 20
3.979105964183417
 10
1.702963119485343
 20
3.994113101283313
 10
1.694340418648574
 20
4.009788377061906
 10
1.686007244572574
 20
4.02597589249417
 10
1.677945037849602
 20
4.042460358450304
 10
1.67015008659811
 20
4.058788925381405
 10
1.662622390818099
 20
4.074449353633806
 10
1.655361950509566
 20
4.088929403553842
 10
1.648368765672513
 20
4.101716835487835
 10
1.64164283630694
 20
4.112299409782121
 10
1.635184162412847
 20
4.120164886783034
 10
1.628992743990233
 20
4.124801026836896
 10
1.623079716683745
 20
4.125829218025783
 10
1.617500758716605
 20
4.123405359374721
 10
1.612322683956686
 20
4.117818977644488
 10
1.607612306271856
 20
4.109359599595844
 10
1.603436439529985
 20
4.098316751989562
 10
1.599861897598944
 20
4.084979961586418
 10
1.596955494346602
 20
4.06963875514717
 10
1.594784043640829
 20
4.052582659432597
 10
1.593405079645624
 20
4.034108624966561
 10
1.592839017709504
 20
4.014543297325316
 10
1.593096993477113
 20
3.994220745848212
 10
1.594190142593096
 20
3.973475039874598
 10
1.596129600702099
 20
3.952640248743826
 10
1.598926503448765
 20
3.932050441795242
 10
1.60259198647774
 20
3.912039688368198
 10
1.60713718543367
 20
3.892942057802042
 10
1.61257880378352
 20
3.87499511051587
 10
1.618955816283551
 20
3.858050371247747
 10
1.62631276551234
 20
3.841862855815479
 10
1.634694194048468
 20
3.826187580036883
 10
1.644144644470514
 20
3.810779559729771
 10
1.65470865935706
 20
3.795393810711944
 10
1.666430781286685
 20
3.779785348801219
 10
1.679355552837968
 20
3.763709189815405
 10
1.693497821537103
 20
3.746979739677083
 10
1.708753654700737
 20
3.729648964727932
 10
1.72498942459313
 20
3.711828221414404
 10
1.742071503478543
 20
3.693628866182945
 10
1.759866263621234
 20
3.675162255480006
 10
1.778240077285465
 20
3.656539745752033
 10
1.797059316735495
 20
3.637872693445488
 10
1.816190354235586
 20
3.61927245500681
 10
1.835469866997609
 20
3.600842963119354
 10
1.854615752023892
 20
3.582658455414083
 10
1.873316211264376
 20
3.564785745758881
 10
1.891259446669001
 20
3.547291648021603
 10
1.908133660187706
 20
3.530242976070127
 10
1.923627053770433
 20
3.513706543772317
 10
1.937427829367122
 20
3.49774916499605
 10
1.949224188927713
 20
3.482437653609191
 10
1.958789707677758
 20
3.467816552190322
 10
1.966239453945256
 20
3.453841318160861
 10
1.971773869333815
 20
3.440445137652941
 10
1.975593395447046
 20
3.427561196798689
 10
1.977898473888559
 20
3.415122681730235
 10
1.978889546261963
 20
3.403062778579715
 10
1.978767054170868
 20
3.391314673479249
 10
1.977731439218884
 20
3.379811552560978
 10
1.975949736075685
 20
3.368499593542443
 10
1.973455351675209
 20
3.357376940482875
 10
1.970248286017451
 20
3.346454729026917
 10
1.966328539102416
 20
3.33574409481921
 10
1.9616961109301
 20
3.325256173504405
 10
1.956351001500506
 20
3.315002100727145
 10
1.950293210813632
 20
3.304993012132075
 10
1.943522738869479
 20
3.295240043363839
 10
1.936008034674886
 20
3.285771961504436
 10
1.927591343264049
 20
3.276688059385286
 10
1.918083358678004
 20
3.268105261275162
 10
1.907294774957784
 20
3.260140491442834
 10
1.895036286144426
 20
3.252910674157078
 10
1.881118586278964
 20
3.24653273368666
 10
1.865352369402435
 20
3.241123594300356
 10
1.847548329555873
 20
3.23680018026694
 10
1.827077302816836
 20
3.233701687144472
 10
1.801550693408974
 20
3.232056395648176
 10
1.76814004759246
 20
3.23211485778256
 10
1.724016911627468
 20
3.234127625552144
 10
1.66635283177417
 20
3.238345250961434
 10
1.592319354292738
 20
3.245018286014941
  0
ARC
  5
2F34
330
1F
100
AcDbEntity
  8
0
100
AcDbCircle
 10
1.091741855471716
 20
8.015789591449546
 30
0.0
 40
5.044949131264423
100
AcDbArc
 50
291.0225326230073
 51
258.6629532312849
  0
LINE
  5
2F35
330
1F
100
AcDbEntity
  8
0
100
AcDbLine
 10
2.901791804421731
 20
3.306731201563938
 30
0.0
 11
2.901791804421731
 21
3.306731201563938
 31
0.0
  0
LINE
  5
2F36
330
1F
100
AcDbEntity
  8
0
100
AcDbLine
 10
2.893154474575828
 20
3.308799224645437
 30
0.0
 11
2.901542033004425
 21
3.3066352029793
 31
0.0
  0
ENDSEC
  0
SECTION
  2
OBJECTS
  0
DICTIONARY
  5
C
330
0
100
AcDbDictionary
281
     1
  3
ACAD_COLOR
350
6C
  3
ACAD_GROUP
350
D
  3
ACAD_LAYOUT
350
1A
  3
ACAD_MATERIAL
350
6B
  3
ACAD_MLINESTYLE
350
17
  3
ACAD_PLOTSETTINGS
350
19
  3
ACAD_PLOTSTYLENAME
350
E
  3
ACAD_TABLESTYLE
350
92
  3
ACAD_VISUALSTYLE
350
2F51
  3
AcDbVariableDictionary
350
59
  3
DWGPROPS
350
2F68
  0
DICTIONARY
  5
6C
102
{ACAD_REACTORS
330
C
102
}
330
C
100
AcDbDictionary
281
     1
  0
DICTIONARY
  5
D
102
{ACAD_REACTORS
330
C
102
}
330
C
100
AcDbDictionary
281
     1
  0
DICTIONARY
  5
1A
102
{ACAD_REACTORS
330
C
102
}
330
C
100
AcDbDictionary
281
     1
  3
Layout1
350
74
  3
Layout2
350
28
  3
Model
350
22
  0
DICTIONARY
  5
6B
102
{ACAD_REACTORS
330
C
102
}
330
C
100
AcDbDictionary
281
     1
  3
ByBlock
350
2F4F
  3
ByLayer
350
2F4E
  3
Global
350
2F50
  0
DICTIONARY
  5
17
102
{ACAD_REACTORS
330
C
102
}
330
C
100
AcDbDictionary
281
     1
  3
Standard
350
18
  0
DICTIONARY
  5
19
102
{ACAD_REACTORS
330
C
102
}
330
C
100
AcDbDictionary
281
     1
  0
ACDBDICTIONARYWDFLT
  5
E
102
{ACAD_REACTORS
330
C
102
}
330
C
100
AcDbDictionary
281
     1
  3
Normal
350
F
100
AcDbDictionaryWithDefault
340
F
  0
DICTIONARY
  5
92
102
{ACAD_REACTORS
330
C
102
}
330
C
100
AcDbDictionary
281
     1
  3
Standard
350
2F38
  0
DICTIONARY
  5
2F51
102
{ACAD_REACTORS
330
C
102
}
330
C
100
AcDbDictionary
281
     1
  3
2dWireframe
350
2F57
  3
3D Hidden
350
2F59
  3
3dWireframe
350
2F58
  3
Basic
350
2F56
  3
Brighten
350
2F5D
  3
ColorChange
350
2F61
  3
Conceptual
350
2F5A
  3
Dim
350
2F5C
  3
Facepattern
350
2F60
  3
Flat
350
2F52
  3
FlatWithEdges
350
2F53
  3
Gouraud
350
2F54
  3
GouraudWithEdges
350
2F55
  3
Linepattern
350
2F5F
  3
Realistic
350
2F5B
  3
Thicken
350
2F5E
  0
DICTIONARY
  5
59
102
{ACAD_REACTORS
330
C
102
}
330
C
100
AcDbDictionary
281
     1
  3
CTABLESTYLE
350
98
  3
DIMASSOC
350
2F67
  3
HIDETEXT
350
2F
  3
INDEXCTL
350
2F66
  3
SORTENTS
350
2F65
  0
XRECORD
  5
2F68
102
{ACAD_REACTORS
330
C
102
}
330
C
100
AcDbXrecord
280
     1
  1
DWGPROPS COOKIE
  2

  3

  4

  6

  7

  8
Copperhead Fab
  9

300
=
301
=
302
=
303
=
304
=
305
=
306
=
307
=
308
=
309
=
 40
9763408.075090383
 41
2453353.508792488
 42
2454702.797538878
  1

 90
        0
  0
LAYOUT
  5
74
102
{ACAD_XDICTIONARY
360
2F6D
102
}
102
{ACAD_REACTORS
330
1A
102
}
330
1A
100
AcDbPlotSettings
  1

  2
HP C LaserJet 4500-PS
  4
HP C LaserJet 4500-PS
  6

 40
0.0
 41
0.0
 42
0.0
 43
0.0
 44
0.0
 45
0.0
 46
0.0
 47
0.0
 48
0.0
 49
0.0
140
0.0
141
0.0
142
1.0
143
1.0
 70
   688
 72
     0
 73
     0
 74
     5
  7

 75
    16
147
1.0
148
0.0
149
0.0
100
AcDbLayout
  1
Layout1
 70
     1
 71
     1
 10
0.0
 20
0.0
 11
12.0
 21
9.0
 12
0.0
 22
0.0
 32
0.0
 14
1.000000000000000E 20
 24
1.000000000000000E 20
 34
1.000000000000000E 20
 15
-1.000000000000000E 20
 25
-1.000000000000000E 20
 35
-1.000000000000000E 20
146
0.0
 13
0.0
 23
0.0
 33
0.0
 16
1.0
 26
0.0
 36
0.0
 17
0.0
 27
1.0
 37
0.0
 76
     0
330
73
  0
LAYOUT
  5
28
102
{ACAD_XDICTIONARY
360
2F6B
102
}
102
{ACAD_REACTORS
330
1A
102
}
330
1A
100
AcDbPlotSettings
  1

  2
HP C LaserJet 4500-PS
  4
HP C LaserJet 4500-PS
  6

 40
0.0
 41
0.0
 42
0.0
 43
0.0
 44
0.0
 45
0.0
 46
0.0
 47
0.0
 48
0.0
 49
0.0
140
0.0
141
0.0
142
1.0
143
1.0
 70
   688
 72
     0
 73
     0
 74
     5
  7

 75
    16
147
1.0
148
0.0
149
0.0
100
AcDbLayout
  1
Layout2
 70
     1
 71
     2
 10
0.0
 20
0.0
 11
12.0
 21
9.0
 12
0.0
 22
0.0
 32
0.0
 14
0.0
 24
0.0
 34
0.0
 15
0.0
 25
0.0
 35
0.0
146
0.0
 13
0.0
 23
0.0
 33
0.0
 16
1.0
 26
0.0
 36
0.0
 17
0.0
 27
1.0
 37
0.0
 76
     0
330
25
  0
LAYOUT
  5
22
102
{ACAD_XDICTIONARY
360
2F69
102
}
102
{ACAD_REACTORS
330
1A
102
}
330
1A
100
AcDbPlotSettings
  1

  2
HP C LaserJet 4500-PS
  4
HP C LaserJet 4500-PS
  6

 40
0.0
 41
0.0
 42
0.0
 43
0.0
 44
0.0
 45
0.0
 46
0.0
 47
0.0
 48
0.0
 49
0.0
140
0.0
141
0.0
142
1.0
143
1.0
 70
 11952
 72
     0
 73
     0
 74
     0
  7

 75
     0
147
1.0
148
0.0
149
0.0
100
AcDbLayout
  1
Model
 70
     1
 71
     0
 10
0.0
 20
0.0
 11
12.0
 21
9.0
 12
0.0
 22
0.0
 32
0.0
 14
-5.294879167092507
 24
1.479650087151812
 34
0.0
 15
7.716743438493987
 25
14.4912726927383
 35
0.0
146
0.0
 13
0.0
 23
0.0
 33
0.0
 16
1.0
 26
0.0
 36
0.0
 17
0.0
 27
1.0
 37
0.0
 76
     0
330
1F
331
97
  0
MATERIAL
  5
2F4F
102
{ACAD_XDICTIONARY
360
2F73
102
}
102
{ACAD_REACTORS
330
6B
102
}
330
6B
100
AcDbMaterial
  1
ByBlock
  0
MATERIAL
  5
2F4E
102
{ACAD_XDICTIONARY
360
2F71
102
}
102
{ACAD_REACTORS
330
6B
102
}
330
6B
100
AcDbMaterial
  1
ByLayer
  0
MATERIAL
  5
2F50
102
{ACAD_XDICTIONARY
360
2F75
102
}
102
{ACAD_REACTORS
330
6B
102
}
330
6B
100
AcDbMaterial
  1
Global
  0
MLINESTYLE
  5
18
102
{ACAD_REACTORS
330
17
102
}
330
17
100
AcDbMlineStyle
  2
STANDARD
 70
     0
  3

 62
   256
 51
90.0
 52
90.0
 71
     2
 49
0.5
 62
   256
  6
BYLAYER
 49
-0.5
 62
   256
  6
BYLAYER
  0
ACDBPLACEHOLDER
  5
F
102
{ACAD_REACTORS
330
E
102
}
330
E
  0
TABLESTYLE
  5
2F38
102
{ACAD_XDICTIONARY
360
2F6F
102
}
102
{ACAD_REACTORS
330
92
102
}
330
92
100
AcDbTableStyle
  3
Standard
 70
     0
 71
     0
 40
0.06
 41
0.06
280
     0
281
     0
  7
Standard
140
0.18
170
     2
 62
     0
 63
     7
283
     0
274
    -2
284
     1
 64
     0
275
    -2
285
     1
 65
     0
276
    -2
286
     1
 66
     0
277
    -2
287
     1
 67
     0
278
    -2
288
     1
 68
     0
279
    -2
289
     1
 69
     0
  7
Standard
140
0.25
170
     5
 62
     0
 63
     7
283
     0
274
    -2
284
     1
 64
     0
275
    -2
285
     1
 65
     0
276
    -2
286
     1
 66
     0
277
    -2
287
     1
 67
     0
278
    -2
288
     1
 68
     0
279
    -2
289
     1
 69
     0
  7
Standard
140
0.18
170
     5
 62
     0
 63
     7
283
     0
274
    -2
284
     1
 64
     0
275
    -2
285
     1
 65
     0
276
    -2
286
     1
 66
     0
277
    -2
287
     1
 67
     0
278
    -2
288
     1
 68
     0
279
    -2
289
     1
 69
     0
  0
VISUALSTYLE
  5
2F57
102
{ACAD_REACTORS
330
2F51
102
}
330
2F51
100
AcDbVisualStyle
  2
2dWireframe
 70
     4
 71
     0
 72
     2
 73
     0
 90
        0
 40
-0.6
 41
-30.0
 62
     5
 63
     7
 74
     1
 91
        4
 64
     7
 65
   257
 75
     1
175
     1
 42
1.0
 92
        0
 66
   257
 43
1.0
 76
     1
 77
     6
 78
     2
 67
     7
 79
     5
170
     0
171
     0
290
     0
174
     0
 93
        1
 44
0.0
173
     0
291
     0
 45
0.0
1001
ACAD
1000
AcDbSavedByObjectVersion
1070
     0
  0
VISUALSTYLE
  5
2F59
102
{ACAD_REACTORS
330
2F51
102
}
330
2F51
100
AcDbVisualStyle
  2
3D Hidden
 70
     6
 71
     1
 72
     2
 73
     2
 90
        0
 40
-0.6
 41
-30.0
 62
     5
 63
     7
 74
     2
 91
        2
 64
     7
 65
   257
 75
     2
175
     1
 42
40.0
 92
        0
 66
   257
 43
1.0
 76
     1
 77
     6
 78
     2
 67
     7
 79
     3
170
     0
171
     0
290
     0
174
     0
 93
        1
 44
0.0
173
     0
291
     0
 45
0.0
1001
ACAD
1000
AcDbSavedByObjectVersion
1070
     0
  0
VISUALSTYLE
  5
2F58
102
{ACAD_REACTORS
330
2F51
102
}
330
2F51
100
AcDbVisualStyle
  2
3dWireframe
 70
     5
 71
     0
 72
     2
 73
     0
 90
        0
 40
-0.6
 41
-30.0
 62
     5
 63
     7
 74
     1
 91
        4
 64
     7
 65
   257
 75
     1
175
     1
 42
1.0
 92
        0
 66
   257
 43
1.0
 76
     1
 77
     6
 78
     2
 67
     7
 79
     5
170
     0
171
     0
290
     0
174
     0
 93
        1
 44
0.0
173
     0
291
     0
 45
0.0
1001
ACAD
1000
AcDbSavedByObjectVersion
1070
     0
  0
VISUALSTYLE
  5
2F56
102
{ACAD_REACTORS
330
2F51
102
}
330
2F51
100
AcDbVisualStyle
  2
Basic
 70
     7
 71
     1
 72
     0
 73
     1
 90
        0
 40
-0.6
 41
-30.0
 62
     5
 63
     7
 74
     0
 91
        4
 64
     7
 65
   257
 75
     1
175
     1
 42
1.0
 92
        8
 66
     7
 43
1.0
 76
     1
 77
     6
 78
     2
 67
     7
 79
     5
170
     0
171
     0
290
     0
174
     0
 93
        1
 44
0.0
173
     0
291
     1
 45
0.0
1001
ACAD
1000
AcDbSavedByObjectVersion
1070
     0
  0
VISUALSTYLE
  5
2F5D
102
{ACAD_REACTORS
330
2F51
102
}
330
2F51
100
AcDbVisualStyle
  2
Brighten
 70
    12
 71
     2
 72
     2
 73
     0
 90
        0
 40
-0.6
 41
-30.0
 62
     5
 63
     7
 74
     1
 91
        4
 64
     7
 65
   257
 75
     1
175
     1
 42
1.0
 92
        8
 66
     7
 43
1.0
 76
     1
 77
     6
 78
     2
 67
     7
 79
     5
170
     0
171
     0
290
     0
174
     0
 93
        1
 44
50.0
173
     0
291
     1
 45
0.0
1001
ACAD
1000
AcDbSavedByObjectVersion
1070
     0
  0
VISUALSTYLE
  5
2F61
102
{ACAD_REACTORS
330
2F51
102
}
330
2F51
100
AcDbVisualStyle
  2
ColorChange
 70
    16
 71
     2
 72
     2
 73
     3
 90
        0
 40
-0.6
 41
-30.0
 62
     5
 63
     8
 74
     1
 91
        4
 64
     7
 65
   257
 75
     1
175
     1
 42
1.0
 92
        8
 66
     8
 43
1.0
 76
     1
 77
     6
 78
     2
 67
     7
 79
     5
170
     0
171
     0
290
     0
174
     0
 93
        1
 44
0.0
173
     0
291
     1
 45
0.0
1001
ACAD
1000
AcDbSavedByObjectVersion
1070
     0
  0
VISUALSTYLE
  5
2F5A
102
{ACAD_REACTORS
330
2F51
102
}
330
2F51
100
AcDbVisualStyle
  2
Conceptual
 70
     9
 71
     3
 72
     2
 73
     0
 90
        0
 40
-0.6
 41
-30.0
 62
     5
 63
     7
 74
     2
 91
        2
 64
     7
 65
   257
 75
     1
175
     1
 42
40.0
 92
        8
 66
     7
 43
1.0
 76
     1
 77
     6
 78
     2
 67
     7
 79
     3
170
     0
171
     0
290
     0
174
     0
 93
        1
 44
0.0
173
     0
291
     0
 45
0.0
1001
ACAD
1000
AcDbSavedByObjectVersion
1070
     0
  0
VISUALSTYLE
  5
2F5C
102
{ACAD_REACTORS
330
2F51
102
}
330
2F51
100
AcDbVisualStyle
  2
Dim
 70
    11
 71
     2
 72
     2
 73
     0
 90
        0
 40
-0.6
 41
-30.0
 62
     5
 63
     7
 74
     1
 91
        4
 64
     7
 65
   257
 75
     1
175
     1
 42
1.0
 92
        8
 66
     7
 43
1.0
 76
     1
 77
     6
 78
     2
 67
     7
 79
     5
170
     0
171
     0
290
     0
174
     0
 93
        1
 44
-50.0
173
     0
291
     1
 45
0.0
1001
ACAD
1000
AcDbSavedByObjectVersion
1070
     0
  0
VISUALSTYLE
  5
2F60
102
{ACAD_REACTORS
330
2F51
102
}
330
2F51
100
AcDbVisualStyle
  2
Facepattern
 70
    15
 71
     2
 72
     2
 73
     0
 90
        0
 40
-0.6
 41
-30.0
 62
     5
 63
     7
 74
     1
 91
        4
 64
     7
 65
   257
 75
     1
175
     1
 42
1.0
 92
        8
 66
     7
 43
1.0
 76
     1
 77
     6
 78
     2
 67
     7
 79
     5
170
     0
171
     0
290
     0
174
     0
 93
        1
 44
0.0
173
     0
291
     1
 45
0.0
1001
ACAD
1000
AcDbSavedByObjectVersion
1070
     0
  0
VISUALSTYLE
  5
2F52
102
{ACAD_REACTORS
330
2F51
102
}
330
2F51
100
AcDbVisualStyle
  2
Flat
 70
     0
 71
     2
 72
     1
 73
     1
 90
        2
 40
-0.6
 41
30.0
 62
     5
 63
     7
 74
     0
 91
        4
 64
     7
 65
   257
 75
     1
175
     1
 42
1.0
 92
        8
 66
     7
 43
1.0
 76
     1
 77
     6
 78
     2
 67
     7
 79
     5
170
     0
171
     0
290
     0
174
     0
 93
       13
 44
0.0
173
     0
291
     1
 45
0.0
1001
ACAD
1000
AcDbSavedByObjectVersion
1070
     0
  0
VISUALSTYLE
  5
2F53
102
{ACAD_REACTORS
330
2F51
102
}
330
2F51
100
AcDbVisualStyle
  2
FlatWithEdges
 70
     1
 71
     2
 72
     1
 73
     1
 90
        2
 40
-0.6
 41
30.0
 62
     5
 63
     7
 74
     1
 91
        4
 64
     7
 65
   257
 75
     1
175
     1
 42
1.0
 92
        0
 66
   257
 43
1.0
 76
     1
 77
     6
 78
     2
 67
     7
 79
     5
170
     0
171
     0
290
     0
174
     0
 93
       13
 44
0.0
173
     0
291
     1
 45
0.0
1001
ACAD
1000
AcDbSavedByObjectVersion
1070
     0
  0
VISUALSTYLE
  5
2F54
102
{ACAD_REACTORS
330
2F51
102
}
330
2F51
100
AcDbVisualStyle
  2
Gouraud
 70
     2
 71
     2
 72
     2
 73
     1
 90
        2
 40
-0.6
 41
30.0
 62
     5
 63
     7
 74
     0
 91
        4
 64
     7
 65
   257
 75
     1
175
     1
 42
1.0
 92
        0
 66
     7
 43
1.0
 76
     1
 77
     6
 78
     2
 67
     7
 79
     5
170
     0
171
     0
290
     0
174
     0
 93
       13
 44
0.0
173
     0
291
     1
 45
0.0
1001
ACAD
1000
AcDbSavedByObjectVersion
1070
     0
  0
VISUALSTYLE
  5
2F55
102
{ACAD_REACTORS
330
2F51
102
}
330
2F51
100
AcDbVisualStyle
  2
GouraudWithEdges
 70
     3
 71
     2
 72
     2
 73
     1
 90
        2
 40
-0.6
 41
30.0
 62
     5
 63
     7
 74
     1
 91
        4
 64
     7
 65
   257
 75
     1
175
     1
 42
1.0
 92
        0
 66
   257
 43
1.0
 76
     1
 77
     6
 78
     2
 67
     7
 79
     5
170
     0
171
     0
290
     0
174
     0
 93
       13
 44
0.0
173
     0
291
     1
 45
0.0
1001
ACAD
1000
AcDbSavedByObjectVersion
1070
     0
  0
VISUALSTYLE
  5
2F5F
102
{ACAD_REACTORS
330
2F51
102
}
330
2F51
100
AcDbVisualStyle
  2
Linepattern
 70
    14
 71
     2
 72
     2
 73
     0
 90
        0
 40
-0.6
 41
-30.0
 62
     5
 63
     7
 74
     1
 91
        4
 64
     7
 65
   257
 75
     7
175
     7
 42
1.0
 92
        8
 66
     7
 43
1.0
 76
     1
 77
     6
 78
     2
 67
     7
 79
     5
170
     0
171
     0
290
     0
174
     0
 93
        1
 44
0.0
173
     0
291
     1
 45
0.0
1001
ACAD
1000
AcDbSavedByObjectVersion
1070
     0
  0
VISUALSTYLE
  5
2F5B
102
{ACAD_REACTORS
330
2F51
102
}
330
2F51
100
AcDbVisualStyle
  2
Realistic
 70
     8
 71
     2
 72
     2
 73
     0
 90
        0
 40
-0.6
 41
-30.0
 62
     5
 63
     7
 74
     1
 91
        0
 64
     7
 65
   257
 75
     1
175
     1
 42
1.0
 92
        8
 66
     8
 43
1.0
 76
     1
 77
     6
 78
     2
 67
     7
 79
     5
170
     0
171
     0
290
     0
174
     0
 93
       13
 44
0.0
173
     0
291
     0
 45
0.0
1001
ACAD
1000
AcDbSavedByObjectVersion
1070
     0
  0
VISUALSTYLE
  5
2F5E
102
{ACAD_REACTORS
330
2F51
102
}
330
2F51
100
AcDbVisualStyle
  2
Thicken
 70
    13
 71
     2
 72
     2
 73
     0
 90
        0
 40
-0.6
 41
-30.0
 62
     5
 63
     7
 74
     1
 91
        4
 64
     7
 65
   257
 75
     1
175
     1
 42
1.0
 92
       12
 66
     7
 43
1.0
 76
     1
 77
     6
 78
     2
 67
     7
 79
     5
170
     0
171
     0
290
     0
174
     0
 93
        1
 44
0.0
173
     0
291
     1
 45
0.0
1001
ACAD
1000
AcDbSavedByObjectVersion
1070
     0
  0
DICTIONARYVAR
  5
98
102
{ACAD_REACTORS
330
59
102
}
330
59
100
DictionaryVariables
280
     0
  1
STANDARD
  0
DICTIONARYVAR
  5
2F67
102
{ACAD_REACTORS
330
59
102
}
330
59
100
DictionaryVariables
280
     0
  1
2
  0
DICTIONARYVAR
  5
2F
102
{ACAD_REACTORS
330
59
102
}
330
59
100
DictionaryVariables
280
     0
  1
1
  0
DICTIONARYVAR
  5
2F66
102
{ACAD_REACTORS
330
59
102
}
330
59
100
DictionaryVariables
280
     0
  1
0
  0
DICTIONARYVAR
  5
2F65
102
{ACAD_REACTORS
330
59
102
}
330
59
100
DictionaryVariables
280
     0
  1
127
  0
DICTIONARY
  5
2F6D
330
74
100
AcDbDictionary
280
     1
281
     1
  3
ACAD_XREC_ROUNDTRIP
360
2F6E
  0
DICTIONARY
  5
2F6B
330
28
100
AcDbDictionary
280
     1
281
     1
  3
ACAD_XREC_ROUNDTRIP
360
2F6C
  0
DICTIONARY
  5
2F69
330
22
100
AcDbDictionary
280
     1
281
     1
  3
ACAD_XREC_ROUNDTRIP
360
2F6A
  0
DICTIONARY
  5
2F73
330
2F4F
100
AcDbDictionary
280
     1
281
     1
  3
ACAD_XREC_ROUNDTRIP
360
2F74
  0
DICTIONARY
  5
2F71
330
2F4E
100
AcDbDictionary
280
     1
281
     1
  3
ACAD_XREC_ROUNDTRIP
360
2F72
  0
DICTIONARY
  5
2F75
330
2F50
100
AcDbDictionary
280
     1
281
     1
  3
ACAD_XREC_ROUNDTRIP
360
2F76
  0
DICTIONARY
  5
2F6F
330
2F38
100
AcDbDictionary
280
     1
281
     1
  3
ACAD_XREC_ROUNDTRIP
360
2F70
  0
XRECORD
  5
2F6E
102
{ACAD_REACTORS
330
2F6D
102
}
330
2F6D
100
AcDbXrecord
280
     1
102
SHADEPLOT
 70
     0
102
SHADEPLOTRESLEVEL
 70
     2
102
SHADEPLOTCUSTOMDPI
 70
   300
  0
XRECORD
  5
2F6C
102
{ACAD_REACTORS
330
2F6B
102
}
330
2F6B
100
AcDbXrecord
280
     1
102
SHADEPLOT
 70
     0
102
SHADEPLOTRESLEVEL
 70
     2
102
SHADEPLOTCUSTOMDPI
 70
   300
  0
XRECORD
  5
2F6A
102
{ACAD_REACTORS
330
2F69
102
}
330
2F69
100
AcDbXrecord
280
     1
102
SHADEPLOT
 70
     0
102
SHADEPLOTRESLEVEL
 70
     2
102
SHADEPLOTCUSTOMDPI
 70
   300
  0
XRECORD
  5
2F74
102
{ACAD_REACTORS
330
2F73
102
}
330
2F73
100
AcDbXrecord
280
     1
102
MATERIAL
148
0.0
149
0.0
149
0.0
 93
        0
 94
       63
282
     0
 72
     1
 77
     1
171
     1
175
     1
179
     1
273
     0
  0
XRECORD
  5
2F72
102
{ACAD_REACTORS
330
2F71
102
}
330
2F71
100
AcDbXrecord
280
     1
102
MATERIAL
148
0.0
149
0.0
149
0.0
 93
        0
 94
       63
282
     0
 72
     1
 77
     1
171
     1
175
     1
179
     1
273
     0
  0
XRECORD
  5
2F76
102
{ACAD_REACTORS
330
2F75
102
}
330
2F75
100
AcDbXrecord
280
     1
102
MATERIAL
148
0.0
149
0.0
149
0.0
 93
        0
 94
       63
282
     0
 72
     1
 77
     1
171
     1
175
     1
179
     1
273
     0
  0
XRECORD
  5
2F70
102
{ACAD_REACTORS
330
2F6F
102
}
330
2F6F
100
AcDbXrecord
280
     1
102
ACAD_ROUNDTRIP_PRE2007_TABLESTYLE
 90
        4
 91
        0
  1

 92
        4
 93
        0
  2

 94
        4
 95
        0
  3

  0
ENDSEC
  0
EOF
