  0
SECTION
  2
HEADER
  9
$ACADVER
  1
AC1009
  9
$EXTMIN
 10
-122.42167235
 20
-321.30740600
 30
0.0
  9
$EXTMAX
 10
149.60297200
 20
392.67350605
 30
0.0
  0
ENDSEC
  0
SECTION
  2
TABLES
  0
TABLE
  2
LAYER
 70
2
 0
LAYER
 2
Layer_1
 70
0
 62
250
 6
CONTINUOUS
 0
LAYER
 2
Default_Layer
 70
0
 62
18
 6
CONTINUOUS
 0
ENDTAB
 0
ENDSEC
  0
SECTION
  2
ENTITIES
  0
POLYLINE
  8
Layer_1
 62
256
 66
   1
 39
0.000000
 70
    0
  0
VERTEX
  8
0
 10
24.11325850
 20
392.67350605
  0
VERTEX
  8
0
 10
61.13175850
 20
392.67350605
  0
VERTEX
  8
0
 10
61.13175850
 20
370.66250605
  0
SEQEND
  0
POLYLINE
  8
Layer_1
 62
256
 66
   1
 39
0.000000
 70
    0
  0
VERTEX
  8
0
 10
-12.90524150
 20
392.67350605
  0
VERTEX
  8
0
 10
24.11325850
 20
392.67350605
  0
VERTEX
  8
0
 10
24.11325850
 20
370.66250605
  0
SEQEND
  0
POLYLINE
  8
Layer_1
 62
256
 66
   1
 39
0.000000
 70
    0
  0
VERTEX
  8
0
 10
-12.90524150
 20
348.65150605
  0
VERTEX
  8
0
 10
24.11325850
 20
348.65150605
  0
VERTEX
  8
0
 10
24.11325850
 20
370.66250605
  0
VERTEX
  8
0
 10
-12.90524150
 20
370.66250605
  0
VERTEX
  8
0
 10
-12.90524150
 20
392.67350605
  0
VERTEX
  8
0
 10
-49.92374150
 20
392.67350605
  0
VERTEX
  8
0
 10
-49.92374150
 20
370.66250605
  0
SEQEND
  0
POLYLINE
  8
Layer_1
 62
256
 66
   1
 39
0.000000
 70
    0
  0
VERTEX
  8
0
 10
-49.92374150
 20
353.05190515
  0
VERTEX
  8
0
 10
-59.09652560
 20
353.05190515
  0
VERTEX
  8
0
 10
-73.22158460
 20
353.05190515
  0
VERTEX
  8
0
 10
-119.81727080
 20
353.05190515
  0
VERTEX
  8
0
 10
-119.81727080
 20
392.67350605
  0
VERTEX
  8
0
 10
-73.22158460
 20
392.67350605
  0
VERTEX
  8
0
 10
-59.09652560
 20
392.67350605
  0
VERTEX
  8
0
 10
-49.92374150
 20
392.67350605
  0
SEQEND
  0
POLYLINE
  8
Layer_1
 62
256
 66
   1
 39
0.000000
 70
    0
  0
VERTEX
  8
0
 10
61.13175850
 20
392.67350605
  0
VERTEX
  8
0
 10
96.14925850
 20
392.67350605
  0
VERTEX
  8
0
 10
96.14925850
 20
372.66350605
  0
VERTEX
  8
0
 10
96.14355565
 20
372.66350605
  0
VERTEX
  8
0
 10
96.14355565
 20
349.09022530
  0
VERTEX
  8
0
 10
61.12605565
 20
349.09022530
  0
SEQEND
  0
POLYLINE
  8
Layer_1
 62
256
 66
   1
 39
0.000000
 70
    0
  0
VERTEX
  8
0
 10
96.14925850
 20
392.67350605
  0
VERTEX
  8
0
 10
131.16675850
 20
392.67350605
  0
VERTEX
  8
0
 10
131.16675850
 20
372.66350605
  0
VERTEX
  8
0
 10
131.16105565
 20
372.66350605
  0
VERTEX
  8
0
 10
131.16105565
 20
349.09022530
  0
VERTEX
  8
0
 10
96.14355565
 20
349.09022530
  0
SEQEND
  0
POLYLINE
  8
Layer_1
 62
256
 66
   1
 39
0.000000
 70
    0
  0
VERTEX
  8
0
 10
-40.30493450
 20
-284.21927120
  0
VERTEX
  8
0
 10
-26.60598845
 20
-302.67149270
  0
VERTEX
  8
0
 10
-43.35265760
 20
-315.10410590
  0
VERTEX
  8
0
 10
-57.05150360
 20
-296.65188440
  0
SEQEND
  0
POLYLINE
  8
Layer_1
 62
256
 66
   1
 39
0.000000
 70
    0
  0
VERTEX
  8
0
 10
-70.75044965
 20
-278.19966290
  0
VERTEX
  8
0
 10
-84.44929565
 20
-259.74744140
  0
VERTEX
  8
0
 10
-67.70262650
 20
-247.31472815
  0
VERTEX
  8
0
 10
-54.00378050
 20
-265.76704970
  0
SEQEND
  0
POLYLINE
  8
Layer_1
 62
256
 66
   1
 39
0.000000
 70
    0
  0
VERTEX
  8
0
 10
-2.71024655
 20
-173.67022430
  0
VERTEX
  8
0
 10
-26.00808965
 20
-173.67022430
  0
VERTEX
  8
0
 10
-26.00808965
 20
-134.04862340
  0
VERTEX
  8
0
 10
-2.71024655
 20
-134.04862340
  0
SEQEND
  0
POLYLINE
  8
Layer_1
 62
256
 66
   1
 39
0.000000
 70
    0
  0
VERTEX
  8
0
 10
-122.42167235
 20
276.82421035
  0
VERTEX
  8
0
 10
-122.42167235
 20
345.30613420
  0
VERTEX
  8
0
 10
-114.88310495
 20
345.30613420
  0
VERTEX
  8
0
 10
-114.88310495
 20
348.27751915
  0
VERTEX
  8
0
 10
-109.56724835
 20
348.27751915
  0
VERTEX
  8
0
 10
-109.56724835
 20
345.30613420
  0
VERTEX
  8
0
 10
-46.85190635
 20
345.30613420
  0
VERTEX
  8
0
 10
-46.85190635
 20
348.29552815
  0
VERTEX
  8
0
 10
-41.52714530
 20
348.29552815
  0
VERTEX
  8
0
 10
-41.52714530
 20
345.30613420
  0
VERTEX
  8
0
 10
56.93225980
 20
345.30613420
  0
VERTEX
  8
0
 10
56.93225980
 20
348.29492785
  0
VERTEX
  8
0
 10
62.25261865
 20
348.29492785
  0
VERTEX
  8
0
 10
62.25261865
 20
345.30613420
  0
VERTEX
  8
0
 10
125.51213260
 20
345.30613420
  0
VERTEX
  8
0
 10
125.51213260
 20
348.30783430
  0
VERTEX
  8
0
 10
130.82858950
 20
348.30783430
  0
VERTEX
  8
0
 10
130.82858950
 20
345.30613420
  0
VERTEX
  8
0
 10
136.59026890
 20
345.30613420
  0
VERTEX
  8
0
 10
136.59026890
 20
276.82421035
  0
SEQEND
  0
POLYLINE
  8
Layer_1
 62
256
 66
   1
 39
0.000000
 70
    0
  0
VERTEX
  8
0
 10
138.77275960
 20
120.16041760
  0
VERTEX
  8
0
 10
138.77986315
 20
41.67369385
  0
VERTEX
  8
0
 10
37.60380040
 20
41.66458930
  0
VERTEX
  8
0
 10
37.58528199
 20
41.40688725
  0
VERTEX
  8
0
 10
37.53089228
 20
41.15662431
  0
VERTEX
  8
0
 10
37.44243585
 20
40.91506778
  0
VERTEX
  8
0
 10
37.32171724
 20
40.68348493
  0
VERTEX
  8
0
 10
37.17054103
 20
40.46314305
  0
VERTEX
  8
0
 10
36.99071178
 20
40.25530943
  0
VERTEX
  8
0
 10
36.78403406
 20
40.06125134
  0
VERTEX
  8
0
 10
36.55231242
 20
39.88223607
  0
VERTEX
  8
0
 10
36.29735143
 20
39.71953090
  0
VERTEX
  8
0
 10
36.02095566
 20
39.57440313
  0
VERTEX
  8
0
 10
35.72492967
 20
39.44812002
  0
VERTEX
  8
0
 10
35.41107802
 20
39.34194887
  0
VERTEX
  8
0
 10
35.08120528
 20
39.25715696
  0
VERTEX
  8
0
 10
34.73711602
 20
39.19501157
  0
VERTEX
  8
0
 10
34.38061478
 20
39.15677999
  0
VERTEX
  8
0
 10
34.01350615
 20
39.14372950
  0
VERTEX
  8
0
 10
33.64641171
 20
39.15672491
  0
VERTEX
  8
0
 10
33.28991602
 20
39.19490390
  0
VERTEX
  8
0
 10
32.94582438
 20
39.25699934
  0
VERTEX
  8
0
 10
32.61594209
 20
39.34174408
  0
VERTEX
  8
0
 10
32.30207445
 20
39.44787100
  0
VERTEX
  8
0
 10
32.00602674
 20
39.57411294
  0
VERTEX
  8
0
 10
31.72960427
 20
39.71920279
  0
VERTEX
  8
0
 10
31.47461234
 20
39.88187339
  0
VERTEX
  8
0
 10
31.24285623
 20
40.06085761
  0
VERTEX
  8
0
 10
31.03614126
 20
40.25488832
  0
VERTEX
  8
0
 10
30.85627271
 20
40.46269837
  0
VERTEX
  8
0
 10
30.70505588
 20
40.68302064
  0
VERTEX
  8
0
 10
30.58429606
 20
40.91458797
  0
VERTEX
  8
0
 10
30.49579857
 20
41.15613325
  0
VERTEX
  8
0
 10
30.44136868
 20
41.40638932
  0
VERTEX
  8
0
 10
30.42281170
 20
41.66408905
  0
VERTEX
  8
0
 10
30.11485780
 20
41.66408905
  0
VERTEX
  8
0
 10
30.09635590
 20
41.40636826
  0
VERTEX
  8
0
 10
30.04197861
 20
41.15608674
  0
VERTEX
  8
0
 10
29.95353106
 20
40.91451191
  0
VERTEX
  8
0
 10
29.83281841
 20
40.68291121
  0
VERTEX
  8
0
 10
29.68164582
 20
40.46255206
  0
VERTEX
  8
0
 10
29.50181843
 20
40.25470190
  0
VERTEX
  8
0
 10
29.29514138
 20
40.06062815
  0
VERTEX
  8
0
 10
29.06341984
 20
39.88159825
  0
VERTEX
  8
0
 10
28.80845896
 20
39.71887963
  0
VERTEX
  8
0
 10
28.53206387
 20
39.57373971
  0
VERTEX
  8
0
 10
28.23603973
 20
39.44744593
  0
VERTEX
  8
0
 10
27.92219170
 20
39.34126572
  0
VERTEX
  8
0
 10
27.59232492
 20
39.25646650
  0
VERTEX
  8
0
 10
27.24824455
 20
39.19431572
  0
VERTEX
  8
0
 10
26.89175572
 20
39.15608079
  0
VERTEX
  8
0
 10
26.52466360
 20
39.14302915
  0
VERTEX
  8
0
 10
26.15757028
 20
39.15602344
  0
VERTEX
  8
0
 10
25.80107777
 20
39.19419925
  0
VERTEX
  8
0
 10
25.45699107
 20
39.25628976
  0
VERTEX
  8
0
 10
25.12711517
 20
39.34102810
  0
VERTEX
  8
0
 10
24.81325510
 20
39.44714744
  0
VERTEX
  8
0
 10
24.51721585
 20
39.57338094
  0
VERTEX
  8
0
 10
24.24080242
 20
39.71846174
  0
VERTEX
  8
0
 10
23.98581981
 20
39.88112301
  0
VERTEX
  8
0
 10
23.75407304
 20
40.06009790
  0
VERTEX
  8
0
 10
23.54736710
 20
40.25411957
  0
VERTEX
  8
0
 10
23.36750700
 20
40.46192118
  0
VERTEX
  8
0
 10
23.21629774
 20
40.68223587
  0
VERTEX
  8
0
 10
23.09554433
 20
40.91379681
  0
VERTEX
  8
0
 10
23.00705177
 20
41.15533714
  0
VERTEX
  8
0
 10
22.95262506
 20
41.40559004
  0
VERTEX
  8
0
 10
22.93406920
 20
41.66328865
  0
VERTEX
  8
0
 10
22.41981220
 20
41.66318860
  0
VERTEX
  8
0
 10
22.40129379
 20
41.40550303
  0
VERTEX
  8
0
 10
22.34690408
 20
41.15525234
  0
VERTEX
  8
0
 10
22.25844765
 20
40.91370423
  0
VERTEX
  8
0
 10
22.13772904
 20
40.68212644
  0
VERTEX
  8
0
 10
21.98655283
 20
40.46178669
  0
VERTEX
  8
0
 10
21.80672358
 20
40.25395269
  0
VERTEX
  8
0
 10
21.60004586
 20
40.05989219
  0
VERTEX
  8
0
 10
21.36832422
 20
39.88087289
  0
VERTEX
  8
0
 10
21.11336323
 20
39.71816252
  0
VERTEX
  8
0
 10
20.83696746
 20
39.57302881
  0
VERTEX
  8
0
 10
20.54094147
 20
39.44673947
  0
VERTEX
  8
0
 10
20.22708982
 20
39.34056224
  0
VERTEX
  8
0
 10
19.89721708
 20
39.25576484
  0
VERTEX
  8
0
 10
19.55312782
 20
39.19361498
  0
VERTEX
  8
0
 10
19.19662658
 20
39.15538039
  0
VERTEX
  8
0
 10
18.82951795
 20
39.14232880
  0
VERTEX
  8
0
 10
18.46240700
 20
39.15532311
  0
VERTEX
  8
0
 10
18.10589890
 20
39.19349910
  0
VERTEX
  8
0
 10
17.76179837
 20
39.25559007
  0
VERTEX
  8
0
 10
17.43191012
 20
39.34032931
  0
VERTEX
  8
0
 10
17.11803886
 20
39.44645015
  0
VERTEX
  8
0
 10
16.82198930
 20
39.57268586
  0
VERTEX
  8
0
 10
16.54556614
 20
39.71776977
  0
VERTEX
  8
0
 10
16.29057411
 20
39.88043517
  0
VERTEX
  8
0
 10
16.05881791
 20
40.05941536
  0
VERTEX
  8
0
 10
15.85210225
 20
40.25344365
  0
VERTEX
  8
0
 10
15.67223184
 20
40.46125334
  0
VERTEX
  8
0
 10
15.52101140
 20
40.68157773
  0
VERTEX
  8
0
 10
15.40024563
 20
40.91315012
  0
VERTEX
  8
0
 10
15.31173924
 20
41.15470382
  0
VERTEX
  8
0
 10
15.25729694
 20
41.40497213
  0
VERTEX
  8
0
 10
15.23872345
 20
41.66268835
  0
VERTEX
  8
0
 10
14.93086960
 20
41.66258830
  0
VERTEX
  8
0
 10
14.91236768
 20
41.40486978
  0
VERTEX
  8
0
 10
14.85799021
 20
41.15459478
  0
VERTEX
  8
0
 10
14.76954220
 20
40.91303029
  0
VERTEX
  8
0
 10
14.64882865
 20
40.68144329
  0
VERTEX
  8
0
 10
14.49765457
 20
40.46110077
  0
VERTEX
  8
0
 10
14.31782495
 20
40.25326974
  0
VERTEX
  8
0
 10
14.11114481
 20
40.05921717
  0
VERTEX
  8
0
 10
13.87941914
 20
39.88021006
  0
VERTEX
  8
0
 10
13.62445295
 20
39.71751540
  0
VERTEX
  8
0
 10
13.34805124
 20
39.57240017
  0
VERTEX
  8
0
 10
13.05201902
 20
39.44613138
  0
VERTEX
  8
0
 10
12.73816129
 20
39.33997601
  0
VERTEX
  8
0
 10
12.40828306
 20
39.25520105
  0
VERTEX
  8
0
 10
12.06418932
 20
39.19307350
  0
VERTEX
  8
0
 10
11.70768508
 20
39.15486033
  0
VERTEX
  8
0
 10
11.34057535
 20
39.14182855
  0
VERTEX
  8
0
 10
10.97348093
 20
39.15480520
  0
VERTEX
  8
0
 10
10.61698542
 20
39.19296543
  0
VERTEX
  8
0
 10
10.27289424
 20
39.25504211
  0
VERTEX
  8
0
 10
9.94301286
 20
39.33976810
  0
VERTEX
  8
0
 10
9.62914670
 20
39.44587625
  0
VERTEX
  8
0
 10
9.33310122
 20
39.57209944
  0
VERTEX
  8
0
 10
9.05668185
 20
39.71717052
  0
VERTEX
  8
0
 10
8.80169404
 20
39.87982236
  0
VERTEX
  8
0
 10
8.56994324
 20
40.05878783
  0
VERTEX
  8
0
 10
8.36323488
 20
40.25279977
  0
VERTEX
  8
0
 10
8.18337442
 20
40.46059107
  0
VERTEX
  8
0
 10
8.03216729
 20
40.68089457
  0
VERTEX
  8
0
 10
7.91141893
 20
40.91244315
  0
VERTEX
  8
0
 10
7.82293479
 20
41.15396966
  0
VERTEX
  8
0
 10
7.76852032
 20
41.40420698
  0
VERTEX
  8
0
 10
7.74998095
 20
41.66188795
  0
VERTEX
  8
0
 10
7.06263745
 20
41.66188795
  0
VERTEX
  8
0
 10
7.04412011
 20
41.40416941
  0
VERTEX
  8
0
 10
6.98973324
 20
41.15389424
  0
VERTEX
  8
0
 10
6.90128081
 20
40.91232928
  0
VERTEX
  8
0
 10
6.78056680
 20
40.68074137
  0
VERTEX
  8
0
 10
6.62939518
 20
40.46039737
  0
VERTEX
  8
0
 10
6.44956994
 20
40.25256411
  0
VERTEX
  8
0
 10
6.24289504
 20
40.05850844
  0
VERTEX
  8
0
 10
6.01117448
 20
39.87949720
  0
VERTEX
  8
0
 10
5.75621222
 20
39.71679724
  0
VERTEX
  8
0
 10
5.47981225
 20
39.57167540
  0
VERTEX
  8
0
 10
5.18377854
 20
39.44539852
  0
VERTEX
  8
0
 10
4.86991507
 20
39.33923345
  0
VERTEX
  8
0
 10
4.54002582
 20
39.25444704
  0
VERTEX
  8
0
 10
4.19591477
 20
39.19230612
  0
VERTEX
  8
0
 10
3.83938588
 20
39.15407754
  0
VERTEX
  8
0
 10
3.47224315
 20
39.14102815
  0
VERTEX
  8
0
 10
3.10514983
 20
39.15400705
  0
VERTEX
  8
0
 10
2.74865732
 20
39.19217363
  0
VERTEX
  8
0
 10
2.40457062
 20
39.25426018
  0
VERTEX
  8
0
 10
2.07469472
 20
39.33899896
  0
VERTEX
  8
0
 10
1.76083465
 20
39.44512226
  0
VERTEX
  8
0
 10
1.46479540
 20
39.57136235
  0
VERTEX
  8
0
 10
1.18838197
 20
39.71645151
  0
VERTEX
  8
0
 10
0.93339936
 20
39.87912201
  0
VERTEX
  8
0
 10
0.70165259
 20
40.05810614
  0
VERTEX
  8
0
 10
0.49494665
 20
40.25213616
  0
VERTEX
  8
0
 10
0.31508655
 20
40.45994436
  0
VERTEX
  8
0
 10
0.16387729
 20
40.68026301
  0
VERTEX
  8
0
 10
0.04312388
 20
40.91182438
  0
VERTEX
  8
0
 10
-0.04536868
 20
41.15336077
  0
VERTEX
  8
0
 10
-0.09979539
 20
41.40360443
  0
VERTEX
  8
0
 10
-0.11835125
 20
41.66128765
  0
VERTEX
  8
0
 10
-0.42630515
 20
41.66118760
  0
VERTEX
  8
0
 10
-0.44480595
 20
41.40350203
  0
VERTEX
  8
0
 10
-0.49918024
 20
41.15325134
  0
VERTEX
  8
0
 10
-0.58762332
 20
40.91170323
  0
VERTEX
  8
0
 10
-0.70833047
 20
40.68012544
  0
VERTEX
  8
0
 10
-0.85949698
 20
40.45978569
  0
VERTEX
  8
0
 10
-1.03931814
 20
40.25195169
  0
VERTEX
  8
0
 10
-1.24598925
 20
40.05789119
  0
VERTEX
  8
0
 10
-1.47770559
 20
39.87887189
  0
VERTEX
  8
0
 10
-1.73266245
 20
39.71616152
  0
VERTEX
  8
0
 10
-2.00905511
 20
39.57102781
  0
VERTEX
  8
0
 10
-2.30507888
 20
39.44473847
  0
VERTEX
  8
0
 10
-2.61892904
 20
39.33856124
  0
VERTEX
  8
0
 10
-2.94880087
 20
39.25376384
  0
VERTEX
  8
0
 10
-3.29288968
 20
39.19161398
  0
VERTEX
  8
0
 10
-3.64939074
 20
39.15337939
  0
VERTEX
  8
0
 10
-4.01649935
 20
39.14032780
  0
VERTEX
  8
0
 10
-4.38361028
 20
39.15332211
  0
VERTEX
  8
0
 10
-4.74011821
 20
39.19149810
  0
VERTEX
  8
0
 10
-5.08421827
 20
39.25358907
  0
VERTEX
  8
0
 10
-5.41410562
 20
39.33832831
  0
VERTEX
  8
0
 10
-5.72797539
 20
39.44444915
  0
VERTEX
  8
0
 10
-6.02402273
 20
39.57068486
  0
VERTEX
  8
0
 10
-6.30044278
 20
39.71576877
  0
VERTEX
  8
0
 10
-6.55543068
 20
39.87843417
  0
VERTEX
  8
0
 10
-6.78718158
 20
40.05741436
  0
VERTEX
  8
0
 10
-6.99389062
 20
40.25144265
  0
VERTEX
  8
0
 10
-7.17375294
 20
40.45925234
  0
VERTEX
  8
0
 10
-7.32496369
 20
40.67957673
  0
VERTEX
  8
0
 10
-7.44571801
 20
40.91114912
  0
VERTEX
  8
0
 10
-7.53421104
 20
41.15270282
  0
VERTEX
  8
0
 10
-7.58863792
 20
41.40297113
  0
VERTEX
  8
0
 10
-7.60719380
 20
41.66068735
  0
VERTEX
  8
0
 10
-8.12145080
 20
41.66048725
  0
VERTEX
  8
0
 10
-8.13998570
 20
41.40278630
  0
VERTEX
  8
0
 10
-8.19438764
 20
41.15252637
  0
VERTEX
  8
0
 10
-8.28285251
 20
40.91097430
  0
VERTEX
  8
0
 10
-8.40357617
 20
40.67939695
  0
VERTEX
  8
0
 10
-8.55475450
 20
40.45906115
  0
VERTEX
  8
0
 10
-8.73458338
 20
40.25123376
  0
VERTEX
  8
0
 10
-8.94125869
 20
40.05718160
  0
VERTEX
  8
0
 10
-9.17297630
 20
39.87817154
  0
VERTEX
  8
0
 10
-9.42793208
 20
39.71547040
  0
VERTEX
  8
0
 10
-9.70432192
 20
39.57034504
  0
VERTEX
  8
0
 10
-10.00034168
 20
39.44406231
  0
VERTEX
  8
0
 10
-10.31418725
 20
39.33788903
  0
VERTEX
  8
0
 10
-10.64405449
 20
39.25309206
  0
VERTEX
  8
0
 10
-10.98813929
 20
39.19093825
  0
VERTEX
  8
0
 10
-11.34463752
 20
39.15269443
  0
VERTEX
  8
0
 10
-11.71174505
 20
39.13962745
  0
VERTEX
  8
0
 10
-12.07883729
 20
39.15262174
  0
VERTEX
  8
0
 10
-12.43532697
 20
39.19079755
  0
VERTEX
  8
0
 10
-12.77940967
 20
39.25288806
  0
VERTEX
  8
0
 10
-13.10928097
 20
39.33762640
  0
VERTEX
  8
0
 10
-13.42313645
 20
39.44374574
  0
VERTEX
  8
0
 10
-13.71917170
 20
39.56997924
  0
VERTEX
  8
0
 10
-13.99558230
 20
39.71506004
  0
VERTEX
  8
0
 10
-14.25056383
 20
39.87772131
  0
VERTEX
  8
0
 10
-14.48231187
 20
40.05669620
  0
VERTEX
  8
0
 10
-14.68902201
 20
40.25071787
  0
VERTEX
  8
0
 10
-14.86888983
 20
40.45851948
  0
VERTEX
  8
0
 10
-15.02011091
 20
40.67883417
  0
VERTEX
  8
0
 10
-15.14088083
 20
40.91039511
  0
VERTEX
  8
0
 10
-15.22939518
 20
41.15193544
  0
VERTEX
  8
0
 10
-15.28384955
 20
41.40218834
  0
VERTEX
  8
0
 10
-15.30243950
 20
41.65988695
  0
VERTEX
  8
0
 10
-15.61029335
 20
41.65988695
  0
VERTEX
  8
0
 10
-15.62879527
 20
41.40218487
  0
VERTEX
  8
0
 10
-15.68317274
 20
41.15192177
  0
VERTEX
  8
0
 10
-15.77162075
 20
40.91036477
  0
VERTEX
  8
0
 10
-15.89233430
 20
40.67878102
  0
VERTEX
  8
0
 10
-16.04350838
 20
40.45843765
  0
VERTEX
  8
0
 10
-16.22333800
 20
40.25060180
  0
VERTEX
  8
0
 10
-16.43001814
 20
40.05654061
  0
VERTEX
  8
0
 10
-16.66174381
 20
39.87752121
  0
VERTEX
  8
0
 10
-16.91671000
 20
39.71481075
  0
VERTEX
  8
0
 10
-17.19311171
 20
39.56967635
  0
VERTEX
  8
0
 10
-17.48914393
 20
39.44338516
  0
VERTEX
  8
0
 10
-17.80300166
 20
39.33720431
  0
VERTEX
  8
0
 10
-18.13287989
 20
39.25240095
  0
VERTEX
  8
0
 10
-18.47697363
 20
39.19024220
  0
VERTEX
  8
0
 10
-18.83347787
 20
39.15199520
  0
VERTEX
  8
0
 10
-19.20058760
 20
39.13892710
  0
VERTEX
  8
0
 10
-19.56768202
 20
39.15192139
  0
VERTEX
  8
0
 10
-19.92417753
 20
39.19009720
  0
VERTEX
  8
0
 10
-20.26826871
 20
39.25218771
  0
VERTEX
  8
0
 10
-20.59815009
 20
39.33692605
  0
VERTEX
  8
0
 10
-20.91201625
 20
39.44304539
  0
VERTEX
  8
0
 10
-21.20806173
 20
39.56927889
  0
VERTEX
  8
0
 10
-21.48448110
 20
39.71435969
  0
VERTEX
  8
0
 10
-21.73946891
 20
39.87702096
  0
VERTEX
  8
0
 10
-21.97121971
 20
40.05599585
  0
VERTEX
  8
0
 10
-22.17792807
 20
40.25001752
  0
VERTEX
  8
0
 10
-22.35778853
 20
40.45781913
  0
VERTEX
  8
0
 10
-22.50899566
 20
40.67813382
  0
VERTEX
  8
0
 10
-22.62974402
 20
40.90969476
  0
VERTEX
  8
0
 10
-22.71822816
 20
41.15123509
  0
VERTEX
  8
0
 10
-22.77264263
 20
41.40148799
  0
VERTEX
  8
0
 10
-22.79118200
 20
41.65918660
  0
VERTEX
  8
0
 10
-23.73355295
 20
41.65918660
  0
VERTEX
  8
0
 10
-23.75208782
 20
41.40146586
  0
VERTEX
  8
0
 10
-23.80648960
 20
41.15118468
  0
VERTEX
  8
0
 10
-23.89495400
 20
40.90961078
  0
VERTEX
  8
0
 10
-24.01567675
 20
40.67801188
  0
VERTEX
  8
0
 10
-24.16685360
 20
40.45765571
  0
VERTEX
  8
0
 10
-24.34668026
 20
40.24981000
  0
VERTEX
  8
0
 10
-24.55335246
 20
40.05574246
  0
VERTEX
  8
0
 10
-24.78506594
 20
39.87672081
  0
VERTEX
  8
0
 10
-25.04001643
 20
39.71401279
  0
VERTEX
  8
0
 10
-25.31639964
 20
39.56888611
  0
VERTEX
  8
0
 10
-25.61241132
 20
39.44260850
  0
VERTEX
  8
0
 10
-25.92624719
 20
39.33644769
  0
VERTEX
  8
0
 10
-26.25610297
 20
39.25167138
  0
VERTEX
  8
0
 10
-26.60017441
 20
39.18954732
  0
VERTEX
  8
0
 10
-26.95665723
 20
39.15134322
  0
VERTEX
  8
0
 10
-27.32374715
 20
39.13832680
  0
VERTEX
  8
0
 10
-27.69085700
 20
39.15130350
  0
VERTEX
  8
0
 10
-28.04736210
 20
39.18946407
  0
VERTEX
  8
0
 10
-28.39145816
 20
39.25154168
  0
VERTEX
  8
0
 10
-28.72134091
 20
39.33626947
  0
VERTEX
  8
0
 10
-29.03520609
 20
39.44238061
  0
VERTEX
  8
0
 10
-29.33124942
 20
39.56860824
  0
VERTEX
  8
0
 10
-29.60766664
 20
39.71368553
  0
VERTEX
  8
0
 10
-29.86265347
 20
39.87634563
  0
VERTEX
  8
0
 10
-30.09440564
 20
40.05532169
  0
VERTEX
  8
0
 10
-30.30111888
 20
40.24934688
  0
VERTEX
  8
0
 10
-30.48098892
 20
40.45715434
  0
VERTEX
  8
0
 10
-30.63221149
 20
40.67747724
  0
VERTEX
  8
0
 10
-30.75298232
 20
40.90904873
  0
VERTEX
  8
0
 10
-30.84149714
 20
41.15060197
  0
VERTEX
  8
0
 10
-30.89595167
 20
41.40087010
  0
VERTEX
  8
0
 10
-30.91454165
 20
41.65858630
  0
VERTEX
  8
0
 10
-31.22239550
 20
41.65858630
  0
VERTEX
  8
0
 10
-31.24089740
 20
41.40086551
  0
VERTEX
  8
0
 10
-31.29527469
 20
41.15058399
  0
VERTEX
  8
0
 10
-31.38372224
 20
40.90900916
  0
VERTEX
  8
0
 10
-31.50443489
 20
40.67740846
  0
VERTEX
  8
0
 10
-31.65560748
 20
40.45704931
  0
VERTEX
  8
0
 10
-31.83543487
 20
40.24919915
  0
VERTEX
  8
0
 10
-32.04211192
 20
40.05512540
  0
VERTEX
  8
0
 10
-32.27383346
 20
39.87609550
  0
VERTEX
  8
0
 10
-32.52879434
 20
39.71337688
  0
VERTEX
  8
0
 10
-32.80518943
 20
39.56823696
  0
VERTEX
  8
0
 10
-33.10121357
 20
39.44194318
  0
VERTEX
  8
0
 10
-33.41506160
 20
39.33576297
  0
VERTEX
  8
0
 10
-33.74492838
 20
39.25096375
  0
VERTEX
  8
0
 10
-34.08900875
 20
39.18881297
  0
VERTEX
  8
0
 10
-34.44549758
 20
39.15057804
  0
VERTEX
  8
0
 10
-34.81258970
 20
39.13752640
  0
VERTEX
  8
0
 10
-35.17970063
 20
39.15052069
  0
VERTEX
  8
0
 10
-35.53620856
 20
39.18869650
  0
VERTEX
  8
0
 10
-35.88030862
 20
39.25078701
  0
VERTEX
  8
0
 10
-36.21019597
 20
39.33552535
  0
VERTEX
  8
0
 10
-36.52406574
 20
39.44164469
  0
VERTEX
  8
0
 10
-36.82011308
 20
39.56787819
  0
VERTEX
  8
0
 10
-37.09653313
 20
39.71295899
  0
VERTEX
  8
0
 10
-37.35152103
 20
39.87562026
  0
VERTEX
  8
0
 10
-37.58327193
 20
40.05459515
  0
VERTEX
  8
0
 10
-37.78998097
 20
40.24861682
  0
VERTEX
  8
0
 10
-37.96984329
 20
40.45641843
  0
VERTEX
  8
0
 10
-38.12105404
 20
40.67673312
  0
VERTEX
  8
0
 10
-38.24180836
 20
40.90829406
  0
VERTEX
  8
0
 10
-38.33030139
 20
41.14983439
  0
VERTEX
  8
0
 10
-38.38472827
 20
41.40008729
  0
VERTEX
  8
0
 10
-38.40328415
 20
41.65778590
  0
VERTEX
  8
0
 10
-38.91754115
 20
41.65778590
  0
VERTEX
  8
0
 10
-38.93607497
 20
41.40008385
  0
VERTEX
  8
0
 10
-38.99047408
 20
41.14982091
  0
VERTEX
  8
0
 10
-39.07893494
 20
40.90826438
  0
VERTEX
  8
0
 10
-39.19965401
 20
40.67668153
  0
VERTEX
  8
0
 10
-39.35082775
 20
40.45633965
  0
VERTEX
  8
0
 10
-39.53065263
 20
40.24850603
  0
VERTEX
  8
0
 10
-39.73732510
 20
40.05444794
  0
VERTEX
  8
0
 10
-39.96904164
 20
39.87543267
  0
VERTEX
  8
0
 10
-40.22399869
 20
39.71272750
  0
VERTEX
  8
0
 10
-40.50039273
 20
39.56759973
  0
VERTEX
  8
0
 10
-40.79642021
 20
39.44131662
  0
VERTEX
  8
0
 10
-41.11027760
 20
39.33514547
  0
VERTEX
  8
0
 10
-41.44016135
 20
39.25035356
  0
VERTEX
  8
0
 10
-41.78426794
 20
39.18820817
  0
VERTEX
  8
0
 10
-42.14079382
 20
39.14997659
  0
VERTEX
  8
0
 10
-42.50793545
 20
39.13692610
  0
VERTEX
  8
0
 10
-42.87502769
 20
39.14992039
  0
VERTEX
  8
0
 10
-43.23151737
 20
39.18809620
  0
VERTEX
  8
0
 10
-43.57560007
 20
39.25018671
  0
VERTEX
  8
0
 10
-43.90547137
 20
39.33492505
  0
VERTEX
  8
0
 10
-44.21932685
 20
39.44104439
  0
VERTEX
  8
0
 10
-44.51536210
 20
39.56727789
  0
VERTEX
  8
0
 10
-44.79177270
 20
39.71235869
  0
VERTEX
  8
0
 10
-45.04675423
 20
39.87501996
  0
VERTEX
  8
0
 10
-45.27850227
 20
40.05399485
  0
VERTEX
  8
0
 10
-45.48521241
 20
40.24801652
  0
VERTEX
  8
0
 10
-45.66508023
 20
40.45581813
  0
VERTEX
  8
0
 10
-45.81630131
 20
40.67613282
  0
VERTEX
  8
0
 10
-45.93707123
 20
40.90769376
  0
VERTEX
  8
0
 10
-46.02558558
 20
41.14923409
  0
VERTEX
  8
0
 10
-46.08003995
 20
41.39948699
  0
VERTEX
  8
0
 10
-46.09862990
 20
41.65718560
  0
VERTEX
  8
0
 10
-46.40638370
 20
41.65708555
  0
VERTEX
  8
0
 10
-46.42490211
 20
41.39938240
  0
VERTEX
  8
0
 10
-46.47929182
 20
41.14911646
  0
VERTEX
  8
0
 10
-46.56774825
 20
40.90755545
  0
VERTEX
  8
0
 10
-46.68846686
 20
40.67596711
  0
VERTEX
  8
0
 10
-46.83964307
 20
40.45561915
  0
VERTEX
  8
0
 10
-47.01947232
 20
40.24777930
  0
VERTEX
  8
0
 10
-47.22615004
 20
40.05371527
  0
VERTEX
  8
0
 10
-47.45787168
 20
39.87469480
  0
VERTEX
  8
0
 10
-47.71283267
 20
39.71198561
  0
VERTEX
  8
0
 10
-47.98922844
 20
39.56685541
  0
VERTEX
  8
0
 10
-48.28525443
 20
39.44057194
  0
VERTEX
  8
0
 10
-48.59910608
 20
39.33440291
  0
VERTEX
  8
0
 10
-48.92897882
 20
39.24961606
  0
VERTEX
  8
0
 10
-49.27306808
 20
39.18747910
  0
VERTEX
  8
0
 10
-49.62956932
 20
39.14925975
  0
VERTEX
  8
0
 10
-49.99667795
 20
39.13622575
  0
VERTEX
  8
0
 10
-50.36377237
 20
39.14920355
  0
VERTEX
  8
0
 10
-50.72026788
 20
39.18736713
  0
VERTEX
  8
0
 10
-51.06435906
 20
39.24944920
  0
VERTEX
  8
0
 10
-51.39424044
 20
39.33418249
  0
VERTEX
  8
0
 10
-51.70810660
 20
39.44029971
  0
VERTEX
  8
0
 10
-52.00415208
 20
39.56653357
  0
VERTEX
  8
0
 10
-52.28057145
 20
39.71161679
  0
VERTEX
  8
0
 10
-52.53555926
 20
39.87428209
  0
VERTEX
  8
0
 10
-52.76731006
 20
40.05326219
  0
VERTEX
  8
0
 10
-52.97401842
 20
40.24728979
  0
VERTEX
  8
0
 10
-53.15387888
 20
40.45509762
  0
VERTEX
  8
0
 10
-53.30508601
 20
40.67541840
  0
VERTEX
  8
0
 10
-53.42583437
 20
40.90698483
  0
VERTEX
  8
0
 10
-53.51431851
 20
41.14852964
  0
VERTEX
  8
0
 10
-53.56873298
 20
41.39878554
  0
VERTEX
  8
0
 10
-53.58727235
 20
41.65648525
  0
VERTEX
  8
0
 10
-54.27471590
 20
41.65648525
  0
VERTEX
  8
0
 10
-54.29323433
 20
41.39876446
  0
VERTEX
  8
0
 10
-54.34762421
 20
41.14848294
  0
VERTEX
  8
0
 10
-54.43608111
 20
40.90690811
  0
VERTEX
  8
0
 10
-54.55680062
 20
40.67530741
  0
VERTEX
  8
0
 10
-54.70797832
 20
40.45494826
  0
VERTEX
  8
0
 10
-54.88780979
 20
40.24709810
  0
VERTEX
  8
0
 10
-55.09449062
 20
40.05302435
  0
VERTEX
  8
0
 10
-55.32621639
 20
39.87399445
  0
VERTEX
  8
0
 10
-55.58118267
 20
39.71127583
  0
VERTEX
  8
0
 10
-55.85758506
 20
39.56613591
  0
VERTEX
  8
0
 10
-56.15361914
 20
39.43984213
  0
VERTEX
  8
0
 10
-56.46748048
 20
39.33366192
  0
VERTEX
  8
0
 10
-56.79736468
 20
39.24886270
  0
VERTEX
  8
0
 10
-57.14146731
 20
39.18671192
  0
VERTEX
  8
0
 10
-57.49798396
 20
39.14847699
  0
VERTEX
  8
0
 10
-57.86511020
 20
39.13542535
  0
VERTEX
  8
0
 10
-58.23222001
 20
39.14840427
  0
VERTEX
  8
0
 10
-58.58872476
 20
39.18657103
  0
VERTEX
  8
0
 10
-58.93281989
 20
39.24865804
  0
VERTEX
  8
0
 10
-59.26270083
 20
39.33339772
  0
VERTEX
  8
0
 10
-59.57656303
 20
39.43952251
  0
VERTEX
  8
0
 10
-59.87260192
 20
39.56576483
  0
VERTEX
  8
0
 10
-60.14901293
 20
39.71085709
  0
VERTEX
  8
0
 10
-60.40399151
 20
39.87353172
  0
VERTEX
  8
0
 10
-60.63573308
 20
40.05252114
  0
VERTEX
  8
0
 10
-60.84243308
 20
40.24655779
  0
VERTEX
  8
0
 10
-61.02228695
 20
40.45437407
  0
VERTEX
  8
0
 10
-61.17349013
 20
40.67470242
  0
VERTEX
  8
0
 10
-61.29423804
 20
40.90627525
  0
VERTEX
  8
0
 10
-61.38272614
 20
41.14782499
  0
VERTEX
  8
0
 10
-61.43714984
 20
41.39808407
  0
VERTEX
  8
0
 10
-61.45570460
 20
41.65578490
  0
VERTEX
  8
0
 10
-61.76355845
 20
41.65568485
  0
VERTEX
  8
0
 10
-61.78206035
 20
41.39799928
  0
VERTEX
  8
0
 10
-61.83643764
 20
41.14774859
  0
VERTEX
  8
0
 10
-61.92488519
 20
40.90620048
  0
VERTEX
  8
0
 10
-62.04559784
 20
40.67462269
  0
VERTEX
  8
0
 10
-62.19677043
 20
40.45428294
  0
VERTEX
  8
0
 10
-62.37659782
 20
40.24644894
  0
VERTEX
  8
0
 10
-62.58327487
 20
40.05238844
  0
VERTEX
  8
0
 10
-62.81499641
 20
39.87336914
  0
VERTEX
  8
0
 10
-63.06995729
 20
39.71065877
  0
VERTEX
  8
0
 10
-63.34635238
 20
39.56552506
  0
VERTEX
  8
0
 10
-63.64237652
 20
39.43923572
  0
VERTEX
  8
0
 10
-63.95622455
 20
39.33305849
  0
VERTEX
  8
0
 10
-64.28609133
 20
39.24826109
  0
VERTEX
  8
0
 10
-64.63017170
 20
39.18611123
  0
VERTEX
  8
0
 10
-64.98666053
 20
39.14787664
  0
VERTEX
  8
0
 10
-65.35375265
 20
39.13482505
  0
VERTEX
  8
0
 10
-65.72086358
 20
39.14781936
  0
VERTEX
  8
0
 10
-66.07737151
 20
39.18599535
  0
VERTEX
  8
0
 10
-66.42147157
 20
39.24808632
  0
VERTEX
  8
0
 10
-66.75135892
 20
39.33282556
  0
VERTEX
  8
0
 10
-67.06522869
 20
39.43894640
  0
VERTEX
  8
0
 10
-67.36127603
 20
39.56518211
  0
VERTEX
  8
0
 10
-67.63769608
 20
39.71026602
  0
VERTEX
  8
0
 10
-67.89268398
 20
39.87293142
  0
VERTEX
  8
0
 10
-68.12443488
 20
40.05191161
  0
VERTEX
  8
0
 10
-68.33114392
 20
40.24593990
  0
VERTEX
  8
0
 10
-68.51100624
 20
40.45374959
  0
VERTEX
  8
0
 10
-68.66221699
 20
40.67407398
  0
VERTEX
  8
0
 10
-68.78297131
 20
40.90564637
  0
VERTEX
  8
0
 10
-68.87146434
 20
41.14720007
  0
VERTEX
  8
0
 10
-68.92589122
 20
41.39746838
  0
VERTEX
  8
0
 10
-68.94444710
 20
41.65518460
  0
VERTEX
  8
0
 10
-69.45870410
 20
41.65498450
  0
VERTEX
  8
0
 10
-69.47723900
 20
41.39730006
  0
VERTEX
  8
0
 10
-69.53164094
 20
41.14705254
  0
VERTEX
  8
0
 10
-69.62010581
 20
40.90550936
  0
VERTEX
  8
0
 10
-69.74082947
 20
40.67393797
  0
VERTEX
  8
0
 10
-69.89200780
 20
40.45360579
  0
VERTEX
  8
0
 10
-70.07183668
 20
40.24578025
  0
VERTEX
  8
0
 10
-70.27851199
 20
40.05172878
  0
VERTEX
  8
0
 10
-70.51022960
 20
39.87271881
  0
VERTEX
  8
0
 10
-70.76518538
 20
39.71001778
  0
VERTEX
  8
0
 10
-71.04157522
 20
39.56489310
  0
VERTEX
  8
0
 10
-71.33759498
 20
39.43861222
  0
VERTEX
  8
0
 10
-71.65144055
 20
39.33244256
  0
VERTEX
  8
0
 10
-71.98130779
 20
39.24765155
  0
VERTEX
  8
0
 10
-72.32539259
 20
39.18550663
  0
VERTEX
  8
0
 10
-72.68189082
 20
39.14727522
  0
VERTEX
  8
0
 10
-73.04899835
 20
39.13422475
  0
VERTEX
  8
0
 10
-73.41612579
 20
39.14720143
  0
VERTEX
  8
0
 10
-73.77264613
 20
39.18536183
  0
VERTEX
  8
0
 10
-74.11675508
 20
39.24743897
  0
VERTEX
  8
0
 10
-74.44664839
 20
39.33216586
  0
VERTEX
  8
0
 10
-74.76052177
 20
39.43827550
  0
VERTEX
  8
0
 10
-75.05657097
 20
39.56450091
  0
VERTEX
  8
0
 10
-75.33299170
 20
39.70957510
  0
VERTEX
  8
0
 10
-75.58797971
 20
39.87223107
  0
VERTEX
  8
0
 10
-75.81973070
 20
40.05120183
  0
VERTEX
  8
0
 10
-76.02644043
 20
40.24522040
  0
VERTEX
  8
0
 10
-76.20630461
 20
40.45301978
  0
VERTEX
  8
0
 10
-76.35751897
 20
40.67333298
  0
VERTEX
  8
0
 10
-76.47827925
 20
40.90489302
  0
VERTEX
  8
0
 10
-76.56678117
 20
41.14643289
  0
VERTEX
  8
0
 10
-76.62122046
 20
41.39668562
  0
VERTEX
  8
0
 10
-76.63979285
 20
41.65438420
  0
VERTEX
  8
0
 10
-76.94764670
 20
41.65438420
  0
VERTEX
  8
0
 10
-76.96614862
 20
41.39666454
  0
VERTEX
  8
0
 10
-77.02052609
 20
41.14638619
  0
VERTEX
  8
0
 10
-77.10897410
 20
40.90481629
  0
VERTEX
  8
0
 10
-77.22968765
 20
40.67322199
  0
VERTEX
  8
0
 10
-77.38086173
 20
40.45287041
  0
VERTEX
  8
0
 10
-77.56069135
 20
40.24502870
  0
VERTEX
  8
0
 10
-77.76737149
 20
40.05096399
  0
VERTEX
  8
0
 10
-77.99909716
 20
39.87194343
  0
VERTEX
  8
0
 10
-78.25406335
 20
39.70923413
  0
VERTEX
  8
0
 10
-78.53046506
 20
39.56410325
  0
VERTEX
  8
0
 10
-78.82649728
 20
39.43781793
  0
VERTEX
  8
0
 10
-79.14035501
 20
39.33164529
  0
VERTEX
  8
0
 10
-79.47023324
 20
39.24685247
  0
VERTEX
  8
0
 10
-79.81432698
 20
39.18470662
  0
VERTEX
  8
0
 10
-80.17083122
 20
39.14647487
  0
VERTEX
  8
0
 10
-80.53794095
 20
39.13342435
  0
VERTEX
  8
0
 10
-80.90503539
 20
39.14640325
  0
VERTEX
  8
0
 10
-81.26153108
 20
39.18456983
  0
VERTEX
  8
0
 10
-81.60562272
 20
39.24665638
  0
VERTEX
  8
0
 10
-81.93550501
 20
39.33139516
  0
VERTEX
  8
0
 10
-82.24937265
 20
39.43751846
  0
VERTEX
  8
0
 10
-82.54542036
 20
39.56375855
  0
VERTEX
  8
0
 10
-82.82184283
 20
39.70884771
  0
VERTEX
  8
0
 10
-83.07683476
 20
39.87151821
  0
VERTEX
  8
0
 10
-83.30859087
 20
40.05050234
  0
VERTEX
  8
0
 10
-83.51530584
 20
40.24453236
  0
VERTEX
  8
0
 10
-83.69517439
 20
40.45234056
  0
VERTEX
  8
0
 10
-83.84639122
 20
40.67265921
  0
VERTEX
  8
0
 10
-83.96715104
 20
40.90422058
  0
VERTEX
  8
0
 10
-84.05564853
 20
41.14575697
  0
VERTEX
  8
0
 10
-84.11007842
 20
41.39600063
  0
VERTEX
  8
0
 10
-84.12863540
 20
41.65368385
  0
VERTEX
  8
0
 10
-84.59586890
 20
41.65368385
  0
VERTEX
  8
0
 10
-84.61438729
 20
41.39598177
  0
VERTEX
  8
0
 10
-84.66877682
 20
41.14571867
  0
VERTEX
  8
0
 10
-84.75723279
 20
40.90416167
  0
VERTEX
  8
0
 10
-84.87795050
 20
40.67257792
  0
VERTEX
  8
0
 10
-85.02912521
 20
40.45223455
  0
VERTEX
  8
0
 10
-85.20895224
 20
40.24439870
  0
VERTEX
  8
0
 10
-85.41562687
 20
40.05033751
  0
VERTEX
  8
0
 10
-85.64734438
 20
39.87131811
  0
VERTEX
  8
0
 10
-85.90230006
 20
39.70860765
  0
VERTEX
  8
0
 10
-86.17868921
 20
39.56347325
  0
VERTEX
  8
0
 10
-86.47470712
 20
39.43718206
  0
VERTEX
  8
0
 10
-86.78854907
 20
39.33100121
  0
VERTEX
  8
0
 10
-87.11841035
 20
39.24619785
  0
VERTEX
  8
0
 10
-87.46248626
 20
39.18403910
  0
VERTEX
  8
0
 10
-87.81897208
 20
39.14579210
  0
VERTEX
  8
0
 10
-88.18606310
 20
39.13272400
  0
VERTEX
  8
0
 10
-88.55320818
 20
39.14570072
  0
VERTEX
  8
0
 10
-88.90974410
 20
39.18386147
  0
VERTEX
  8
0
 10
-89.25386688
 20
39.24593954
  0
VERTEX
  8
0
 10
-89.58377254
 20
39.33066824
  0
VERTEX
  8
0
 10
-89.89765712
 20
39.43678086
  0
VERTEX
  8
0
 10
-90.19371662
 20
39.56301072
  0
VERTEX
  8
0
 10
-90.47014708
 20
39.70809111
  0
VERTEX
  8
0
 10
-90.72514451
 20
39.87075533
  0
VERTEX
  8
0
 10
-90.95690493
 20
40.04973670
  0
VERTEX
  8
0
 10
-91.16362438
 20
40.24376850
  0
VERTEX
  8
0
 10
-91.34349887
 20
40.45158405
  0
VERTEX
  8
0
 10
-91.49472442
 20
40.67191665
  0
VERTEX
  8
0
 10
-91.61549705
 20
40.90349959
  0
VERTEX
  8
0
 10
-91.70401280
 20
41.14506619
  0
VERTEX
  8
0
 10
-91.75846767
 20
41.39534974
  0
VERTEX
  8
0
 10
-91.77705770
 20
41.65308355
  0
VERTEX
  8
0
 10
-92.08471145
 20
41.65308355
  0
VERTEX
  8
0
 10
-92.10321447
 20
41.39536389
  0
VERTEX
  8
0
 10
-92.15759494
 20
41.14508554
  0
VERTEX
  8
0
 10
-92.24604742
 20
40.90351564
  0
VERTEX
  8
0
 10
-92.36676647
 20
40.67192134
  0
VERTEX
  8
0
 10
-92.51794664
 20
40.45156976
  0
VERTEX
  8
0
 10
-92.69778248
 20
40.24372805
  0
VERTEX
  8
0
 10
-92.90446856
 20
40.04966334
  0
VERTEX
  8
0
 10
-93.13619943
 20
39.87064277
  0
VERTEX
  8
0
 10
-93.39116965
 20
39.70793348
  0
VERTEX
  8
0
 10
-93.66757377
 20
39.56280260
  0
VERTEX
  8
0
 10
-93.96360636
 20
39.43651728
  0
VERTEX
  8
0
 10
-94.27746196
 20
39.33034464
  0
VERTEX
  8
0
 10
-94.60733514
 20
39.24555182
  0
VERTEX
  8
0
 10
-94.95142046
 20
39.18340597
  0
VERTEX
  8
0
 10
-95.30791246
 20
39.14517422
  0
VERTEX
  8
0
 10
-95.67500570
 20
39.13212370
  0
VERTEX
  8
0
 10
-96.04213314
 20
39.14511799
  0
VERTEX
  8
0
 10
-96.39865348
 20
39.18329380
  0
VERTEX
  8
0
 10
-96.74276243
 20
39.24538431
  0
VERTEX
  8
0
 10
-97.07265574
 20
39.33012265
  0
VERTEX
  8
0
 10
-97.38652912
 20
39.43624199
  0
VERTEX
  8
0
 10
-97.68257832
 20
39.56247549
  0
VERTEX
  8
0
 10
-97.95899905
 20
39.70755629
  0
VERTEX
  8
0
 10
-98.21398706
 20
39.87021756
  0
VERTEX
  8
0
 10
-98.44573805
 20
40.04919245
  0
VERTEX
  8
0
 10
-98.65244778
 20
40.24321412
  0
VERTEX
  8
0
 10
-98.83231196
 20
40.45101573
  0
VERTEX
  8
0
 10
-98.98352632
 20
40.67133042
  0
VERTEX
  8
0
 10
-99.10428660
 20
40.90289136
  0
VERTEX
  8
0
 10
-99.19278852
 20
41.14443169
  0
VERTEX
  8
0
 10
-99.24722781
 20
41.39468459
  0
VERTEX
  8
0
 10
-99.26580020
 20
41.65238320
  0
VERTEX
  8
0
 10
-99.77995715
 20
41.65238320
  0
VERTEX
  8
0
 10
-99.79847554
 20
41.39468002
  0
VERTEX
  8
0
 10
-99.85286507
 20
41.14441391
  0
VERTEX
  8
0
 10
-99.94132104
 20
40.90285245
  0
VERTEX
  8
0
 10
-100.06203875
 20
40.67126320
  0
VERTEX
  8
0
 10
-100.21321346
 20
40.45091375
  0
VERTEX
  8
0
 10
-100.39304049
 20
40.24307167
  0
VERTEX
  8
0
 10
-100.59971512
 20
40.04900454
  0
VERTEX
  8
0
 10
-100.83143263
 20
39.86997994
  0
VERTEX
  8
0
 10
-101.08638831
 20
39.70726545
  0
VERTEX
  8
0
 10
-101.36277746
 20
39.56212863
  0
VERTEX
  8
0
 10
-101.65879537
 20
39.43583708
  0
VERTEX
  8
0
 10
-101.97263732
 20
39.32965836
  0
VERTEX
  8
0
 10
-102.30249860
 20
39.24486004
  0
VERTEX
  8
0
 10
-102.64657451
 20
39.18270972
  0
VERTEX
  8
0
 10
-103.00306033
 20
39.14447497
  0
VERTEX
  8
0
 10
-103.37015135
 20
39.13142335
  0
VERTEX
  8
0
 10
-103.73726230
 20
39.14440115
  0
VERTEX
  8
0
 10
-104.09377040
 20
39.18256473
  0
VERTEX
  8
0
 10
-104.43787093
 20
39.24464680
  0
VERTEX
  8
0
 10
-104.76775918
 20
39.32938009
  0
VERTEX
  8
0
 10
-105.08163044
 20
39.43549731
  0
VERTEX
  8
0
 10
-105.37768000
 20
39.56173117
  0
VERTEX
  8
0
 10
-105.65410316
 20
39.70681439
  0
VERTEX
  8
0
 10
-105.90909519
 20
39.86947969
  0
VERTEX
  8
0
 10
-106.14085139
 20
40.04845979
  0
VERTEX
  8
0
 10
-106.34756705
 20
40.24248739
  0
VERTEX
  8
0
 10
-106.52743746
 20
40.45029522
  0
VERTEX
  8
0
 10
-106.67865790
 20
40.67061600
  0
VERTEX
  8
0
 10
-106.79942367
 20
40.90218243
  0
VERTEX
  8
0
 10
-106.88793006
 20
41.14372724
  0
VERTEX
  8
0
 10
-106.94237236
 20
41.39398314
  0
VERTEX
  8
0
 10
-106.96094585
 20
41.65168285
  0
VERTEX
  8
0
 10
-107.26879970
 20
41.65168285
  0
VERTEX
  8
0
 10
-107.28730050
 20
41.39398080
  0
VERTEX
  8
0
 10
-107.34167479
 20
41.14371786
  0
VERTEX
  8
0
 10
-107.43011787
 20
40.90216133
  0
VERTEX
  8
0
 10
-107.55082502
 20
40.67057848
  0
VERTEX
  8
0
 10
-107.70199153
 20
40.45023660
  0
VERTEX
  8
0
 10
-107.88181269
 20
40.24240298
  0
VERTEX
  8
0
 10
-108.08848380
 20
40.04834489
  0
VERTEX
  8
0
 10
-108.32020014
 20
39.86932962
  0
VERTEX
  8
0
 10
-108.57515700
 20
39.70662445
  0
VERTEX
  8
0
 10
-108.85154966
 20
39.56149668
  0
VERTEX
  8
0
 10
-109.14757343
 20
39.43521357
  0
VERTEX
  8
0
 10
-109.46142359
 20
39.32904242
  0
VERTEX
  8
0
 10
-109.79129542
 20
39.24425051
  0
VERTEX
  8
0
 10
-110.13538423
 20
39.18210512
  0
VERTEX
  8
0
 10
-110.49188529
 20
39.14387354
  0
VERTEX
  8
0
 10
-110.85899390
 20
39.13082305
  0
VERTEX
  8
0
 10
-111.22610483
 20
39.14379975
  0
VERTEX
  8
0
 10
-111.58261276
 20
39.18196032
  0
VERTEX
  8
0
 10
-111.92671282
 20
39.24403793
  0
VERTEX
  8
0
 10
-112.25660017
 20
39.32876572
  0
VERTEX
  8
0
 10
-112.57046994
 20
39.43487686
  0
VERTEX
  8
0
 10
-112.86651728
 20
39.56110449
  0
VERTEX
  8
0
 10
-113.14293733
 20
39.70618178
  0
VERTEX
  8
0
 10
-113.39792523
 20
39.86884187
  0
VERTEX
  8
0
 10
-113.62967613
 20
40.04781794
  0
VERTEX
  8
0
 10
-113.83638517
 20
40.24184313
  0
VERTEX
  8
0
 10
-114.01624749
 20
40.44965059
  0
VERTEX
  8
0
 10
-114.16745824
 20
40.66997349
  0
VERTEX
  8
0
 10
-114.28821256
 20
40.90154498
  0
VERTEX
  8
0
 10
-114.37670559
 20
41.14309822
  0
VERTEX
  8
0
 10
-114.43113247
 20
41.39336635
  0
VERTEX
  8
0
 10
-114.44968835
 20
41.65108255
  0
VERTEX
  8
0
 10
-115.13713190
 20
41.65098250
  0
VERTEX
  8
0
 10
-115.15563267
 20
41.39326176
  0
VERTEX
  8
0
 10
-115.21000680
 20
41.14298058
  0
VERTEX
  8
0
 10
-115.29844941
 20
40.90140668
  0
VERTEX
  8
0
 10
-115.41915565
 20
40.66980778
  0
VERTEX
  8
0
 10
-115.57032068
 20
40.44945161
  0
VERTEX
  8
0
 10
-115.75013962
 20
40.24160590
  0
VERTEX
  8
0
 10
-115.95680762
 20
40.04753836
  0
VERTEX
  8
0
 10
-116.18851983
 20
39.86851671
  0
VERTEX
  8
0
 10
-116.44347139
 20
39.70580869
  0
VERTEX
  8
0
 10
-116.71985744
 20
39.56068201
  0
VERTEX
  8
0
 10
-117.01587312
 20
39.43440440
  0
VERTEX
  8
0
 10
-117.32971358
 20
39.32824359
  0
VERTEX
  8
0
 10
-117.65957396
 20
39.24346728
  0
VERTEX
  8
0
 10
-118.00364940
 20
39.18134322
  0
VERTEX
  8
0
 10
-118.36013505
 20
39.14313912
  0
VERTEX
  8
0
 10
-118.72722605
 20
39.13012270
  0
VERTEX
  8
0
 10
-119.09435462
 20
39.14309938
  0
VERTEX
  8
0
 10
-119.45087812
 20
39.18125978
  0
VERTEX
  8
0
 10
-119.79499201
 20
39.24333692
  0
VERTEX
  8
0
 10
-120.12489172
 20
39.32806381
  0
VERTEX
  8
0
 10
-120.43877268
 20
39.43417345
  0
VERTEX
  8
0
 10
-120.73483033
 20
39.56039886
  0
VERTEX
  8
0
 10
-121.01126010
 20
39.70547305
  0
VERTEX
  8
0
 10
-121.26625743
 20
39.86812902
  0
VERTEX
  8
0
 10
-121.49801776
 20
40.04709978
  0
VERTEX
  8
0
 10
-121.70473652
 20
40.24111835
  0
VERTEX
  8
0
 10
-121.88460915
 20
40.44891773
  0
VERTEX
  8
0
 10
-122.03583109
 20
40.66923093
  0
VERTEX
  8
0
 10
-122.15659776
 20
40.90079097
  0
VERTEX
  8
0
 10
-122.24510462
 20
41.14233084
  0
VERTEX
  8
0
 10
-122.29954708
 20
41.39258357
  0
VERTEX
  8
0
 10
-122.31812060
 20
41.65028215
  0
VERTEX
  8
0
 10
-122.41476890
 20
41.65028215
  0
VERTEX
  8
0
 10
-122.42167235
 20
120.13680580
  0
SEQEND
  0
POLYLINE
  8
Layer_1
 62
256
 66
   1
 39
0.000000
 70
    1
  0
VERTEX
  8
0
 10
102.29893180
 20
-252.07150608
  0
VERTEX
  8
0
 10
102.30923695
 20
-254.83190749
  0
VERTEX
  8
0
 10
107.14025125
 20
-254.81289069
  0
VERTEX
  8
0
 10
107.12994610
 20
-252.05248928
  0
VERTEX
  8
0
 10
102.29893180
 20
-252.07150608
  0
SEQEND
  0
POLYLINE
  8
Layer_1
 62
256
 66
   1
 39
0.000000
 70
    1
  0
VERTEX
  8
0
 10
130.87825405
 20
-252.09042064
  0
VERTEX
  8
0
 10
130.88855920
 20
-254.85082205
  0
VERTEX
  8
0
 10
135.71957350
 20
-254.83190749
  0
VERTEX
  8
0
 10
135.70916830
 20
-252.07150608
  0
VERTEX
  8
0
 10
130.87825405
 20
-252.09042064
  0
SEQEND
  0
POLYLINE
  8
Layer_1
 62
256
 66
   1
 39
0.000000
 70
    1
  0
VERTEX
  8
0
 10
91.50663835
 20
-243.83779055
  0
VERTEX
  8
0
 10
91.66381690
 20
-268.84538810
  0
VERTEX
  8
0
 10
91.61179090
 20
-275.53613180
  0
VERTEX
  8
0
 10
149.60297200
 20
-321.30740600
  0
VERTEX
  8
0
 10
149.46130120
 20
-317.37724190
  0
VERTEX
  8
0
 10
149.03959045
 20
-243.50922635
  0
VERTEX
  8
0
 10
91.50663835
 20
-243.83779055
  0
SEQEND
  0
POLYLINE
  8
Layer_1
 62
256
 66
   1
 39
0.000000
 70
    1
  0
VERTEX
  8
0
 10
-112.65329060
 20
-264.81767525
  0
VERTEX
  8
0
 10
-109.95234080
 20
-264.86479880
  0
VERTEX
  8
0
 10
-110.03678300
 20
-269.69511275
  0
VERTEX
  8
0
 10
-112.73763275
 20
-269.64798920
  0
VERTEX
  8
0
 10
-112.65329060
 20
-264.81767525
  0
SEQEND
  0
POLYLINE
  8
Layer_1
 62
256
 66
   1
 39
0.000000
 70
    1
  0
VERTEX
  8
0
 10
-113.24228495
 20
-293.39065460
  0
VERTEX
  8
0
 10
-110.54133515
 20
-293.43787820
  0
VERTEX
  8
0
 10
-110.62577735
 20
-298.26819215
  0
VERTEX
  8
0
 10
-113.32662710
 20
-298.22096855
  0
VERTEX
  8
0
 10
-113.24228495
 20
-293.39065460
  0
SEQEND
  0
POLYLINE
  8
Layer_1
 62
256
 66
   1
 39
0.000000
 70
    1
  0
VERTEX
  8
0
 10
-120.76864625
 20
-253.91382605
  0
VERTEX
  8
0
 10
-95.76555095
 20
-254.41177490
  0
VERTEX
  8
0
 10
-89.07460715
 20
-254.45089445
  0
VERTEX
  8
0
 10
-44.15495855
 20
-317.26418540
  0
VERTEX
  8
0
 10
-121.94543435
 20
-315.79505120
  0
VERTEX
  8
0
 10
-121.87870100
 20
-311.43687320
  0
VERTEX
  8
0
 10
-121.88140235
 20
-311.43687320
  0
VERTEX
  8
0
 10
-121.86919625
 20
-310.80275630
  0
VERTEX
  8
0
 10
-121.86889610
 20
-310.79225105
  0
VERTEX
  8
0
 10
-120.76864625
 20
-253.91382605
  0
SEQEND
  0
POLYLINE
  8
Layer_1
 62
256
 66
   1
 39
0.000000
 70
    1
  0
VERTEX
  8
0
 10
44.05982680
 20
373.17886360
  0
VERTEX
  8
0
 10
44.05982680
 20
390.15724855
  0
VERTEX
  8
0
 10
58.91395015
 20
390.15724855
  0
VERTEX
  8
0
 10
58.91395015
 20
373.17886360
  0
VERTEX
  8
0
 10
44.05982680
 20
373.17886360
  0
SEQEND
  0
POLYLINE
  8
Layer_1
 62
256
 66
   1
 39
0.000000
 70
    1
  0
VERTEX
  8
0
 10
26.61951100
 20
373.17886360
  0
VERTEX
  8
0
 10
26.61951100
 20
390.15724855
  0
VERTEX
  8
0
 10
41.47363435
 20
390.15724855
  0
VERTEX
  8
0
 10
41.47363435
 20
373.17886360
  0
VERTEX
  8
0
 10
26.61951100
 20
373.17886360
  0
SEQEND
  0
POLYLINE
  8
Layer_1
 62
256
 66
   1
 39
0.000000
 70
    1
  0
VERTEX
  8
0
 10
44.05982680
 20
351.16786360
  0
VERTEX
  8
0
 10
44.05982680
 20
368.14624855
  0
VERTEX
  8
0
 10
58.91395015
 20
368.14624855
  0
VERTEX
  8
0
 10
58.91395015
 20
351.16786360
  0
VERTEX
  8
0
 10
44.05982680
 20
351.16786360
  0
SEQEND
  0
POLYLINE
  8
Layer_1
 62
256
 66
   1
 39
0.000000
 70
    1
  0
VERTEX
  8
0
 10
24.11325850
 20
348.65150605
  0
VERTEX
  8
0
 10
24.11325850
 20
370.66250605
  0
VERTEX
  8
0
 10
61.13175850
 20
370.66250605
  0
VERTEX
  8
0
 10
61.13175850
 20
348.65150605
  0
VERTEX
  8
0
 10
24.11325850
 20
348.65150605
  0
SEQEND
  0
POLYLINE
  8
Layer_1
 62
256
 66
   1
 39
0.000000
 70
    1
  0
VERTEX
  8
0
 10
26.61951100
 20
351.16786360
  0
VERTEX
  8
0
 10
26.61951100
 20
368.14624855
  0
VERTEX
  8
0
 10
41.47363435
 20
368.14624855
  0
VERTEX
  8
0
 10
41.47363435
 20
351.16786360
  0
VERTEX
  8
0
 10
26.61951100
 20
351.16786360
  0
SEQEND
  0
POLYLINE
  8
Layer_1
 62
256
 66
   1
 39
0.000000
 70
    1
  0
VERTEX
  8
0
 10
7.04132680
 20
373.17886360
  0
VERTEX
  8
0
 10
7.04132680
 20
390.15724855
  0
VERTEX
  8
0
 10
21.89545015
 20
390.15724855
  0
VERTEX
  8
0
 10
21.89545015
 20
373.17886360
  0
VERTEX
  8
0
 10
7.04132680
 20
373.17886360
  0
SEQEND
  0
POLYLINE
  8
Layer_1
 62
256
 66
   1
 39
0.000000
 70
    1
  0
VERTEX
  8
0
 10
-10.39898900
 20
373.17886360
  0
VERTEX
  8
0
 10
-10.39898900
 20
390.15724855
  0
VERTEX
  8
0
 10
4.45513435
 20
390.15724855
  0
VERTEX
  8
0
 10
4.45513435
 20
373.17886360
  0
VERTEX
  8
0
 10
-10.39898900
 20
373.17886360
  0
SEQEND
  0
POLYLINE
  8
Layer_1
 62
256
 66
   1
 39
0.000000
 70
    1
  0
VERTEX
  8
0
 10
7.04132680
 20
351.16786360
  0
VERTEX
  8
0
 10
7.04132680
 20
368.14624855
  0
VERTEX
  8
0
 10
21.89545015
 20
368.14624855
  0
VERTEX
  8
0
 10
21.89545015
 20
351.16786360
  0
VERTEX
  8
0
 10
7.04132680
 20
351.16786360
  0
SEQEND
  0
POLYLINE
  8
Layer_1
 62
256
 66
   1
 39
0.000000
 70
    1
  0
VERTEX
  8
0
 10
-10.39898900
 20
351.16786360
  0
VERTEX
  8
0
 10
-10.39898900
 20
368.14624855
  0
VERTEX
  8
0
 10
4.45513435
 20
368.14624855
  0
VERTEX
  8
0
 10
4.45513435
 20
351.16786360
  0
VERTEX
  8
0
 10
-10.39898900
 20
351.16786360
  0
SEQEND
  0
POLYLINE
  8
Layer_1
 62
256
 66
   1
 39
0.000000
 70
    1
  0
VERTEX
  8
0
 10
-29.97717320
 20
373.17886360
  0
VERTEX
  8
0
 10
-29.97717320
 20
390.15724855
  0
VERTEX
  8
0
 10
-15.12304985
 20
390.15724855
  0
VERTEX
  8
0
 10
-15.12304985
 20
373.17886360
  0
VERTEX
  8
0
 10
-29.97717320
 20
373.17886360
  0
SEQEND
  0
POLYLINE
  8
Layer_1
 62
256
 66
   1
 39
0.000000
 70
    1
  0
VERTEX
  8
0
 10
-47.41748900
 20
373.17886360
  0
VERTEX
  8
0
 10
-47.41748900
 20
390.15724855
  0
VERTEX
  8
0
 10
-32.56336565
 20
390.15724855
  0
VERTEX
  8
0
 10
-32.56336565
 20
373.17886360
  0
VERTEX
  8
0
 10
-47.41748900
 20
373.17886360
  0
SEQEND
  0
POLYLINE
  8
Layer_1
 62
256
 66
   1
 39
0.000000
 70
    1
  0
VERTEX
  8
0
 10
-29.97717320
 20
351.16786360
  0
VERTEX
  8
0
 10
-29.97717320
 20
368.14624855
  0
VERTEX
  8
0
 10
-15.12304985
 20
368.14624855
  0
VERTEX
  8
0
 10
-15.12304985
 20
351.16786360
  0
VERTEX
  8
0
 10
-29.97717320
 20
351.16786360
  0
SEQEND
  0
POLYLINE
  8
Layer_1
 62
256
 66
   1
 39
0.000000
 70
    1
  0
VERTEX
  8
0
 10
-49.92374150
 20
348.65150605
  0
VERTEX
  8
0
 10
-49.92374150
 20
370.66250605
  0
VERTEX
  8
0
 10
-12.90524150
 20
370.66250605
  0
VERTEX
  8
0
 10
-12.90524150
 20
348.65150605
  0
VERTEX
  8
0
 10
-49.92374150
 20
348.65150605
  0
SEQEND
  0
POLYLINE
  8
Layer_1
 62
256
 66
   1
 39
0.000000
 70
    1
  0
VERTEX
  8
0
 10
-47.41748900
 20
351.16786360
  0
VERTEX
  8
0
 10
-47.41748900
 20
368.14624855
  0
VERTEX
  8
0
 10
-32.56336565
 20
368.14624855
  0
VERTEX
  8
0
 10
-32.56336565
 20
351.16786360
  0
VERTEX
  8
0
 10
-47.41748900
 20
351.16786360
  0
SEQEND
  0
POLYLINE
  8
Layer_1
 62
256
 66
   1
 39
0.000000
 70
    1
  0
VERTEX
  8
0
 10
-109.66469705
 20
374.36435605
  0
VERTEX
  8
0
 10
-109.66469705
 20
389.67200605
  0
VERTEX
  8
0
 10
-116.81577080
 20
389.67200605
  0
VERTEX
  8
0
 10
-116.81577080
 20
374.36435605
  0
VERTEX
  8
0
 10
-109.66469705
 20
374.36435605
  0
SEQEND
  0
POLYLINE
  8
Layer_1
 62
256
 66
   1
 39
0.000000
 70
    1
  0
VERTEX
  8
0
 10
-109.66469705
 20
356.05340515
  0
VERTEX
  8
0
 10
-109.66469705
 20
371.35795360
  0
VERTEX
  8
0
 10
-116.81577080
 20
371.35795360
  0
VERTEX
  8
0
 10
-116.81577080
 20
356.05340515
  0
VERTEX
  8
0
 10
-109.66469705
 20
356.05340515
  0
SEQEND
  0
POLYLINE
  8
Layer_1
 62
256
 66
   1
 39
0.000000
 70
    1
  0
VERTEX
  8
0
 10
-86.55254675
 20
374.36435605
  0
VERTEX
  8
0
 10
-86.55254675
 20
389.67200605
  0
VERTEX
  8
0
 10
-106.65349220
 20
389.67200605
  0
VERTEX
  8
0
 10
-106.65349220
 20
374.36435605
  0
VERTEX
  8
0
 10
-86.55254675
 20
374.36435605
  0
SEQEND
  0
POLYLINE
  8
Layer_1
 62
256
 66
   1
 39
0.000000
 70
    1
  0
VERTEX
  8
0
 10
-86.55254675
 20
356.05340515
  0
VERTEX
  8
0
 10
-86.55254675
 20
371.35795360
  0
VERTEX
  8
0
 10
-106.65349220
 20
371.35795360
  0
VERTEX
  8
0
 10
-106.65349220
 20
356.05340515
  0
VERTEX
  8
0
 10
-86.55254675
 20
356.05340515
  0
SEQEND
  0
POLYLINE
  8
Layer_1
 62
256
 66
   1
 39
0.000000
 70
    1
  0
VERTEX
  8
0
 10
-60.05210315
 20
371.35795360
  0
VERTEX
  8
0
 10
-60.05210315
 20
356.05340515
  0
VERTEX
  8
0
 10
-52.91953865
 20
356.05340515
  0
VERTEX
  8
0
 10
-52.91953865
 20
371.35795360
  0
VERTEX
  8
0
 10
-60.05210315
 20
371.35795360
  0
SEQEND
  0
POLYLINE
  8
Layer_1
 62
256
 66
   1
 39
0.000000
 70
    1
  0
VERTEX
  8
0
 10
-60.05210315
 20
389.67200605
  0
VERTEX
  8
0
 10
-60.05210315
 20
374.36435605
  0
VERTEX
  8
0
 10
-52.91953865
 20
374.36435605
  0
VERTEX
  8
0
 10
-52.91953865
 20
389.67200605
  0
VERTEX
  8
0
 10
-60.05210315
 20
389.67200605
  0
SEQEND
  0
POLYLINE
  8
Layer_1
 62
256
 66
   1
 39
0.000000
 70
    1
  0
VERTEX
  8
0
 10
-63.06330800
 20
374.36435605
  0
VERTEX
  8
0
 10
-63.06330800
 20
389.67200605
  0
VERTEX
  8
0
 10
-83.54134190
 20
389.67200605
  0
VERTEX
  8
0
 10
-83.54134190
 20
374.36435605
  0
VERTEX
  8
0
 10
-63.06330800
 20
374.36435605
  0
SEQEND
  0
POLYLINE
  8
Layer_1
 62
256
 66
   1
 39
0.000000
 70
    1
  0
VERTEX
  8
0
 10
-63.06330800
 20
356.05340515
  0
VERTEX
  8
0
 10
-63.06330800
 20
371.35795360
  0
VERTEX
  8
0
 10
-83.54134190
 20
371.35795360
  0
VERTEX
  8
0
 10
-83.54134190
 20
356.05340515
  0
VERTEX
  8
0
 10
-63.06330800
 20
356.05340515
  0
SEQEND
  0
POLYLINE
  8
Layer_1
 62
256
 66
   1
 39
0.000000
 70
    1
  0
VERTEX
  8
0
 10
62.63180815
 20
350.60608285
  0
VERTEX
  8
0
 10
62.63180815
 20
367.58446780
  0
VERTEX
  8
0
 10
77.48593150
 20
367.58446780
  0
VERTEX
  8
0
 10
77.48593150
 20
350.60608285
  0
VERTEX
  8
0
 10
62.63180815
 20
350.60608285
  0
SEQEND
  0
POLYLINE
  8
Layer_1
 62
256
 66
   1
 39
0.000000
 70
    1
  0
VERTEX
  8
0
 10
80.07212395
 20
350.60608285
  0
VERTEX
  8
0
 10
80.07212395
 20
367.58446780
  0
VERTEX
  8
0
 10
94.92624730
 20
367.58446780
  0
VERTEX
  8
0
 10
94.92624730
 20
350.60608285
  0
VERTEX
  8
0
 10
80.07212395
 20
350.60608285
  0
SEQEND
  0
POLYLINE
  8
Layer_1
 62
256
 66
   1
 39
0.000000
 70
    1
  0
VERTEX
  8
0
 10
62.63751100
 20
374.17936360
  0
VERTEX
  8
0
 10
62.63751100
 20
391.15774855
  0
VERTEX
  8
0
 10
77.49163435
 20
391.15774855
  0
VERTEX
  8
0
 10
77.49163435
 20
374.17936360
  0
VERTEX
  8
0
 10
62.63751100
 20
374.17936360
  0
SEQEND
  0
POLYLINE
  8
Layer_1
 62
256
 66
   1
 39
0.000000
 70
    1
  0
VERTEX
  8
0
 10
80.07782680
 20
374.17936360
  0
VERTEX
  8
0
 10
80.07782680
 20
391.15774855
  0
VERTEX
  8
0
 10
94.93195015
 20
391.15774855
  0
VERTEX
  8
0
 10
94.93195015
 20
374.17936360
  0
VERTEX
  8
0
 10
80.07782680
 20
374.17936360
  0
SEQEND
  0
POLYLINE
  8
Layer_1
 62
256
 66
   1
 39
0.000000
 70
    1
  0
VERTEX
  8
0
 10
97.64930815
 20
350.60608285
  0
VERTEX
  8
0
 10
97.64930815
 20
367.58446780
  0
VERTEX
  8
0
 10
112.50343150
 20
367.58446780
  0
VERTEX
  8
0
 10
112.50343150
 20
350.60608285
  0
VERTEX
  8
0
 10
97.64930815
 20
350.60608285
  0
SEQEND
  0
POLYLINE
  8
Layer_1
 62
256
 66
   1
 39
0.000000
 70
    1
  0
VERTEX
  8
0
 10
115.08962395
 20
350.60608285
  0
VERTEX
  8
0
 10
115.08962395
 20
367.58446780
  0
VERTEX
  8
0
 10
129.94374730
 20
367.58446780
  0
VERTEX
  8
0
 10
129.94374730
 20
350.60608285
  0
VERTEX
  8
0
 10
115.08962395
 20
350.60608285
  0
SEQEND
  0
POLYLINE
  8
Layer_1
 62
256
 66
   1
 39
0.000000
 70
    1
  0
VERTEX
  8
0
 10
97.65501100
 20
374.17936360
  0
VERTEX
  8
0
 10
97.65501100
 20
391.15774855
  0
VERTEX
  8
0
 10
112.50913435
 20
391.15774855
  0
VERTEX
  8
0
 10
112.50913435
 20
374.17936360
  0
VERTEX
  8
0
 10
97.65501100
 20
374.17936360
  0
SEQEND
  0
POLYLINE
  8
Layer_1
 62
256
 66
   1
 39
0.000000
 70
    1
  0
VERTEX
  8
0
 10
115.09532680
 20
374.17936360
  0
VERTEX
  8
0
 10
115.09532680
 20
391.15774855
  0
VERTEX
  8
0
 10
129.94945015
 20
391.15774855
  0
VERTEX
  8
0
 10
129.94945015
 20
374.17936360
  0
VERTEX
  8
0
 10
115.09532680
 20
374.17936360
  0
SEQEND
  0
POLYLINE
  8
Layer_1
 62
256
 66
   1
 39
0.000000
 70
    1
  0
VERTEX
  8
0
 10
129.13454290
 20
-164.87602940
  0
VERTEX
  8
0
 10
129.28798140
 20
-164.88377790
  0
VERTEX
  8
0
 10
129.43698858
 20
-164.90652042
  0
VERTEX
  8
0
 10
129.71869108
 20
-164.99396959
  0
VERTEX
  8
0
 10
129.97361457
 20
-165.13234109
  0
VERTEX
  8
0
 10
130.19572322
 20
-165.31559907
  0
VERTEX
  8
0
 10
130.37898121
 20
-165.53770773
  0
VERTEX
  8
0
 10
130.51735271
 20
-165.79263122
  0
VERTEX
  8
0
 10
130.60480188
 20
-166.07433372
  0
VERTEX
  8
0
 10
130.62754440
 20
-166.22334090
  0
VERTEX
  8
0
 10
130.63529290
 20
-166.37677940
  0
VERTEX
  8
0
 10
130.62754440
 20
-166.53021790
  0
VERTEX
  8
0
 10
130.60480188
 20
-166.67922508
  0
VERTEX
  8
0
 10
130.51735271
 20
-166.96092758
  0
VERTEX
  8
0
 10
130.37898121
 20
-167.21585107
  0
VERTEX
  8
0
 10
130.19572322
 20
-167.43795972
  0
VERTEX
  8
0
 10
129.97361457
 20
-167.62121771
  0
VERTEX
  8
0
 10
129.71869108
 20
-167.75958921
  0
VERTEX
  8
0
 10
129.43698858
 20
-167.84703838
  0
VERTEX
  8
0
 10
129.28798140
 20
-167.86978090
  0
VERTEX
  8
0
 10
129.13454290
 20
-167.87752940
  0
VERTEX
  8
0
 10
128.98110440
 20
-167.86978090
  0
VERTEX
  8
0
 10
128.83209722
 20
-167.84703838
  0
VERTEX
  8
0
 10
128.55039472
 20
-167.75958921
  0
VERTEX
  8
0
 10
128.29547123
 20
-167.62121771
  0
VERTEX
  8
0
 10
128.07336257
 20
-167.43795972
  0
VERTEX
  8
0
 10
127.89010459
 20
-167.21585107
  0
VERTEX
  8
0
 10
127.75173309
 20
-166.96092758
  0
VERTEX
  8
0
 10
127.66428392
 20
-166.67922508
  0
VERTEX
  8
0
 10
127.64154140
 20
-166.53021790
  0
VERTEX
  8
0
 10
127.63379290
 20
-166.37677940
  0
VERTEX
  8
0
 10
127.64154140
 20
-166.22334090
  0
VERTEX
  8
0
 10
127.66428392
 20
-166.07433372
  0
VERTEX
  8
0
 10
127.75173309
 20
-165.79263122
  0
VERTEX
  8
0
 10
127.89010459
 20
-165.53770773
  0
VERTEX
  8
0
 10
128.07336257
 20
-165.31559907
  0
VERTEX
  8
0
 10
128.29547123
 20
-165.13234109
  0
VERTEX
  8
0
 10
128.55039472
 20
-164.99396959
  0
VERTEX
  8
0
 10
128.83209722
 20
-164.90652042
  0
VERTEX
  8
0
 10
128.98110440
 20
-164.88377790
  0
VERTEX
  8
0
 10
129.13454290
 20
-164.87602940
  0
SEQEND
  0
POLYLINE
  8
Layer_1
 62
256
 66
   1
 39
0.000000
 70
    1
  0
VERTEX
  8
0
 10
129.25380250
 20
-157.30544600
  0
VERTEX
  8
0
 10
129.40724100
 20
-157.31319450
  0
VERTEX
  8
0
 10
129.55624818
 20
-157.33593702
  0
VERTEX
  8
0
 10
129.83795068
 20
-157.42338619
  0
VERTEX
  8
0
 10
130.09287417
 20
-157.56175769
  0
VERTEX
  8
0
 10
130.31498283
 20
-157.74501567
  0
VERTEX
  8
0
 10
130.49824081
 20
-157.96712433
  0
VERTEX
  8
0
 10
130.63661231
 20
-158.22204782
  0
VERTEX
  8
0
 10
130.72406148
 20
-158.50375032
  0
VERTEX
  8
0
 10
130.74680400
 20
-158.65275750
  0
VERTEX
  8
0
 10
130.75455250
 20
-158.80619600
  0
VERTEX
  8
0
 10
130.74680400
 20
-158.95963450
  0
VERTEX
  8
0
 10
130.72406148
 20
-159.10864168
  0
VERTEX
  8
0
 10
130.63661231
 20
-159.39034418
  0
VERTEX
  8
0
 10
130.49824081
 20
-159.64526767
  0
VERTEX
  8
0
 10
130.31498283
 20
-159.86737632
  0
VERTEX
  8
0
 10
130.09287417
 20
-160.05063431
  0
VERTEX
  8
0
 10
129.83795068
 20
-160.18900581
  0
VERTEX
  8
0
 10
129.55624818
 20
-160.27645498
  0
VERTEX
  8
0
 10
129.40724100
 20
-160.29919750
  0
VERTEX
  8
0
 10
129.25380250
 20
-160.30694600
  0
VERTEX
  8
0
 10
129.10036400
 20
-160.29919750
  0
VERTEX
  8
0
 10
128.95135682
 20
-160.27645498
  0
VERTEX
  8
0
 10
128.66965432
 20
-160.18900581
  0
VERTEX
  8
0
 10
128.41473083
 20
-160.05063431
  0
VERTEX
  8
0
 10
128.19262218
 20
-159.86737632
  0
VERTEX
  8
0
 10
128.00936419
 20
-159.64526767
  0
VERTEX
  8
0
 10
127.87099269
 20
-159.39034418
  0
VERTEX
  8
0
 10
127.78354352
 20
-159.10864168
  0
VERTEX
  8
0
 10
127.76080100
 20
-158.95963450
  0
VERTEX
  8
0
 10
127.75305250
 20
-158.80619600
  0
VERTEX
  8
0
 10
127.76080100
 20
-158.65275750
  0
VERTEX
  8
0
 10
127.78354352
 20
-158.50375032
  0
VERTEX
  8
0
 10
127.87099269
 20
-158.22204782
  0
VERTEX
  8
0
 10
128.00936419
 20
-157.96712433
  0
VERTEX
  8
0
 10
128.19262218
 20
-157.74501567
  0
VERTEX
  8
0
 10
128.41473083
 20
-157.56175769
  0
VERTEX
  8
0
 10
128.66965432
 20
-157.42338619
  0
VERTEX
  8
0
 10
128.95135682
 20
-157.33593702
  0
VERTEX
  8
0
 10
129.10036400
 20
-157.31319450
  0
VERTEX
  8
0
 10
129.25380250
 20
-157.30544600
  0
SEQEND
  0
POLYLINE
  8
Layer_1
 62
256
 66
   1
 39
0.000000
 70
    1
  0
VERTEX
  8
0
 10
64.00339360
 20
-113.42371610
  0
VERTEX
  8
0
 10
64.59916634
 20
-113.57823082
  0
VERTEX
  8
0
 10
64.85631672
 20
-113.62903277
  0
VERTEX
  8
0
 10
65.06392360
 20
-113.64292565
  0
VERTEX
  8
0
 10
65.20951667
 20
-113.61292941
  0
VERTEX
  8
0
 10
65.29610213
 20
-113.54920381
  0
VERTEX
  8
0
 10
65.33010506
 20
-113.46300448
  0
VERTEX
  8
0
 10
65.31795055
 20
-113.36558705
  0
VERTEX
  8
0
 10
65.25823946
 20
-113.26093631
  0
VERTEX
  8
0
 10
65.11827576
 20
-113.12402883
  0
VERTEX
  8
0
 10
64.85753921
 20
-112.92260786
  0
VERTEX
  8
0
 10
64.43550955
 20
-112.62441665
  0
VERTEX
  8
0
 10
63.83611782
 20
-112.21103194
  0
VERTEX
  8
0
 10
63.14117521
 20
-111.71988961
  0
VERTEX
  8
0
 10
62.45698172
 20
-111.20229657
  0
VERTEX
  8
0
 10
62.15213464
 20
-110.94961443
  0
VERTEX
  8
0
 10
61.88983735
 20
-110.70955970
  0
VERTEX
  8
0
 10
61.68024511
 20
-110.48717610
  0
VERTEX
  8
0
 10
61.52096551
 20
-110.28227273
  0
VERTEX
  8
0
 10
61.40646453
 20
-110.09329840
  0
VERTEX
  8
0
 10
61.33120817
 20
-109.91870197
  0
VERTEX
  8
0
 10
61.28966241
 20
-109.75693226
  0
VERTEX
  8
0
 10
61.27629323
 20
-109.60643810
  0
VERTEX
  8
0
 10
61.28556662
 20
-109.46566834
  0
VERTEX
  8
0
 10
61.31194855
 20
-109.33307180
  0
VERTEX
  8
0
 10
61.40169653
 20
-109.08398169
  0
VERTEX
  8
0
 10
61.54023764
 20
-108.83614846
  0
VERTEX
  8
0
 10
61.73006688
 20
-108.56434075
  0
VERTEX
  8
0
 10
61.97367925
 20
-108.24332720
  0
VERTEX
  8
0
 10
62.58918685
 20
-107.46014831
  0
VERTEX
  8
0
 10
62.90688312
 20
-107.09546449
  0
VERTEX
  8
0
 10
63.19148785
 20
-106.82261720
  0
VERTEX
  8
0
 10
63.31400787
 20
-106.73676746
  0
VERTEX
  8
0
 10
63.42892682
 20
-106.68757002
  0
VERTEX
  8
0
 10
63.54436400
 20
-106.67487129
  0
VERTEX
  8
0
 10
63.66843871
 20
-106.69851768
  0
VERTEX
  8
0
 10
63.80927022
 20
-106.75835559
  0
VERTEX
  8
0
 10
63.97497784
 20
-106.85423144
  0
VERTEX
  8
0
 10
64.41349855
 20
-107.15348255
  0
VERTEX
  8
0
 10
65.73101948
 20
-108.07783199
  0
VERTEX
  8
0
 10
66.44419620
 20
-108.56317923
  0
VERTEX
  8
0
 10
67.06512370
 20
-108.96248660
  0
VERTEX
  8
0
 10
67.52057631
 20
-109.21902262
  0
VERTEX
  8
0
 10
67.83000595
 20
-109.35396974
  0
VERTEX
  8
0
 10
68.03603391
 20
-109.40785761
  0
VERTEX
  8
0
 10
68.18128150
 20
-109.42121585
  0
VERTEX
  8
0
 10
68.40131646
 20
-109.42344196
  0
VERTEX
  8
0
 10
68.48093438
 20
-109.40388219
  0
VERTEX
  8
0
 10
68.53866010
 20
-109.35948500
  0
VERTEX
  8
0
 10
68.57386676
 20
-109.28503060
  0
VERTEX
  8
0
 10
68.58882267
 20
-109.18743652
  0
VERTEX
  8
0
 10
68.56957555
 20
-108.96248660
  0
VERTEX
  8
0
 10
68.53742354
 20
-108.85049313
  0
VERTEX
  8
0
 10
68.47466562
 20
-108.72859471
  0
VERTEX
  8
0
 10
68.36228915
 20
-108.58024558
  0
VERTEX
  8
0
 10
68.18128150
 20
-108.38889995
  0
VERTEX
  8
0
 10
67.91668677
 20
-108.14179677
  0
VERTEX
  8
0
 10
67.57022612
 20
-107.84176402
  0
VERTEX
  8
0
 10
66.65481865
 20
-107.10936050
  0
VERTEX
  8
0
 10
65.55340572
 20
-106.28270988
  0
VERTEX
  8
0
 10
65.05585863
 20
-105.90766777
  0
VERTEX
  8
0
 10
64.67372860
 20
-105.60500870
  0
VERTEX
  8
0
 10
64.54325891
 20
-105.48958871
  0
VERTEX
  8
0
 10
64.45555238
 20
-105.39236649
  0
VERTEX
  8
0
 10
64.40952215
 20
-105.30465762
  0
VERTEX
  8
0
 10
64.40408134
 20
-105.21777768
  0
VERTEX
  8
0
 10
64.43814309
 20
-105.12304225
  0
VERTEX
  8
0
 10
64.51062052
 20
-105.01176691
  0
VERTEX
  8
0
 10
64.76647495
 20
-104.70485885
  0
VERTEX
  8
0
 10
65.61958879
 20
-103.72042938
  0
VERTEX
  8
0
 10
66.10098406
 20
-103.19284854
  0
VERTEX
  8
0
 10
66.53565910
 20
-102.75918650
  0
VERTEX
  8
0
 10
66.71777316
 20
-102.60236907
  0
VERTEX
  8
0
 10
66.87590101
 20
-102.48583739
  0
VERTEX
  8
0
 10
67.01335134
 20
-102.40436699
  0
VERTEX
  8
0
 10
67.13343284
 20
-102.35273337
  0
VERTEX
  8
0
 10
67.23945418
 20
-102.32571206
  0
VERTEX
  8
0
 10
67.33472406
 20
-102.31807856
  0
VERTEX
  8
0
 10
67.50624415
 20
-102.34007705
  0
VERTEX
  8
0
 10
67.67584141
 20
-102.38957053
  0
VERTEX
  8
0
 10
67.87687937
 20
-102.48787591
  0
VERTEX
  8
0
 10
68.14410042
 20
-102.66891013
  0
VERTEX
  8
0
 10
68.51224690
 20
-102.96659015
  0
VERTEX
  8
0
 10
69.54575089
 20
-103.89694259
  0
VERTEX
  8
0
 10
70.53295675
 20
-104.79750515
  0
VERTEX
  8
0
 10
70.84424357
 20
-105.05892955
  0
VERTEX
  8
0
 10
71.03805918
 20
-105.19462861
  0
VERTEX
  8
0
 10
71.15578676
 20
-105.24429718
  0
VERTEX
  8
0
 10
71.23880950
 20
-105.24763010
  0
VERTEX
  8
0
 10
71.40149080
 20
-105.21836547
  0
VERTEX
  8
0
 10
71.47520576
 20
-105.18867876
  0
VERTEX
  8
0
 10
71.53445725
 20
-105.14617940
  0
VERTEX
  8
0
 10
71.57372219
 20
-105.08940415
  0
VERTEX
  8
0
 10
71.59397449
 20
-105.01981625
  0
VERTEX
  8
0
 10
71.58738370
 20
-104.85053165
  0
VERTEX
  8
0
 10
71.53165585
 20
-104.65744766
  0
VERTEX
  8
0
 10
71.43300655
 20
-104.47104200
  0
VERTEX
  8
0
 10
71.29984000
 20
-104.31467636
  0
VERTEX
  8
0
 10
71.16217120
 20
-104.17309310
  0
VERTEX
  8
0
 10
71.03934732
 20
-104.02605712
  0
VERTEX
  8
0
 10
70.93175605
 20
-103.87384355
  0
VERTEX
  8
0
 10
74.27132500
 20
-99.27074315
  0
VERTEX
  8
0
 10
90.12804940
 20
-99.27074315
  0
VERTEX
  8
0
 10
90.12804940
 20
-96.40090895
  0
VERTEX
  8
0
 10
95.29563190
 20
-96.40090895
  0
VERTEX
  8
0
 10
95.29563190
 20
-99.27074315
  0
VERTEX
  8
0
 10
126.43189225
 20
-99.27074315
  0
VERTEX
  8
0
 10
126.43189225
 20
-96.42742220
  0
VERTEX
  8
0
 10
131.58556780
 20
-96.42742220
  0
VERTEX
  8
0
 10
131.58556780
 20
-99.27074315
  0
VERTEX
  8
0
 10
145.55304805
 20
-99.27074315
  0
VERTEX
  8
0
 10
145.55304805
 20
-99.90175850
  0
VERTEX
  8
0
 10
148.49771965
 20
-99.90175850
  0
VERTEX
  8
0
 10
148.49771965
 20
-105.21751505
  0
VERTEX
  8
0
 10
145.55304805
 20
-105.21751505
  0
VERTEX
  8
0
 10
145.55304805
 20
-207.57426785
  0
VERTEX
  8
0
 10
148.52633395
 20
-207.57426785
  0
VERTEX
  8
0
 10
148.52633395
 20
-212.86110995
  0
VERTEX
  8
0
 10
145.55304805
 20
-212.86110995
  0
VERTEX
  8
0
 10
145.55304805
 20
-240.07390955
  0
VERTEX
  8
0
 10
131.76805900
 20
-240.07390955
  0
VERTEX
  8
0
 10
131.76805900
 20
-243.00047210
  0
VERTEX
  8
0
 10
126.93704470
 20
-243.00047210
  0
VERTEX
  8
0
 10
126.93704470
 20
-240.07390955
  0
VERTEX
  8
0
 10
96.24330550
 20
-240.07390955
  0
VERTEX
  8
0
 10
96.24330550
 20
-243.00017195
  0
VERTEX
  8
0
 10
91.41229120
 20
-243.00017195
  0
VERTEX
  8
0
 10
91.41229120
 20
-240.07390955
  0
VERTEX
  8
0
 10
76.47522640
 20
-240.07390955
  0
VERTEX
  8
0
 10
76.47522640
 20
-226.27791500
  0
VERTEX
  8
0
 10
80.26051810
 20
-223.79387360
  0
VERTEX
  8
0
 10
80.36637100
 20
-220.29952730
  0
VERTEX
  8
0
 10
74.27132500
 20
-212.43639770
  0
VERTEX
  8
0
 10
71.30954485
 20
-208.56436265
  0
VERTEX
  8
0
 10
68.95236685
 20
-210.30473240
  0
VERTEX
  8
0
 10
66.04501390
 20
-206.44650425
  0
VERTEX
  8
0
 10
68.37697930
 20
-204.73044665
  0
VERTEX
  8
0
 10
43.00660045
 20
-171.56287115
  0
VERTEX
  8
0
 10
40.68053800
 20
-173.36347100
  0
VERTEX
  8
0
 10
37.77318505
 20
-169.50524285
  0
VERTEX
  8
0
 10
40.10975275
 20
-167.77557845
  0
VERTEX
  8
0
 10
32.13506740
 20
-157.35006830
  0
VERTEX
  8
0
 10
39.21630625
 20
-147.60960050
  0
VERTEX
  8
0
 10
39.81104097
 20
-147.75546089
  0
VERTEX
  8
0
 10
40.06749882
 20
-147.80031300
  0
VERTEX
  8
0
 10
40.27483525
 20
-147.81150140
  0
VERTEX
  8
0
 10
40.42042832
 20
-147.78146295
  0
VERTEX
  8
0
 10
40.50701378
 20
-147.71774204
  0
VERTEX
  8
0
 10
40.54101671
 20
-147.63156616
  0
VERTEX
  8
0
 10
40.52886220
 20
-147.53416280
  0
VERTEX
  8
0
 10
40.46915111
 20
-147.42951206
  0
VERTEX
  8
0
 10
40.32918741
 20
-147.29260458
  0
VERTEX
  8
0
 10
40.06845086
 20
-147.09118361
  0
VERTEX
  8
0
 10
39.64642120
 20
-146.79299240
  0
VERTEX
  8
0
 10
39.04702947
 20
-146.37960769
  0
VERTEX
  8
0
 10
38.35208686
 20
-145.88846536
  0
VERTEX
  8
0
 10
37.66789337
 20
-145.37087232
  0
VERTEX
  8
0
 10
37.36304629
 20
-145.11819018
  0
VERTEX
  8
0
 10
37.10074900
 20
-144.87813545
  0
VERTEX
  8
0
 10
36.89115676
 20
-144.65575185
  0
VERTEX
  8
0
 10
36.73187716
 20
-144.45084848
  0
VERTEX
  8
0
 10
36.61737618
 20
-144.26187415
  0
VERTEX
  8
0
 10
36.54211983
 20
-144.08727772
  0
VERTEX
  8
0
 10
36.50057406
 20
-143.92550801
  0
VERTEX
  8
0
 10
36.48720488
 20
-143.77501385
  0
VERTEX
  8
0
 10
36.49647827
 20
-143.63424409
  0
VERTEX
  8
0
 10
36.52286020
 20
-143.50164755
  0
VERTEX
  8
0
 10
36.61260818
 20
-143.25255744
  0
VERTEX
  8
0
 10
36.75114929
 20
-143.00472421
  0
VERTEX
  8
0
 10
36.94097853
 20
-142.73291650
  0
VERTEX
  8
0
 10
37.18459090
 20
-142.41190295
  0
VERTEX
  8
0
 10
37.80009850
 20
-141.62872406
  0
VERTEX
  8
0
 10
38.11779477
 20
-141.26404024
  0
VERTEX
  8
0
 10
38.40239950
 20
-140.99119295
  0
VERTEX
  8
0
 10
38.52491952
 20
-140.90534321
  0
VERTEX
  8
0
 10
38.63983847
 20
-140.85614577
  0
VERTEX
  8
0
 10
38.75527565
 20
-140.84344704
  0
VERTEX
  8
0
 10
38.87935036
 20
-140.86709343
  0
VERTEX
  8
0
 10
39.02018187
 20
-140.92693134
  0
VERTEX
  8
0
 10
39.18588949
 20
-141.02280719
  0
VERTEX
  8
0
 10
39.62441020
 20
-141.32205830
  0
VERTEX
  8
0
 10
40.94193113
 20
-142.24640774
  0
VERTEX
  8
0
 10
41.65510785
 20
-142.73175498
  0
VERTEX
  8
0
 10
42.27603535
 20
-143.13106235
  0
VERTEX
  8
0
 10
42.73148796
 20
-143.38759837
  0
VERTEX
  8
0
 10
43.04091760
 20
-143.52254549
  0
VERTEX
  8
0
 10
43.24694556
 20
-143.57643336
  0
VERTEX
  8
0
 10
43.39219315
 20
-143.58979160
  0
VERTEX
  8
0
 10
43.61222811
 20
-143.59201771
  0
VERTEX
  8
0
 10
43.69184603
 20
-143.57245794
  0
VERTEX
  8
0
 10
43.74957175
 20
-143.52806075
  0
VERTEX
  8
0
 10
43.78477841
 20
-143.45360635
  0
VERTEX
  8
0
 10
43.79973432
 20
-143.35601227
  0
VERTEX
  8
0
 10
43.78048720
 20
-143.13106235
  0
VERTEX
  8
0
 10
43.74833519
 20
-143.01906888
  0
VERTEX
  8
0
 10
43.68557727
 20
-142.89717046
  0
VERTEX
  8
0
 10
43.57320080
 20
-142.74882132
  0
VERTEX
  8
0
 10
43.39219315
 20
-142.55747570
  0
VERTEX
  8
0
 10
43.12759842
 20
-142.31037252
  0
VERTEX
  8
0
 10
42.78113778
 20
-142.01033977
  0
VERTEX
  8
0
 10
41.86573030
 20
-141.27793625
  0
VERTEX
  8
0
 10
40.76431737
 20
-140.45128563
  0
VERTEX
  8
0
 10
40.26677028
 20
-140.07624352
  0
VERTEX
  8
0
 10
39.88464025
 20
-139.77358445
  0
VERTEX
  8
0
 10
39.75417056
 20
-139.65816446
  0
VERTEX
  8
0
 10
39.66646403
 20
-139.56094224
  0
VERTEX
  8
0
 10
39.62043380
 20
-139.47323337
  0
VERTEX
  8
0
 10
39.61499299
 20
-139.38635343
  0
VERTEX
  8
0
 10
39.64905474
 20
-139.29161800
  0
VERTEX
  8
0
 10
39.72153217
 20
-139.18034266
  0
VERTEX
  8
0
 10
39.97738660
 20
-138.87343460
  0
VERTEX
  8
0
 10
40.83050044
 20
-137.88900513
  0
VERTEX
  8
0
 10
41.31189571
 20
-137.36142429
  0
VERTEX
  8
0
 10
41.74657075
 20
-136.92776225
  0
VERTEX
  8
0
 10
41.92868481
 20
-136.77094482
  0
VERTEX
  8
0
 10
42.08681266
 20
-136.65441314
  0
VERTEX
  8
0
 10
42.22426299
 20
-136.57294274
  0
VERTEX
  8
0
 10
42.34434449
 20
-136.52130912
  0
VERTEX
  8
0
 10
42.45036583
 20
-136.49428781
  0
VERTEX
  8
0
 10
42.54563571
 20
-136.48665431
  0
VERTEX
  8
0
 10
42.71715580
 20
-136.50865280
  0
VERTEX
  8
0
 10
42.88675306
 20
-136.55814628
  0
VERTEX
  8
0
 10
43.08779103
 20
-136.65645166
  0
VERTEX
  8
0
 10
43.35501207
 20
-136.83748588
  0
VERTEX
  8
0
 10
43.72315855
 20
-137.13516590
  0
VERTEX
  8
0
 10
44.75666254
 20
-138.06551834
  0
VERTEX
  8
0
 10
45.74386840
 20
-138.96608090
  0
VERTEX
  8
0
 10
46.05515522
 20
-139.22750530
  0
VERTEX
  8
0
 10
46.24897083
 20
-139.36320436
  0
VERTEX
  8
0
 10
46.36669841
 20
-139.41287293
  0
VERTEX
  8
0
 10
46.44972115
 20
-139.41620585
  0
VERTEX
  8
0
 10
46.61240245
 20
-139.38694122
  0
VERTEX
  8
0
 10
46.68611741
 20
-139.35725451
  0
VERTEX
  8
0
 10
46.74536890
 20
-139.31475515
  0
VERTEX
  8
0
 10
46.78463384
 20
-139.25797990
  0
VERTEX
  8
0
 10
46.80488614
 20
-139.18839200
  0
VERTEX
  8
0
 10
46.79829535
 20
-139.01910740
  0
VERTEX
  8
0
 10
46.74256750
 20
-138.82602341
  0
VERTEX
  8
0
 10
46.64391820
 20
-138.63961775
  0
VERTEX
  8
0
 10
46.51075165
 20
-138.48325211
  0
VERTEX
  8
0
 10
46.37308285
 20
-138.34166885
  0
VERTEX
  8
0
 10
46.25386077
 20
-138.18968039
  0
VERTEX
  8
0
 10
46.14987130
 20
-138.03251435
  0
VERTEX
  8
0
 10
64.00339360
 20
-113.42371610
  0
SEQEND
  0
POLYLINE
  8
Layer_1
 62
256
 66
   1
 39
0.000000
 70
    1
  0
VERTEX
  8
0
 10
117.62469085
 20
-122.76928655
  0
VERTEX
  8
0
 10
117.62469085
 20
-115.03962365
  0
VERTEX
  8
0
 10
123.77606500
 20
-115.03962365
  0
VERTEX
  8
0
 10
123.77606500
 20
-122.76928655
  0
VERTEX
  8
0
 10
117.62469085
 20
-122.76928655
  0
SEQEND
  0
POLYLINE
  8
Layer_1
 62
256
 66
   1
 39
0.000000
 70
    1
  0
VERTEX
  8
0
 10
108.92194165
 20
-122.76948665
  0
VERTEX
  8
0
 10
108.92194165
 20
-115.03962365
  0
VERTEX
  8
0
 10
115.04790310
 20
-115.03962365
  0
VERTEX
  8
0
 10
115.04790310
 20
-122.76948665
  0
VERTEX
  8
0
 10
108.92194165
 20
-122.76948665
  0
SEQEND
  0
POLYLINE
  8
Layer_1
 62
256
 66
   1
 39
0.000000
 70
    1
  0
VERTEX
  8
0
 10
117.63419560
 20
-132.01800860
  0
VERTEX
  8
0
 10
117.63419560
 20
-124.28714510
  0
VERTEX
  8
0
 10
123.77606500
 20
-124.28714510
  0
VERTEX
  8
0
 10
123.77606500
 20
-132.01800860
  0
VERTEX
  8
0
 10
117.63419560
 20
-132.01800860
  0
SEQEND
  0
POLYLINE
  8
Layer_1
 62
256
 66
   1
 39
0.000000
 70
    1
  0
VERTEX
  8
0
 10
108.92194165
 20
-132.01800860
  0
VERTEX
  8
0
 10
108.92194165
 20
-124.28464385
  0
VERTEX
  8
0
 10
115.06701265
 20
-124.28464385
  0
VERTEX
  8
0
 10
115.06701265
 20
-132.01800860
  0
VERTEX
  8
0
 10
108.92194165
 20
-132.01800860
  0
SEQEND
  0
POLYLINE
  8
Layer_1
 62
256
 66
   1
 39
0.000000
 70
    1
  0
VERTEX
  8
0
 10
100.18437505
 20
-122.76928655
  0
VERTEX
  8
0
 10
100.18437505
 20
-115.03962365
  0
VERTEX
  8
0
 10
106.33574920
 20
-115.03962365
  0
VERTEX
  8
0
 10
106.33574920
 20
-122.76928655
  0
VERTEX
  8
0
 10
100.18437505
 20
-122.76928655
  0
SEQEND
  0
POLYLINE
  8
Layer_1
 62
256
 66
   1
 39
0.000000
 70
    1
  0
VERTEX
  8
0
 10
91.48162585
 20
-122.76948665
  0
VERTEX
  8
0
 10
91.48162585
 20
-115.03962365
  0
VERTEX
  8
0
 10
97.60758730
 20
-115.03962365
  0
VERTEX
  8
0
 10
97.60758730
 20
-122.76948665
  0
VERTEX
  8
0
 10
91.48162585
 20
-122.76948665
  0
SEQEND
  0
POLYLINE
  8
Layer_1
 62
256
 66
   1
 39
0.000000
 70
    1
  0
VERTEX
  8
0
 10
100.19387980
 20
-132.01800860
  0
VERTEX
  8
0
 10
100.19387980
 20
-124.28714510
  0
VERTEX
  8
0
 10
106.33574920
 20
-124.28714510
  0
VERTEX
  8
0
 10
106.33574920
 20
-132.01800860
  0
VERTEX
  8
0
 10
100.19387980
 20
-132.01800860
  0
SEQEND
  0
POLYLINE
  8
Layer_1
 62
256
 66
   1
 39
0.000000
 70
    1
  0
VERTEX
  8
0
 10
91.48162585
 20
-132.01800860
  0
VERTEX
  8
0
 10
91.48162585
 20
-124.28464385
  0
VERTEX
  8
0
 10
97.62669685
 20
-124.28464385
  0
VERTEX
  8
0
 10
97.62669685
 20
-132.01800860
  0
VERTEX
  8
0
 10
91.48162585
 20
-132.01800860
  0
SEQEND
  0
POLYLINE
  8
Layer_1
 62
256
 66
   1
 39
0.000000
 70
    1
  0
VERTEX
  8
0
 10
117.59487595
 20
-209.60328185
  0
VERTEX
  8
0
 10
117.59487595
 20
-201.87361895
  0
VERTEX
  8
0
 10
123.74625010
 20
-201.87361895
  0
VERTEX
  8
0
 10
123.74625010
 20
-209.60328185
  0
VERTEX
  8
0
 10
117.59487595
 20
-209.60328185
  0
SEQEND
  0
POLYLINE
  8
Layer_1
 62
256
 66
   1
 39
0.000000
 70
    1
  0
VERTEX
  8
0
 10
108.89212675
 20
-209.60348195
  0
VERTEX
  8
0
 10
108.89212675
 20
-201.87361895
  0
VERTEX
  8
0
 10
115.01808820
 20
-201.87361895
  0
VERTEX
  8
0
 10
115.01808820
 20
-209.60348195
  0
VERTEX
  8
0
 10
108.89212675
 20
-209.60348195
  0
SEQEND
  0
POLYLINE
  8
Layer_1
 62
256
 66
   1
 39
0.000000
 70
    1
  0
VERTEX
  8
0
 10
117.60438070
 20
-218.85200390
  0
VERTEX
  8
0
 10
117.60438070
 20
-211.12114040
  0
VERTEX
  8
0
 10
123.74625010
 20
-211.12114040
  0
VERTEX
  8
0
 10
123.74625010
 20
-218.85200390
  0
VERTEX
  8
0
 10
117.60438070
 20
-218.85200390
  0
SEQEND
  0
POLYLINE
  8
Layer_1
 62
256
 66
   1
 39
0.000000
 70
    1
  0
VERTEX
  8
0
 10
108.89212675
 20
-218.85200390
  0
VERTEX
  8
0
 10
108.89212675
 20
-211.11863915
  0
VERTEX
  8
0
 10
115.03719775
 20
-211.11863915
  0
VERTEX
  8
0
 10
115.03719775
 20
-218.85200390
  0
VERTEX
  8
0
 10
108.89212675
 20
-218.85200390
  0
SEQEND
  0
POLYLINE
  8
Layer_1
 62
256
 66
   1
 39
0.000000
 70
    1
  0
VERTEX
  8
0
 10
100.15456015
 20
-209.60328185
  0
VERTEX
  8
0
 10
100.15456015
 20
-201.87361895
  0
VERTEX
  8
0
 10
106.30593430
 20
-201.87361895
  0
VERTEX
  8
0
 10
106.30593430
 20
-209.60328185
  0
VERTEX
  8
0
 10
100.15456015
 20
-209.60328185
  0
SEQEND
  0
POLYLINE
  8
Layer_1
 62
256
 66
   1
 39
0.000000
 70
    1
  0
VERTEX
  8
0
 10
91.45181095
 20
-209.60348195
  0
VERTEX
  8
0
 10
91.45181095
 20
-201.87361895
  0
VERTEX
  8
0
 10
97.57777240
 20
-201.87361895
  0
VERTEX
  8
0
 10
97.57777240
 20
-209.60348195
  0
VERTEX
  8
0
 10
91.45181095
 20
-209.60348195
  0
SEQEND
  0
POLYLINE
  8
Layer_1
 62
256
 66
   1
 39
0.000000
 70
    1
  0
VERTEX
  8
0
 10
100.16406490
 20
-218.85200390
  0
VERTEX
  8
0
 10
100.16406490
 20
-211.12114040
  0
VERTEX
  8
0
 10
106.30593430
 20
-211.12114040
  0
VERTEX
  8
0
 10
106.30593430
 20
-218.85200390
  0
VERTEX
  8
0
 10
100.16406490
 20
-218.85200390
  0
SEQEND
  0
POLYLINE
  8
Layer_1
 62
256
 66
   1
 39
0.000000
 70
    1
  0
VERTEX
  8
0
 10
91.45181095
 20
-218.85200390
  0
VERTEX
  8
0
 10
91.45181095
 20
-211.11863915
  0
VERTEX
  8
0
 10
97.59688195
 20
-211.11863915
  0
VERTEX
  8
0
 10
97.59688195
 20
-218.85200390
  0
VERTEX
  8
0
 10
91.45181095
 20
-218.85200390
  0
SEQEND
  0
POLYLINE
  8
Layer_1
 62
256
 66
   1
 39
0.000000
 70
    1
  0
VERTEX
  8
0
 10
51.35357185
 20
-164.34386345
  0
VERTEX
  8
0
 10
51.35357185
 20
-156.61039865
  0
VERTEX
  8
0
 10
57.49854280
 20
-156.61039865
  0
VERTEX
  8
0
 10
57.49854280
 20
-164.34386345
  0
VERTEX
  8
0
 10
51.35357185
 20
-164.34386345
  0
SEQEND
  0
POLYLINE
  8
Layer_1
 62
256
 66
   1
 39
0.000000
 70
    1
  0
VERTEX
  8
0
 10
60.06552565
 20
-164.34386345
  0
VERTEX
  8
0
 10
60.06552565
 20
-156.61299995
  0
VERTEX
  8
0
 10
66.20749510
 20
-156.61299995
  0
VERTEX
  8
0
 10
66.20749510
 20
-164.34386345
  0
VERTEX
  8
0
 10
60.06552565
 20
-164.34386345
  0
SEQEND
  0
POLYLINE
  8
Layer_1
 62
256
 66
   1
 39
0.000000
 70
    1
  0
VERTEX
  8
0
 10
51.35357185
 20
-155.09524145
  0
VERTEX
  8
0
 10
51.35357185
 20
-147.36527840
  0
VERTEX
  8
0
 10
57.47943325
 20
-147.36527840
  0
VERTEX
  8
0
 10
57.47943325
 20
-155.09524145
  0
VERTEX
  8
0
 10
51.35357185
 20
-155.09524145
  0
SEQEND
  0
POLYLINE
  8
Layer_1
 62
256
 66
   1
 39
0.000000
 70
    1
  0
VERTEX
  8
0
 10
60.05622100
 20
-155.09504135
  0
VERTEX
  8
0
 10
60.05622100
 20
-147.36527840
  0
VERTEX
  8
0
 10
66.20749510
 20
-147.36527840
  0
VERTEX
  8
0
 10
66.20749510
 20
-155.09504135
  0
VERTEX
  8
0
 10
60.05622100
 20
-155.09504135
  0
SEQEND
  0
POLYLINE
  8
Layer_1
 62
256
 66
   1
 39
0.000000
 70
    1
  0
VERTEX
  8
0
 10
93.18777850
 20
-170.83660820
  0
VERTEX
  8
0
 10
93.18777850
 20
-163.10314340
  0
VERTEX
  8
0
 10
99.33284950
 20
-163.10314340
  0
VERTEX
  8
0
 10
99.33284950
 20
-170.83660820
  0
VERTEX
  8
0
 10
93.18777850
 20
-170.83660820
  0
SEQEND
  0
POLYLINE
  8
Layer_1
 62
256
 66
   1
 39
0.000000
 70
    1
  0
VERTEX
  8
0
 10
101.89993240
 20
-170.83660820
  0
VERTEX
  8
0
 10
101.89993240
 20
-163.10574470
  0
VERTEX
  8
0
 10
108.04190185
 20
-163.10574470
  0
VERTEX
  8
0
 10
108.04190185
 20
-170.83660820
  0
VERTEX
  8
0
 10
101.89993240
 20
-170.83660820
  0
SEQEND
  0
POLYLINE
  8
Layer_1
 62
256
 66
   1
 39
0.000000
 70
    1
  0
VERTEX
  8
0
 10
93.18777850
 20
-161.58798620
  0
VERTEX
  8
0
 10
93.18777850
 20
-153.85802315
  0
VERTEX
  8
0
 10
99.31384000
 20
-153.85802315
  0
VERTEX
  8
0
 10
99.31384000
 20
-161.58798620
  0
VERTEX
  8
0
 10
93.18777850
 20
-161.58798620
  0
SEQEND
  0
POLYLINE
  8
Layer_1
 62
256
 66
   1
 39
0.000000
 70
    1
  0
VERTEX
  8
0
 10
101.89052770
 20
-161.58778610
  0
VERTEX
  8
0
 10
101.89052770
 20
-153.85802315
  0
VERTEX
  8
0
 10
108.04190185
 20
-153.85802315
  0
VERTEX
  8
0
 10
108.04190185
 20
-161.58778610
  0
VERTEX
  8
0
 10
101.89052770
 20
-161.58778610
  0
SEQEND
  0
POLYLINE
  8
Layer_1
 62
256
 66
   1
 39
0.000000
 70
    1
  0
VERTEX
  8
0
 10
115.15805815
 20
-162.97247810
  0
VERTEX
  8
0
 10
115.15805815
 20
-161.75917175
  0
VERTEX
  8
0
 10
145.51212760
 20
-161.75917175
  0
VERTEX
  8
0
 10
145.51212760
 20
-162.97247810
  0
VERTEX
  8
0
 10
115.15805815
 20
-162.97247810
  0
SEQEND
  0
POLYLINE
  8
Layer_1
 62
256
 66
   1
 39
0.000000
 70
    1
  0
VERTEX
  8
0
 10
44.85232285
 20
-53.37110480
  0
VERTEX
  8
0
 10
44.85232285
 20
-46.85364770
  0
VERTEX
  8
0
 10
41.89634560
 20
-46.85364770
  0
VERTEX
  8
0
 10
41.89634560
 20
-41.57931185
  0
VERTEX
  8
0
 10
44.85232285
 20
-41.57931185
  0
VERTEX
  8
0
 10
44.85232285
 20
-33.96750785
  0
VERTEX
  8
0
 10
44.87493513
 20
-33.74493470
  0
VERTEX
  8
0
 10
44.93974310
 20
-33.53729754
  0
VERTEX
  8
0
 10
45.04220349
 20
-33.34913964
  0
VERTEX
  8
0
 10
45.17777299
 20
-33.18500429
  0
VERTEX
  8
0
 10
45.34190834
 20
-33.04943479
  0
VERTEX
  8
0
 10
45.53006624
 20
-32.94697440
  0
VERTEX
  8
0
 10
45.73770340
 20
-32.88216643
  0
VERTEX
  8
0
 10
45.96027655
 20
-32.85955415
  0
VERTEX
  8
0
 10
54.68603725
 20
-32.85955415
  0
VERTEX
  8
0
 10
54.90861040
 20
-32.88216643
  0
VERTEX
  8
0
 10
55.11624756
 20
-32.94697440
  0
VERTEX
  8
0
 10
55.30440546
 20
-33.04943479
  0
VERTEX
  8
0
 10
55.46854081
 20
-33.18500429
  0
VERTEX
  8
0
 10
55.60411031
 20
-33.34913964
  0
VERTEX
  8
0
 10
55.70657070
 20
-33.53729754
  0
VERTEX
  8
0
 10
55.77137867
 20
-33.74493470
  0
VERTEX
  8
0
 10
55.79399095
 20
-33.96750785
  0
VERTEX
  8
0
 10
55.79399095
 20
-53.37110480
  0
VERTEX
  8
0
 10
55.77137867
 20
-53.59367795
  0
VERTEX
  8
0
 10
55.70657070
 20
-53.80131511
  0
VERTEX
  8
0
 10
55.60411031
 20
-53.98947301
  0
VERTEX
  8
0
 10
55.46854081
 20
-54.15360836
  0
VERTEX
  8
0
 10
55.30440546
 20
-54.28917786
  0
VERTEX
  8
0
 10
55.11624756
 20
-54.39163825
  0
VERTEX
  8
0
 10
54.90861040
 20
-54.45644622
  0
VERTEX
  8
0
 10
54.68603725
 20
-54.47905850
  0
VERTEX
  8
0
 10
45.96027655
 20
-54.47905850
  0
VERTEX
  8
0
 10
45.73770340
 20
-54.45644622
  0
VERTEX
  8
0
 10
45.53006624
 20
-54.39163825
  0
VERTEX
  8
0
 10
45.34190834
 20
-54.28917786
  0
VERTEX
  8
0
 10
45.17777299
 20
-54.15360836
  0
VERTEX
  8
0
 10
45.04220349
 20
-53.98947301
  0
VERTEX
  8
0
 10
44.93974310
 20
-53.80131511
  0
VERTEX
  8
0
 10
44.87493513
 20
-53.59367795
  0
VERTEX
  8
0
 10
44.85232285
 20
-53.37110480
  0
SEQEND
  0
POLYLINE
  8
Layer_1
 62
256
 66
   1
 39
0.000000
 70
    1
  0
VERTEX
  8
0
 10
147.46610410
 20
-62.22172790
  0
VERTEX
  8
0
 10
147.46610410
 20
-67.95579350
  0
VERTEX
  8
0
 10
147.45305380
 20
-68.21205323
  0
VERTEX
  8
0
 10
147.41476262
 20
-68.46112592
  0
VERTEX
  8
0
 10
147.35252011
 20
-68.70172202
  0
VERTEX
  8
0
 10
147.26761584
 20
-68.93255195
  0
VERTEX
  8
0
 10
147.16133937
 20
-69.15232616
  0
VERTEX
  8
0
 10
147.03498025
 20
-69.35975509
  0
VERTEX
  8
0
 10
146.88982804
 20
-69.55354918
  0
VERTEX
  8
0
 10
146.72717232
 20
-69.73241887
  0
VERTEX
  8
0
 10
146.54830263
 20
-69.89507459
  0
VERTEX
  8
0
 10
146.35450854
 20
-70.04022680
  0
VERTEX
  8
0
 10
146.14707961
 20
-70.16658592
  0
VERTEX
  8
0
 10
145.92730540
 20
-70.27286239
  0
VERTEX
  8
0
 10
145.69647547
 20
-70.35776666
  0
VERTEX
  8
0
 10
145.45587937
 20
-70.42000917
  0
VERTEX
  8
0
 10
145.20680668
 20
-70.45830035
  0
VERTEX
  8
0
 10
144.95054695
 20
-70.47135065
  0
VERTEX
  8
0
 10
136.21568170
 20
-70.47135065
  0
VERTEX
  8
0
 10
136.21568170
 20
-73.69206020
  0
VERTEX
  8
0
 10
131.05370200
 20
-73.69206020
  0
VERTEX
  8
0
 10
131.05370200
 20
-70.47135065
  0
VERTEX
  8
0
 10
112.96466200
 20
-70.47135065
  0
VERTEX
  8
0
 10
112.96466200
 20
-73.29486170
  0
VERTEX
  8
0
 10
107.91483835
 20
-73.29486170
  0
VERTEX
  8
0
 10
107.91483835
 20
-70.47135065
  0
VERTEX
  8
0
 10
98.45030845
 20
-70.47135065
  0
VERTEX
  8
0
 10
98.19404872
 20
-70.45830035
  0
VERTEX
  8
0
 10
97.94497603
 20
-70.42000917
  0
VERTEX
  8
0
 10
97.70437993
 20
-70.35776666
  0
VERTEX
  8
0
 10
97.47355000
 20
-70.27286239
  0
VERTEX
  8
0
 10
97.25377579
 20
-70.16658592
  0
VERTEX
  8
0
 10
97.04634686
 20
-70.04022680
  0
VERTEX
  8
0
 10
96.85255277
 20
-69.89507459
  0
VERTEX
  8
0
 10
96.67368308
 20
-69.73241887
  0
VERTEX
  8
0
 10
96.51102736
 20
-69.55354918
  0
VERTEX
  8
0
 10
96.36587515
 20
-69.35975509
  0
VERTEX
  8
0
 10
96.23951603
 20
-69.15232616
  0
VERTEX
  8
0
 10
96.13323956
 20
-68.93255195
  0
VERTEX
  8
0
 10
96.04833529
 20
-68.70172202
  0
VERTEX
  8
0
 10
95.98609278
 20
-68.46112592
  0
VERTEX
  8
0
 10
95.94780160
 20
-68.21205323
  0
VERTEX
  8
0
 10
95.93475130
 20
-67.95579350
  0
VERTEX
  8
0
 10
95.93475130
 20
-62.22172790
  0
VERTEX
  8
0
 10
95.94780160
 20
-61.96546817
  0
VERTEX
  8
0
 10
95.98609278
 20
-61.71639548
  0
VERTEX
  8
0
 10
96.04833529
 20
-61.47579938
  0
VERTEX
  8
0
 10
96.13323956
 20
-61.24496945
  0
VERTEX
  8
0
 10
96.23951603
 20
-61.02519524
  0
VERTEX
  8
0
 10
96.36587515
 20
-60.81776631
  0
VERTEX
  8
0
 10
96.51102736
 20
-60.62397222
  0
VERTEX
  8
0
 10
96.67368308
 20
-60.44510253
  0
VERTEX
  8
0
 10
96.85255277
 20
-60.28244681
  0
VERTEX
  8
0
 10
97.04634686
 20
-60.13729460
  0
VERTEX
  8
0
 10
97.25377579
 20
-60.01093548
  0
VERTEX
  8
0
 10
97.47355000
 20
-59.90465901
  0
VERTEX
  8
0
 10
97.70437993
 20
-59.81975474
  0
VERTEX
  8
0
 10
97.94497603
 20
-59.75751223
  0
VERTEX
  8
0
 10
98.19404872
 20
-59.71922105
  0
VERTEX
  8
0
 10
98.45030845
 20
-59.70617075
  0
VERTEX
  8
0
 10
144.95054695
 20
-59.70617075
  0
VERTEX
  8
0
 10
145.20680668
 20
-59.71922105
  0
VERTEX
  8
0
 10
145.45587937
 20
-59.75751223
  0
VERTEX
  8
0
 10
145.69647547
 20
-59.81975474
  0
VERTEX
  8
0
 10
145.92730540
 20
-59.90465901
  0
VERTEX
  8
0
 10
146.14707961
 20
-60.01093548
  0
VERTEX
  8
0
 10
146.35450854
 20
-60.13729460
  0
VERTEX
  8
0
 10
146.54830263
 20
-60.28244681
  0
VERTEX
  8
0
 10
146.72717232
 20
-60.44510253
  0
VERTEX
  8
0
 10
146.88982804
 20
-60.62397222
  0
VERTEX
  8
0
 10
147.03498025
 20
-60.81776631
  0
VERTEX
  8
0
 10
147.16133937
 20
-61.02519524
  0
VERTEX
  8
0
 10
147.26761584
 20
-61.24496945
  0
VERTEX
  8
0
 10
147.35252011
 20
-61.47579938
  0
VERTEX
  8
0
 10
147.41476262
 20
-61.71639548
  0
VERTEX
  8
0
 10
147.45305380
 20
-61.96546817
  0
VERTEX
  8
0
 10
147.46610410
 20
-62.22172790
  0
SEQEND
  0
POLYLINE
  8
Layer_1
 62
256
 66
   1
 39
0.000000
 70
    1
  0
VERTEX
  8
0
 10
88.32664915
 20
-240.45570035
  0
VERTEX
  8
0
 10
60.26682625
 20
-240.45570035
  0
VERTEX
  8
0
 10
60.26682625
 20
-307.34052605
  0
VERTEX
  8
0
 10
88.32664915
 20
-307.34052605
  0
VERTEX
  8
0
 10
88.32664915
 20
-293.57764805
  0
VERTEX
  8
0
 10
91.32624820
 20
-293.57764805
  0
VERTEX
  8
0
 10
91.32624820
 20
-288.72452270
  0
VERTEX
  8
0
 10
88.32664915
 20
-288.72452270
  0
VERTEX
  8
0
 10
88.32664915
 20
-258.00877250
  0
VERTEX
  8
0
 10
91.32644830
 20
-258.00877250
  0
VERTEX
  8
0
 10
91.32644830
 20
-253.19976920
  0
VERTEX
  8
0
 10
88.32664915
 20
-253.19976920
  0
VERTEX
  8
0
 10
88.32664915
 20
-240.45570035
  0
SEQEND
  0
POLYLINE
  8
Layer_1
 62
256
 66
   1
 39
0.000000
 70
    1
  0
VERTEX
  8
0
 10
67.47128878
 20
-287.94383255
  0
VERTEX
  8
0
 10
64.66822585
 20
-287.94383255
  0
VERTEX
  8
0
 10
64.66822585
 20
-293.09340605
  0
VERTEX
  8
0
 10
67.47128878
 20
-293.09340605
  0
VERTEX
  8
0
 10
67.47128878
 20
-287.94383255
  0
SEQEND
  0
POLYLINE
  8
Layer_1
 62
256
 66
   1
 39
0.000000
 70
    1
  0
VERTEX
  8
0
 10
67.47423575
 20
-252.11962940
  0
VERTEX
  8
0
 10
64.66822585
 20
-252.11962940
  0
VERTEX
  8
0
 10
64.66822585
 20
-257.28361010
  0
VERTEX
  8
0
 10
67.47423575
 20
-257.28361010
  0
VERTEX
  8
0
 10
67.47423575
 20
-252.11962940
  0
SEQEND
  0
POLYLINE
  8
Layer_1
 62
256
 66
   1
 39
0.000000
 70
    1
  0
VERTEX
  8
0
 10
77.01729730
 20
-80.27184845
  0
VERTEX
  8
0
 10
73.99918900
 20
-80.92637555
  0
VERTEX
  8
0
 10
73.00809370
 20
-76.35599150
  0
VERTEX
  8
0
 10
76.02610195
 20
-75.70146440
  0
VERTEX
  8
0
 10
77.01729730
 20
-80.27184845
  0
SEQEND
  0
POLYLINE
  8
Layer_1
 62
256
 66
   1
 39
0.000000
 70
    1
  0
VERTEX
  8
0
 10
83.37007210
 20
-96.25263485
  0
VERTEX
  8
0
 10
57.15497110
 20
-101.93787605
  0
VERTEX
  8
0
 10
53.51975440
 20
-85.17579920
  0
VERTEX
  8
0
 10
50.49944500
 20
-85.81992110
  0
VERTEX
  8
0
 10
49.50824965
 20
-81.24953705
  0
VERTEX
  8
0
 10
52.52545750
 20
-80.59090790
  0
VERTEX
  8
0
 10
48.47743450
 20
-61.92517970
  0
VERTEX
  8
0
 10
74.69253550
 20
-56.23993850
  0
VERTEX
  8
0
 10
83.37007210
 20
-96.25263485
  0
SEQEND
  0
POLYLINE
  8
Layer_1
 62
256
 66
   1
 39
0.000000
 70
    1
  0
VERTEX
  8
0
 10
27.21680950
 20
84.63056155
  0
VERTEX
  8
0
 10
27.21680950
 20
78.89649595
  0
VERTEX
  8
0
 10
27.20375920
 20
78.64023622
  0
VERTEX
  8
0
 10
27.16546802
 20
78.39116353
  0
VERTEX
  8
0
 10
27.10322551
 20
78.15056743
  0
VERTEX
  8
0
 10
27.01832124
 20
77.91973750
  0
VERTEX
  8
0
 10
26.91204477
 20
77.69996329
  0
VERTEX
  8
0
 10
26.78568565
 20
77.49253436
  0
VERTEX
  8
0
 10
26.64053344
 20
77.29874027
  0
VERTEX
  8
0
 10
26.47787772
 20
77.11987058
  0
VERTEX
  8
0
 10
26.29900803
 20
76.95721486
  0
VERTEX
  8
0
 10
26.10521394
 20
76.81206265
  0
VERTEX
  8
0
 10
25.89778501
 20
76.68570353
  0
VERTEX
  8
0
 10
25.67801080
 20
76.57942706
  0
VERTEX
  8
0
 10
25.44718087
 20
76.49452279
  0
VERTEX
  8
0
 10
25.20658477
 20
76.43228028
  0
VERTEX
  8
0
 10
24.95751208
 20
76.39398910
  0
VERTEX
  8
0
 10
24.70125235
 20
76.38093880
  0
VERTEX
  8
0
 10
15.96638710
 20
76.38093880
  0
VERTEX
  8
0
 10
15.96638710
 20
73.16022925
  0
VERTEX
  8
0
 10
10.80440740
 20
73.16022925
  0
VERTEX
  8
0
 10
10.80440740
 20
76.38093880
  0
VERTEX
  8
0
 10
-7.28463260
 20
76.38093880
  0
VERTEX
  8
0
 10
-7.28463260
 20
73.55742775
  0
VERTEX
  8
0
 10
-12.33445625
 20
73.55742775
  0
VERTEX
  8
0
 10
-12.33445625
 20
76.38093880
  0
VERTEX
  8
0
 10
-21.79898615
 20
76.38093880
  0
VERTEX
  8
0
 10
-22.05524588
 20
76.39398910
  0
VERTEX
  8
0
 10
-22.30431857
 20
76.43228028
  0
VERTEX
  8
0
 10
-22.54491467
 20
76.49452279
  0
VERTEX
  8
0
 10
-22.77574460
 20
76.57942706
  0
VERTEX
  8
0
 10
-22.99551881
 20
76.68570353
  0
VERTEX
  8
0
 10
-23.20294774
 20
76.81206265
  0
VERTEX
  8
0
 10
-23.39674183
 20
76.95721486
  0
VERTEX
  8
0
 10
-23.57561152
 20
77.11987058
  0
VERTEX
  8
0
 10
-23.73826724
 20
77.29874027
  0
VERTEX
  8
0
 10
-23.88341945
 20
77.49253436
  0
VERTEX
  8
0
 10
-24.00977857
 20
77.69996329
  0
VERTEX
  8
0
 10
-24.11605504
 20
77.91973750
  0
VERTEX
  8
0
 10
-24.20095931
 20
78.15056743
  0
VERTEX
  8
0
 10
-24.26320182
 20
78.39116353
  0
VERTEX
  8
0
 10
-24.30149300
 20
78.64023622
  0
VERTEX
  8
0
 10
-24.31454330
 20
78.89649595
  0
VERTEX
  8
0
 10
-24.31454330
 20
84.63056155
  0
VERTEX
  8
0
 10
-24.30149300
 20
84.88682128
  0
VERTEX
  8
0
 10
-24.26320182
 20
85.13589397
  0
VERTEX
  8
0
 10
-24.20095931
 20
85.37649007
  0
VERTEX
  8
0
 10
-24.11605504
 20
85.60732000
  0
VERTEX
  8
0
 10
-24.00977857
 20
85.82709421
  0
VERTEX
  8
0
 10
-23.88341945
 20
86.03452314
  0
VERTEX
  8
0
 10
-23.73826724
 20
86.22831723
  0
VERTEX
  8
0
 10
-23.57561152
 20
86.40718692
  0
VERTEX
  8
0
 10
-23.39674183
 20
86.56984264
  0
VERTEX
  8
0
 10
-23.20294774
 20
86.71499485
  0
VERTEX
  8
0
 10
-22.99551881
 20
86.84135397
  0
VERTEX
  8
0
 10
-22.77574460
 20
86.94763044
  0
VERTEX
  8
0
 10
-22.54491467
 20
87.03253471
  0
VERTEX
  8
0
 10
-22.30431857
 20
87.09477722
  0
VERTEX
  8
0
 10
-22.05524588
 20
87.13306840
  0
VERTEX
  8
0
 10
-21.79898615
 20
87.14611870
  0
VERTEX
  8
0
 10
24.70125235
 20
87.14611870
  0
VERTEX
  8
0
 10
24.95751208
 20
87.13306840
  0
VERTEX
  8
0
 10
25.20658477
 20
87.09477722
  0
VERTEX
  8
0
 10
25.44718087
 20
87.03253471
  0
VERTEX
  8
0
 10
25.67801080
 20
86.94763044
  0
VERTEX
  8
0
 10
25.89778501
 20
86.84135397
  0
VERTEX
  8
0
 10
26.10521394
 20
86.71499485
  0
VERTEX
  8
0
 10
26.29900803
 20
86.56984264
  0
VERTEX
  8
0
 10
26.47787772
 20
86.40718692
  0
VERTEX
  8
0
 10
26.64053344
 20
86.22831723
  0
VERTEX
  8
0
 10
26.78568565
 20
86.03452314
  0
VERTEX
  8
0
 10
26.91204477
 20
85.82709421
  0
VERTEX
  8
0
 10
27.01832124
 20
85.60732000
  0
VERTEX
  8
0
 10
27.10322551
 20
85.37649007
  0
VERTEX
  8
0
 10
27.16546802
 20
85.13589397
  0
VERTEX
  8
0
 10
27.20375920
 20
84.88682128
  0
VERTEX
  8
0
 10
27.21680950
 20
84.63056155
  0
SEQEND
  0
POLYLINE
  8
Layer_1
 62
256
 66
   1
 39
0.000000
 70
    1
  0
VERTEX
  8
0
 10
42.50084770
 20
-186.57227210
  0
VERTEX
  8
0
 10
34.61760805
 20
-186.57227210
  0
VERTEX
  8
0
 10
34.64762305
 20
-189.72284660
  0
VERTEX
  8
0
 10
29.61740920
 20
-189.79338185
  0
VERTEX
  8
0
 10
29.58669385
 20
-186.57227210
  0
VERTEX
  8
0
 10
11.33697355
 20
-186.57227210
  0
VERTEX
  8
0
 10
11.36218615
 20
-189.68012525
  0
VERTEX
  8
0
 10
6.33197230
 20
-189.76306670
  0
VERTEX
  8
0
 10
6.30605935
 20
-186.57227210
  0
VERTEX
  8
0
 10
-12.08713265
 20
-186.57227210
  0
VERTEX
  8
0
 10
-12.06322070
 20
-189.57837440
  0
VERTEX
  8
0
 10
-17.09343455
 20
-189.66301670
  0
VERTEX
  8
0
 10
-17.11804685
 20
-186.57227210
  0
VERTEX
  8
0
 10
-25.77027080
 20
-186.57227210
  0
VERTEX
  8
0
 10
-25.99441446
 20
-186.54950095
  0
VERTEX
  8
0
 10
-26.20351544
 20
-186.48423748
  0
VERTEX
  8
0
 10
-26.39299881
 20
-186.38105662
  0
VERTEX
  8
0
 10
-26.55828961
 20
-186.24453331
  0
VERTEX
  8
0
 10
-26.69481292
 20
-186.07924251
  0
VERTEX
  8
0
 10
-26.79799378
 20
-185.88975914
  0
VERTEX
  8
0
 10
-26.86325725
 20
-185.68065816
  0
VERTEX
  8
0
 10
-26.88602840
 20
-185.45651450
  0
VERTEX
  8
0
 10
-26.88602840
 20
-178.86422000
  0
VERTEX
  8
0
 10
-26.86325725
 20
-178.64007634
  0
VERTEX
  8
0
 10
-26.79799378
 20
-178.43097536
  0
VERTEX
  8
0
 10
-26.69481292
 20
-178.24149199
  0
VERTEX
  8
0
 10
-26.55828961
 20
-178.07620119
  0
VERTEX
  8
0
 10
-26.39299881
 20
-177.93967788
  0
VERTEX
  8
0
 10
-26.20351544
 20
-177.83649702
  0
VERTEX
  8
0
 10
-25.99441446
 20
-177.77123355
  0
VERTEX
  8
0
 10
-25.77027080
 20
-177.74846240
  0
VERTEX
  8
0
 10
42.50084770
 20
-177.74846240
  0
VERTEX
  8
0
 10
42.72499136
 20
-177.77123355
  0
VERTEX
  8
0
 10
42.93409234
 20
-177.83649702
  0
VERTEX
  8
0
 10
43.12357571
 20
-177.93967788
  0
VERTEX
  8
0
 10
43.28886651
 20
-178.07620119
  0
VERTEX
  8
0
 10
43.42538982
 20
-178.24149199
  0
VERTEX
  8
0
 10
43.52857068
 20
-178.43097536
  0
VERTEX
  8
0
 10
43.59383415
 20
-178.64007634
  0
VERTEX
  8
0
 10
43.61660530
 20
-178.86422000
  0
VERTEX
  8
0
 10
43.61660530
 20
-185.45651450
  0
VERTEX
  8
0
 10
43.59383415
 20
-185.68065816
  0
VERTEX
  8
0
 10
43.52857068
 20
-185.88975914
  0
VERTEX
  8
0
 10
43.42538982
 20
-186.07924251
  0
VERTEX
  8
0
 10
43.28886651
 20
-186.24453331
  0
VERTEX
  8
0
 10
43.12357571
 20
-186.38105662
  0
VERTEX
  8
0
 10
42.93409234
 20
-186.48423748
  0
VERTEX
  8
0
 10
42.72499136
 20
-186.54950095
  0
VERTEX
  8
0
 10
42.50084770
 20
-186.57227210
  0
SEQEND
  0
POLYLINE
  8
Layer_1
 62
256
 66
   1
 39
0.000000
 70
    1
  0
VERTEX
  8
0
 10
-42.73184735
 20
-310.90500740
  0
VERTEX
  8
0
 10
-52.85240510
 20
-297.27269465
  0
VERTEX
  8
0
 10
-40.92574475
 20
-288.41836970
  0
VERTEX
  8
0
 10
-30.80518700
 20
-302.05068245
  0
VERTEX
  8
0
 10
-42.73184735
 20
-310.90500740
  0
SEQEND
  0
POLYLINE
  8
Layer_1
 62
256
 66
   1
 39
0.000000
 70
    1
  0
VERTEX
  8
0
 10
-56.43069335
 20
-292.45278590
  0
VERTEX
  8
0
 10
-66.55125110
 20
-278.82047315
  0
VERTEX
  8
0
 10
-54.62459075
 20
-269.96614820
  0
VERTEX
  8
0
 10
-44.50403300
 20
-283.59846095
  0
VERTEX
  8
0
 10
-56.43069335
 20
-292.45278590
  0
SEQEND
  0
POLYLINE
  8
Layer_1
 62
256
 66
   1
 39
0.000000
 70
    1
  0
VERTEX
  8
0
 10
-57.05150360
 20
-296.65188440
  0
VERTEX
  8
0
 10
-70.75044965
 20
-278.19966290
  0
VERTEX
  8
0
 10
-54.00378050
 20
-265.76704970
  0
VERTEX
  8
0
 10
-40.30493450
 20
-284.21927120
  0
VERTEX
  8
0
 10
-57.05150360
 20
-296.65188440
  0
SEQEND
  0
POLYLINE
  8
Layer_1
 62
256
 66
   1
 39
0.000000
 70
    1
  0
VERTEX
  8
0
 10
-70.12953935
 20
-274.00056440
  0
VERTEX
  8
0
 10
-80.25019715
 20
-260.36825165
  0
VERTEX
  8
0
 10
-68.32343675
 20
-251.51392670
  0
VERTEX
  8
0
 10
-58.20287900
 20
-265.14613940
  0
VERTEX
  8
0
 10
-70.12953935
 20
-274.00056440
  0
SEQEND
  0
POLYLINE
  8
Layer_1
 62
256
 66
   1
 39
0.000000
 70
    1
  0
VERTEX
  8
0
 10
4.08625000
 20
-306.37304255
  0
VERTEX
  8
0
 10
4.08625000
 20
-298.63967780
  0
VERTEX
  8
0
 10
10.23132100
 20
-298.63967780
  0
VERTEX
  8
0
 10
10.23132100
 20
-306.37304255
  0
VERTEX
  8
0
 10
4.08625000
 20
-306.37304255
  0
SEQEND
  0
POLYLINE
  8
Layer_1
 62
256
 66
   1
 39
0.000000
 70
    1
  0
VERTEX
  8
0
 10
12.79850395
 20
-306.37304255
  0
VERTEX
  8
0
 10
12.79850395
 20
-298.64217905
  0
VERTEX
  8
0
 10
18.94037335
 20
-298.64217905
  0
VERTEX
  8
0
 10
18.94037335
 20
-306.37304255
  0
VERTEX
  8
0
 10
12.79850395
 20
-306.37304255
  0
SEQEND
  0
POLYLINE
  8
Layer_1
 62
256
 66
   1
 39
0.000000
 70
    1
  0
VERTEX
  8
0
 10
4.08625000
 20
-297.12452060
  0
VERTEX
  8
0
 10
4.08625000
 20
-289.39465760
  0
VERTEX
  8
0
 10
10.21221145
 20
-289.39465760
  0
VERTEX
  8
0
 10
10.21221145
 20
-297.12452060
  0
VERTEX
  8
0
 10
4.08625000
 20
-297.12452060
  0
SEQEND
  0
POLYLINE
  8
Layer_1
 62
256
 66
   1
 39
0.000000
 70
    1
  0
VERTEX
  8
0
 10
12.78899920
 20
-297.12432050
  0
VERTEX
  8
0
 10
12.78899920
 20
-289.39465760
  0
VERTEX
  8
0
 10
18.94037335
 20
-289.39465760
  0
VERTEX
  8
0
 10
18.94037335
 20
-297.12432050
  0
VERTEX
  8
0
 10
12.78899920
 20
-297.12432050
  0
SEQEND
  0
POLYLINE
  8
Layer_1
 62
256
 66
   1
 39
0.000000
 70
    1
  0
VERTEX
  8
0
 10
21.52656580
 20
-306.37304255
  0
VERTEX
  8
0
 10
21.52656580
 20
-298.63967780
  0
VERTEX
  8
0
 10
27.67163680
 20
-298.63967780
  0
VERTEX
  8
0
 10
27.67163680
 20
-306.37304255
  0
VERTEX
  8
0
 10
21.52656580
 20
-306.37304255
  0
SEQEND
  0
POLYLINE
  8
Layer_1
 62
256
 66
   1
 39
0.000000
 70
    1
  0
VERTEX
  8
0
 10
30.23881975
 20
-306.37304255
  0
VERTEX
  8
0
 10
30.23881975
 20
-298.64217905
  0
VERTEX
  8
0
 10
36.38068915
 20
-298.64217905
  0
VERTEX
  8
0
 10
36.38068915
 20
-306.37304255
  0
VERTEX
  8
0
 10
30.23881975
 20
-306.37304255
  0
SEQEND
  0
POLYLINE
  8
Layer_1
 62
256
 66
   1
 39
0.000000
 70
    1
  0
VERTEX
  8
0
 10
21.52656580
 20
-297.12452060
  0
VERTEX
  8
0
 10
21.52656580
 20
-289.39465760
  0
VERTEX
  8
0
 10
27.65252725
 20
-289.39465760
  0
VERTEX
  8
0
 10
27.65252725
 20
-297.12452060
  0
VERTEX
  8
0
 10
21.52656580
 20
-297.12452060
  0
SEQEND
  0
POLYLINE
  8
Layer_1
 62
256
 66
   1
 39
0.000000
 70
    1
  0
VERTEX
  8
0
 10
30.22931500
 20
-297.12432050
  0
VERTEX
  8
0
 10
30.22931500
 20
-289.39465760
  0
VERTEX
  8
0
 10
36.38068915
 20
-289.39465760
  0
VERTEX
  8
0
 10
36.38068915
 20
-297.12432050
  0
VERTEX
  8
0
 10
30.22931500
 20
-297.12432050
  0
SEQEND
  0
POLYLINE
  8
Layer_1
 62
256
 66
   1
 39
0.000000
 70
    1
  0
VERTEX
  8
0
 10
4.09195285
 20
-282.79976180
  0
VERTEX
  8
0
 10
4.09195285
 20
-275.06639705
  0
VERTEX
  8
0
 10
10.23702385
 20
-275.06639705
  0
VERTEX
  8
0
 10
10.23702385
 20
-282.79976180
  0
VERTEX
  8
0
 10
4.09195285
 20
-282.79976180
  0
SEQEND
  0
POLYLINE
  8
Layer_1
 62
256
 66
   1
 39
0.000000
 70
    1
  0
VERTEX
  8
0
 10
12.80420680
 20
-282.79976180
  0
VERTEX
  8
0
 10
12.80420680
 20
-275.06889830
  0
VERTEX
  8
0
 10
18.94607620
 20
-275.06889830
  0
VERTEX
  8
0
 10
18.94607620
 20
-282.79976180
  0
VERTEX
  8
0
 10
12.80420680
 20
-282.79976180
  0
SEQEND
  0
POLYLINE
  8
Layer_1
 62
256
 66
   1
 39
0.000000
 70
    1
  0
VERTEX
  8
0
 10
4.09195285
 20
-273.55123985
  0
VERTEX
  8
0
 10
4.09195285
 20
-265.82137685
  0
VERTEX
  8
0
 10
10.21791430
 20
-265.82137685
  0
VERTEX
  8
0
 10
10.21791430
 20
-273.55123985
  0
VERTEX
  8
0
 10
4.09195285
 20
-273.55123985
  0
SEQEND
  0
POLYLINE
  8
Layer_1
 62
256
 66
   1
 39
0.000000
 70
    1
  0
VERTEX
  8
0
 10
12.79470205
 20
-273.55103975
  0
VERTEX
  8
0
 10
12.79470205
 20
-265.82137685
  0
VERTEX
  8
0
 10
18.94607620
 20
-265.82137685
  0
VERTEX
  8
0
 10
18.94607620
 20
-273.55103975
  0
VERTEX
  8
0
 10
12.79470205
 20
-273.55103975
  0
SEQEND
  0
POLYLINE
  8
Layer_1
 62
256
 66
   1
 39
0.000000
 70
    1
  0
VERTEX
  8
0
 10
21.53226865
 20
-282.79976180
  0
VERTEX
  8
0
 10
21.53226865
 20
-275.06639705
  0
VERTEX
  8
0
 10
27.67733965
 20
-275.06639705
  0
VERTEX
  8
0
 10
27.67733965
 20
-282.79976180
  0
VERTEX
  8
0
 10
21.53226865
 20
-282.79976180
  0
SEQEND
  0
POLYLINE
  8
Layer_1
 62
256
 66
   1
 39
0.000000
 70
    1
  0
VERTEX
  8
0
 10
30.24452260
 20
-282.79976180
  0
VERTEX
  8
0
 10
30.24452260
 20
-275.06889830
  0
VERTEX
  8
0
 10
36.38639200
 20
-275.06889830
  0
VERTEX
  8
0
 10
36.38639200
 20
-282.79976180
  0
VERTEX
  8
0
 10
30.24452260
 20
-282.79976180
  0
SEQEND
  0
POLYLINE
  8
Layer_1
 62
256
 66
   1
 39
0.000000
 70
    1
  0
VERTEX
  8
0
 10
21.53226865
 20
-273.55123985
  0
VERTEX
  8
0
 10
21.53226865
 20
-265.82137685
  0
VERTEX
  8
0
 10
27.65823010
 20
-265.82137685
  0
VERTEX
  8
0
 10
27.65823010
 20
-273.55123985
  0
VERTEX
  8
0
 10
21.53226865
 20
-273.55123985
  0
SEQEND
  0
POLYLINE
  8
Layer_1
 62
256
 66
   1
 39
0.000000
 70
    1
  0
VERTEX
  8
0
 10
30.23501785
 20
-273.55103975
  0
VERTEX
  8
0
 10
30.23501785
 20
-265.82137685
  0
VERTEX
  8
0
 10
36.38639200
 20
-265.82137685
  0
VERTEX
  8
0
 10
36.38639200
 20
-273.55103975
  0
VERTEX
  8
0
 10
30.23501785
 20
-273.55103975
  0
SEQEND
  0
POLYLINE
  8
Layer_1
 62
256
 66
   1
 39
0.000000
 70
    1
  0
VERTEX
  8
0
 10
-24.94115645
 20
-256.24048880
  0
VERTEX
  8
0
 10
-24.94115645
 20
-248.51072585
  0
VERTEX
  8
0
 10
-18.78988235
 20
-248.51072585
  0
VERTEX
  8
0
 10
-18.78988235
 20
-256.24048880
  0
VERTEX
  8
0
 10
-24.94115645
 20
-256.24048880
  0
SEQEND
  0
POLYLINE
  8
Layer_1
 62
256
 66
   1
 39
0.000000
 70
    1
  0
VERTEX
  8
0
 10
-33.64380560
 20
-256.24068890
  0
VERTEX
  8
0
 10
-33.64380560
 20
-248.51072585
  0
VERTEX
  8
0
 10
-27.51794420
 20
-248.51072585
  0
VERTEX
  8
0
 10
-27.51794420
 20
-256.24068890
  0
VERTEX
  8
0
 10
-33.64380560
 20
-256.24068890
  0
SEQEND
  0
POLYLINE
  8
Layer_1
 62
256
 66
   1
 39
0.000000
 70
    1
  0
VERTEX
  8
0
 10
-24.93185180
 20
-265.48931090
  0
VERTEX
  8
0
 10
-24.93185180
 20
-257.75844740
  0
VERTEX
  8
0
 10
-18.78988235
 20
-257.75844740
  0
VERTEX
  8
0
 10
-18.78988235
 20
-265.48931090
  0
VERTEX
  8
0
 10
-24.93185180
 20
-265.48931090
  0
SEQEND
  0
POLYLINE
  8
Layer_1
 62
256
 66
   1
 39
0.000000
 70
    1
  0
VERTEX
  8
0
 10
-33.64380560
 20
-265.48931090
  0
VERTEX
  8
0
 10
-33.64380560
 20
-257.75584610
  0
VERTEX
  8
0
 10
-27.49883465
 20
-257.75584610
  0
VERTEX
  8
0
 10
-27.49883465
 20
-265.48931090
  0
VERTEX
  8
0
 10
-33.64380560
 20
-265.48931090
  0
SEQEND
  0
POLYLINE
  8
Layer_1
 62
256
 66
   1
 39
0.000000
 70
    1
  0
VERTEX
  8
0
 10
46.70334790
 20
-302.47129265
  0
VERTEX
  8
0
 10
46.70334790
 20
-297.19695680
  0
VERTEX
  8
0
 10
43.95187285
 20
-297.19695680
  0
VERTEX
  8
0
 10
43.95187285
 20
-302.47129265
  0
VERTEX
  8
0
 10
46.70334790
 20
-302.47129265
  0
SEQEND
  0
POLYLINE
  8
Layer_1
 62
256
 66
   1
 39
0.000000
 70
    1
  0
VERTEX
  8
0
 10
46.75327285
 20
-278.93473025
  0
VERTEX
  8
0
 10
46.75327285
 20
-273.66039440
  0
VERTEX
  8
0
 10
44.00179780
 20
-273.66039440
  0
VERTEX
  8
0
 10
44.00179780
 20
-278.93473025
  0
VERTEX
  8
0
 10
46.75327285
 20
-278.93473025
  0
SEQEND
  0
POLYLINE
  8
Layer_1
 62
256
 66
   1
 39
0.000000
 70
    1
  0
VERTEX
  8
0
 10
-11.77527680
 20
-259.84879205
  0
VERTEX
  8
0
 10
-11.77527680
 20
-254.57445620
  0
VERTEX
  8
0
 10
-14.57667680
 20
-254.57445620
  0
VERTEX
  8
0
 10
-14.57667680
 20
-259.84879205
  0
VERTEX
  8
0
 10
-11.77527680
 20
-259.84879205
  0
SEQEND
  0
POLYLINE
  8
Layer_1
 62
256
 66
   1
 39
0.000000
 70
    1
  0
VERTEX
  8
0
 10
9.91036060
 20
-192.31003955
  0
VERTEX
  8
0
 10
4.75958650
 20
-192.31003955
  0
VERTEX
  8
0
 10
4.75958650
 20
-195.29413085
  0
VERTEX
  8
0
 10
-8.46222110
 20
-195.29413085
  0
VERTEX
  8
0
 10
-15.25651655
 20
-204.62879585
  0
VERTEX
  8
0
 10
-17.46872210
 20
-203.00088230
  0
VERTEX
  8
0
 10
-20.37607505
 20
-206.85911045
  0
VERTEX
  8
0
 10
-18.07922720
 20
-208.50693395
  0
VERTEX
  8
0
 10
-42.19978145
 20
-241.64609525
  0
VERTEX
  8
0
 10
-44.51073635
 20
-239.98746635
  0
VERTEX
  8
0
 10
-47.41808930
 20
-243.84569450
  0
VERTEX
  8
0
 10
-45.07161665
 20
-245.59176710
  0
VERTEX
  8
0
 10
-53.01278525
 20
-256.50211955
  0
VERTEX
  8
0
 10
-47.90593310
 20
-263.79946640
  0
VERTEX
  8
0
 10
-47.31119838
 20
-263.65360601
  0
VERTEX
  8
0
 10
-47.05474053
 20
-263.60875390
  0
VERTEX
  8
0
 10
-46.84740410
 20
-263.59756550
  0
VERTEX
  8
0
 10
-46.70181103
 20
-263.62760395
  0
VERTEX
  8
0
 10
-46.61522557
 20
-263.69132486
  0
VERTEX
  8
0
 10
-46.58122264
 20
-263.77750074
  0
VERTEX
  8
0
 10
-46.59337715
 20
-263.87490410
  0
VERTEX
  8
0
 10
-46.65308824
 20
-263.97955484
  0
VERTEX
  8
0
 10
-46.79305194
 20
-264.11646232
  0
VERTEX
  8
0
 10
-47.05378849
 20
-264.31788329
  0
VERTEX
  8
0
 10
-47.47581815
 20
-264.61607450
  0
VERTEX
  8
0
 10
-48.07520988
 20
-265.02945921
  0
VERTEX
  8
0
 10
-48.77015249
 20
-265.52060154
  0
VERTEX
  8
0
 10
-49.45434598
 20
-266.03819458
  0
VERTEX
  8
0
 10
-49.75919306
 20
-266.29087672
  0
VERTEX
  8
0
 10
-50.02149035
 20
-266.53093145
  0
VERTEX
  8
0
 10
-50.23108259
 20
-266.75331505
  0
VERTEX
  8
0
 10
-50.39036219
 20
-266.95821842
  0
VERTEX
  8
0
 10
-50.50486317
 20
-267.14719275
  0
VERTEX
  8
0
 10
-50.58011952
 20
-267.32178918
  0
VERTEX
  8
0
 10
-50.62166529
 20
-267.48355889
  0
VERTEX
  8
0
 10
-50.63503447
 20
-267.63405305
  0
VERTEX
  8
0
 10
-50.62576108
 20
-267.77482281
  0
VERTEX
  8
0
 10
-50.59937915
 20
-267.90741935
  0
VERTEX
  8
0
 10
-50.50963117
 20
-268.15650946
  0
VERTEX
  8
0
 10
-50.37109006
 20
-268.40434269
  0
VERTEX
  8
0
 10
-50.18126082
 20
-268.67615040
  0
VERTEX
  8
0
 10
-49.93764845
 20
-268.99716395
  0
VERTEX
  8
0
 10
-49.32214085
 20
-269.78034284
  0
VERTEX
  8
0
 10
-49.00444458
 20
-270.14502666
  0
VERTEX
  8
0
 10
-48.71983985
 20
-270.41787395
  0
VERTEX
  8
0
 10
-48.59731983
 20
-270.50372369
  0
VERTEX
  8
0
 10
-48.48240088
 20
-270.55292113
  0
VERTEX
  8
0
 10
-48.36696370
 20
-270.56561986
  0
VERTEX
  8
0
 10
-48.24288899
 20
-270.54197347
  0
VERTEX
  8
0
 10
-48.10205748
 20
-270.48213556
  0
VERTEX
  8
0
 10
-47.93634986
 20
-270.38625971
  0
VERTEX
  8
0
 10
-47.49782915
 20
-270.08700860
  0
VERTEX
  8
0
 10
-46.18030822
 20
-269.16265916
  0
VERTEX
  8
0
 10
-45.46713150
 20
-268.67731192
  0
VERTEX
  8
0
 10
-44.84620400
 20
-268.27800455
  0
VERTEX
  8
0
 10
-44.39075139
 20
-268.02146853
  0
VERTEX
  8
0
 10
-44.08132175
 20
-267.88652141
  0
VERTEX
  8
0
 10
-43.87529379
 20
-267.83263354
  0
VERTEX
  8
0
 10
-43.73004620
 20
-267.81927530
  0
VERTEX
  8
0
 10
-43.51001124
 20
-267.81704919
  0
VERTEX
  8
0
 10
-43.43039332
 20
-267.83660896
  0
VERTEX
  8
0
 10
-43.37266760
 20
-267.88100615
  0
VERTEX
  8
0
 10
-43.33746094
 20
-267.95546055
  0
VERTEX
  8
0
 10
-43.32250503
 20
-268.05305463
  0
VERTEX
  8
0
 10
-43.34175215
 20
-268.27800455
  0
VERTEX
  8
0
 10
-43.37390416
 20
-268.38999802
  0
VERTEX
  8
0
 10
-43.43666208
 20
-268.51189644
  0
VERTEX
  8
0
 10
-43.54903855
 20
-268.66024557
  0
VERTEX
  8
0
 10
-43.73004620
 20
-268.85159120
  0
VERTEX
  8
0
 10
-43.99464093
 20
-269.09869438
  0
VERTEX
  8
0
 10
-44.34110157
 20
-269.39872713
  0
VERTEX
  8
0
 10
-45.25650905
 20
-270.13113065
  0
VERTEX
  8
0
 10
-46.35792198
 20
-270.95778127
  0
VERTEX
  8
0
 10
-46.85546907
 20
-271.33282338
  0
VERTEX
  8
0
 10
-47.23759910
 20
-271.63548245
  0
VERTEX
  8
0
 10
-47.36806879
 20
-271.75090244
  0
VERTEX
  8
0
 10
-47.45577532
 20
-271.84812466
  0
VERTEX
  8
0
 10
-47.50180555
 20
-271.93583353
  0
VERTEX
  8
0
 10
-47.50724636
 20
-272.02271347
  0
VERTEX
  8
0
 10
-47.47318461
 20
-272.11744890
  0
VERTEX
  8
0
 10
-47.40070718
 20
-272.22872424
  0
VERTEX
  8
0
 10
-47.14485275
 20
-272.53563230
  0
VERTEX
  8
0
 10
-46.29173891
 20
-273.52006177
  0
VERTEX
  8
0
 10
-45.81034364
 20
-274.04764261
  0
VERTEX
  8
0
 10
-45.37566860
 20
-274.48130465
  0
VERTEX
  8
0
 10
-45.19355454
 20
-274.63812208
  0
VERTEX
  8
0
 10
-45.03542669
 20
-274.75465376
  0
VERTEX
  8
0
 10
-44.89797636
 20
-274.83612416
  0
VERTEX
  8
0
 10
-44.77789486
 20
-274.88775777
  0
VERTEX
  8
0
 10
-44.67187352
 20
-274.91477909
  0
VERTEX
  8
0
 10
-44.57660364
 20
-274.92241259
  0
VERTEX
  8
0
 10
-44.40508355
 20
-274.90041410
  0
VERTEX
  8
0
 10
-44.23548629
 20
-274.85092062
  0
VERTEX
  8
0
 10
-44.03444832
 20
-274.75261524
  0
VERTEX
  8
0
 10
-43.76722728
 20
-274.57158102
  0
VERTEX
  8
0
 10
-43.39908080
 20
-274.27390100
  0
VERTEX
  8
0
 10
-42.36557681
 20
-273.34354856
  0
VERTEX
  8
0
 10
-41.37837095
 20
-272.44298600
  0
VERTEX
  8
0
 10
-41.06708413
 20
-272.18156160
  0
VERTEX
  8
0
 10
-40.87326852
 20
-272.04586254
  0
VERTEX
  8
0
 10
-40.75554094
 20
-271.99619397
  0
VERTEX
  8
0
 10
-40.67251820
 20
-271.99286105
  0
VERTEX
  8
0
 10
-40.50983690
 20
-272.02212567
  0
VERTEX
  8
0
 10
-40.43612194
 20
-272.05181239
  0
VERTEX
  8
0
 10
-40.37687045
 20
-272.09431175
  0
VERTEX
  8
0
 10
-40.33760551
 20
-272.15108700
  0
VERTEX
  8
0
 10
-40.31735321
 20
-272.22067490
  0
VERTEX
  8
0
 10
-40.32394400
 20
-272.38995950
  0
VERTEX
  8
0
 10
-40.37967185
 20
-272.58304349
  0
VERTEX
  8
0
 10
-40.47832115
 20
-272.76944915
  0
VERTEX
  8
0
 10
-40.61148770
 20
-272.92581479
  0
VERTEX
  8
0
 10
-40.74915650
 20
-273.06739805
  0
VERTEX
  8
0
 10
-40.93981428
 20
-273.27426393
  0
VERTEX
  8
0
 10
-41.11523945
 20
-273.48630740
  0
VERTEX
  8
0
 10
-23.17207235
 20
-299.10100835
  0
VERTEX
  8
0
 10
-22.50996646
 20
-298.92093086
  0
VERTEX
  8
0
 10
-22.20721204
 20
-298.85255450
  0
VERTEX
  8
0
 10
-21.97887605
 20
-298.83067325
  0
VERTEX
  8
0
 10
-21.83328298
 20
-298.86066949
  0
VERTEX
  8
0
 10
-21.74669752
 20
-298.92439509
  0
VERTEX
  8
0
 10
-21.71269459
 20
-299.01059442
  0
VERTEX
  8
0
 10
-21.72484910
 20
-299.10801185
  0
VERTEX
  8
0
 10
-21.78456019
 20
-299.21266259
  0
VERTEX
  8
0
 10
-21.92452389
 20
-299.34957007
  0
VERTEX
  8
0
 10
-22.18526044
 20
-299.55099104
  0
VERTEX
  8
0
 10
-22.60729010
 20
-299.84918225
  0
VERTEX
  8
0
 10
-23.20668183
 20
-300.26256696
  0
VERTEX
  8
0
 10
-23.90162444
 20
-300.75370929
  0
VERTEX
  8
0
 10
-24.58581793
 20
-301.27130233
  0
VERTEX
  8
0
 10
-24.89066501
 20
-301.52398447
  0
VERTEX
  8
0
 10
-25.15296230
 20
-301.76403920
  0
VERTEX
  8
0
 10
-25.36255454
 20
-301.98642280
  0
VERTEX
  8
0
 10
-25.52183414
 20
-302.19132617
  0
VERTEX
  8
0
 10
-25.63633512
 20
-302.38030050
  0
VERTEX
  8
0
 10
-25.71159147
 20
-302.55489693
  0
VERTEX
  8
0
 10
-25.75313724
 20
-302.71666664
  0
VERTEX
  8
0
 10
-25.76650642
 20
-302.86716080
  0
VERTEX
  8
0
 10
-25.75723303
 20
-303.00793056
  0
VERTEX
  8
0
 10
-25.73085110
 20
-303.14052710
  0
VERTEX
  8
0
 10
-25.64110312
 20
-303.38961721
  0
VERTEX
  8
0
 10
-25.50256201
 20
-303.63745044
  0
VERTEX
  8
0
 10
-25.31273277
 20
-303.90925815
  0
VERTEX
  8
0
 10
-25.06912040
 20
-304.23027170
  0
VERTEX
  8
0
 10
-24.45361280
 20
-305.01345059
  0
VERTEX
  8
0
 10
-24.13591653
 20
-305.37813441
  0
VERTEX
  8
0
 10
-23.85131180
 20
-305.65098170
  0
VERTEX
  8
0
 10
-23.72879178
 20
-305.73683144
  0
VERTEX
  8
0
 10
-23.61387283
 20
-305.78602888
  0
VERTEX
  8
0
 10
-23.49843565
 20
-305.79872761
  0
VERTEX
  8
0
 10
-23.37436094
 20
-305.77508122
  0
VERTEX
  8
0
 10
-23.23352943
 20
-305.71524331
  0
VERTEX
  8
0
 10
-23.06782181
 20
-305.61936746
  0
VERTEX
  8
0
 10
-22.62930110
 20
-305.32011635
  0
VERTEX
  8
0
 10
-21.31178017
 20
-304.39576691
  0
VERTEX
  8
0
 10
-20.59860345
 20
-303.91041967
  0
VERTEX
  8
0
 10
-19.97767595
 20
-303.51111230
  0
VERTEX
  8
0
 10
-19.52222334
 20
-303.25457628
  0
VERTEX
  8
0
 10
-19.21279370
 20
-303.11962916
  0
VERTEX
  8
0
 10
-19.00676574
 20
-303.06574129
  0
VERTEX
  8
0
 10
-18.86151815
 20
-303.05238305
  0
VERTEX
  8
0
 10
-18.64148319
 20
-303.05015694
  0
VERTEX
  8
0
 10
-18.56186527
 20
-303.06971671
  0
VERTEX
  8
0
 10
-18.50413955
 20
-303.11411390
  0
VERTEX
  8
0
 10
-18.46893289
 20
-303.18856830
  0
VERTEX
  8
0
 10
-18.45397698
 20
-303.28616238
  0
VERTEX
  8
0
 10
-18.47322410
 20
-303.51111230
  0
VERTEX
  8
0
 10
-18.50537611
 20
-303.62310577
  0
VERTEX
  8
0
 10
-18.56813403
 20
-303.74500419
  0
VERTEX
  8
0
 10
-18.68051050
 20
-303.89335332
  0
VERTEX
  8
0
 10
-18.86151815
 20
-304.08469895
  0
VERTEX
  8
0
 10
-19.12611288
 20
-304.33180213
  0
VERTEX
  8
0
 10
-19.47257352
 20
-304.63183488
  0
VERTEX
  8
0
 10
-20.38798100
 20
-305.36423840
  0
VERTEX
  8
0
 10
-21.48939393
 20
-306.19088902
  0
VERTEX
  8
0
 10
-21.98694102
 20
-306.56593113
  0
VERTEX
  8
0
 10
-22.36907105
 20
-306.86859020
  0
VERTEX
  8
0
 10
-22.49954074
 20
-306.98401019
  0
VERTEX
  8
0
 10
-22.58724727
 20
-307.08123241
  0
VERTEX
  8
0
 10
-22.63327750
 20
-307.16894128
  0
VERTEX
  8
0
 10
-22.63871831
 20
-307.25582122
  0
VERTEX
  8
0
 10
-22.60465656
 20
-307.35055665
  0
VERTEX
  8
0
 10
-22.53217913
 20
-307.46183199
  0
VERTEX
  8
0
 10
-22.27632470
 20
-307.76874005
  0
VERTEX
  8
0
 10
-21.42321086
 20
-308.75316952
  0
VERTEX
  8
0
 10
-20.94181559
 20
-309.28075036
  0
VERTEX
  8
0
 10
-20.50714055
 20
-309.71441240
  0
VERTEX
  8
0
 10
-20.32502649
 20
-309.87122983
  0
VERTEX
  8
0
 10
-20.16689864
 20
-309.98776151
  0
VERTEX
  8
0
 10
-20.02944831
 20
-310.06923191
  0
VERTEX
  8
0
 10
-19.90936681
 20
-310.12086552
  0
VERTEX
  8
0
 10
-19.80334547
 20
-310.14788684
  0
VERTEX
  8
0
 10
-19.70807559
 20
-310.15552034
  0
VERTEX
  8
0
 10
-19.53655550
 20
-310.13352185
  0
VERTEX
  8
0
 10
-19.36695824
 20
-310.08402837
  0
VERTEX
  8
0
 10
-19.16592027
 20
-309.98572299
  0
VERTEX
  8
0
 10
-18.89869923
 20
-309.80468877
  0
VERTEX
  8
0
 10
-18.53055275
 20
-309.50700875
  0
VERTEX
  8
0
 10
-17.49704876
 20
-308.57665631
  0
VERTEX
  8
0
 10
-16.50984290
 20
-307.67609375
  0
VERTEX
  8
0
 10
-16.19855608
 20
-307.41466935
  0
VERTEX
  8
0
 10
-16.00474047
 20
-307.27897029
  0
VERTEX
  8
0
 10
-15.88701289
 20
-307.22930172
  0
VERTEX
  8
0
 10
-15.80399015
 20
-307.22596880
  0
VERTEX
  8
0
 10
-15.64130885
 20
-307.25523342
  0
VERTEX
  8
0
 10
-15.56759389
 20
-307.28492014
  0
VERTEX
  8
0
 10
-15.50834240
 20
-307.32741950
  0
VERTEX
  8
0
 10
-15.46907746
 20
-307.38419475
  0
VERTEX
  8
0
 10
-15.44882516
 20
-307.45378265
  0
VERTEX
  8
0
 10
-15.45541595
 20
-307.62306725
  0
VERTEX
  8
0
 10
-15.51114380
 20
-307.81615124
  0
VERTEX
  8
0
 10
-15.60979310
 20
-308.00255690
  0
VERTEX
  8
0
 10
-15.74299717
 20
-308.15892254
  0
VERTEX
  8
0
 10
-15.88062845
 20
-308.30050580
  0
VERTEX
  8
0
 10
-16.12747681
 20
-308.56104851
  0
VERTEX
  8
0
 10
-16.35916760
 20
-308.82676880
  0
VERTEX
  8
0
 10
-12.43340570
 20
-314.43086945
  0
VERTEX
  8
0
 10
4.92546940
 20
-314.43086945
  0
VERTEX
  8
0
 10
4.92546940
 20
-317.34632645
  0
VERTEX
  8
0
 10
10.08254665
 20
-317.34632645
  0
VERTEX
  8
0
 10
10.08254665
 20
-314.43086945
  0
VERTEX
  8
0
 10
41.21810665
 20
-314.43086945
  0
VERTEX
  8
0
 10
41.21810665
 20
-317.35292975
  0
VERTEX
  8
0
 10
46.36617940
 20
-317.35292975
  0
VERTEX
  8
0
 10
46.36617940
 20
-314.43086945
  0
VERTEX
  8
0
 10
59.98798690
 20
-314.43086945
  0
VERTEX
  8
0
 10
59.98798690
 20
-314.17804310
  0
VERTEX
  8
0
 10
62.88943690
 20
-314.17804310
  0
VERTEX
  8
0
 10
62.88943690
 20
-308.86158620
  0
VERTEX
  8
0
 10
59.98798690
 20
-308.86158620
  0
VERTEX
  8
0
 10
59.98798690
 20
-206.90183180
  0
VERTEX
  8
0
 10
62.88943690
 20
-206.90183180
  0
VERTEX
  8
0
 10
62.88943690
 20
-201.58537490
  0
VERTEX
  8
0
 10
59.98798690
 20
-201.58537490
  0
VERTEX
  8
0
 10
59.98798690
 20
-195.29413085
  0
VERTEX
  8
0
 10
45.72555925
 20
-195.29413085
  0
VERTEX
  8
0
 10
45.72555925
 20
-192.36316610
  0
VERTEX
  8
0
 10
40.56948250
 20
-192.36316610
  0
VERTEX
  8
0
 10
40.56948250
 20
-195.29413085
  0
VERTEX
  8
0
 10
9.91036060
 20
-195.29413085
  0
VERTEX
  8
0
 10
9.91036060
 20
-192.31003955
  0
SEQEND
  0
POLYLINE
  8
Layer_1
 62
256
 66
   1
 39
0.000000
 70
    1
  0
VERTEX
  8
0
 10
-81.37445900
 20
-249.11052560
  0
VERTEX
  8
0
 10
-120.99605990
 20
-249.11052560
  0
VERTEX
  8
0
 10
-120.99605990
 20
-225.81268250
  0
VERTEX
  8
0
 10
-81.37445900
 20
-225.81268250
  0
VERTEX
  8
0
 10
-81.37445900
 20
-228.81418250
  0
VERTEX
  8
0
 10
-117.99455990
 20
-228.81418250
  0
VERTEX
  8
0
 10
-117.99455990
 20
-246.10902560
  0
VERTEX
  8
0
 10
-81.37445900
 20
-246.10902560
  0
VERTEX
  8
0
 10
-81.37445900
 20
-249.11052560
  0
SEQEND
  0
POLYLINE
  8
Layer_1
 62
256
 66
   1
 39
0.000000
 70
    1
  0
VERTEX
  8
0
 10
-23.00658965
 20
-170.66872430
  0
VERTEX
  8
0
 10
-23.00658965
 20
-137.05012340
  0
VERTEX
  8
0
 10
-5.71174655
 20
-137.05012340
  0
VERTEX
  8
0
 10
-5.71174655
 20
-170.66872430
  0
VERTEX
  8
0
 10
-23.00658965
 20
-170.66872430
  0
SEQEND
  0
POLYLINE
  8
Layer_1
 62
256
 66
   1
 39
0.000000
 70
    1
  0
VERTEX
  8
0
 10
0.29125345
 20
-170.66872430
  0
VERTEX
  8
0
 10
0.29125345
 20
-137.05012340
  0
VERTEX
  8
0
 10
17.58609655
 20
-137.05012340
  0
VERTEX
  8
0
 10
17.58609655
 20
-170.66872430
  0
VERTEX
  8
0
 10
0.29125345
 20
-170.66872430
  0
SEQEND
  0
POLYLINE
  8
Layer_1
 62
256
 66
   1
 39
0.000000
 70
    1
  0
VERTEX
  8
0
 10
-2.71024655
 20
-173.67022430
  0
VERTEX
  8
0
 10
-2.71024655
 20
-134.04862340
  0
VERTEX
  8
0
 10
20.58759655
 20
-134.04862340
  0
VERTEX
  8
0
 10
20.58759655
 20
-173.67022430
  0
VERTEX
  8
0
 10
-2.71024655
 20
-173.67022430
  0
SEQEND
  0
POLYLINE
  8
Layer_1
 62
256
 66
   1
 39
0.000000
 70
    1
  0
VERTEX
  8
0
 10
93.52824865
 20
-28.81483280
  0
VERTEX
  8
0
 10
93.52824865
 20
-21.08146805
  0
VERTEX
  8
0
 10
99.67331965
 20
-21.08146805
  0
VERTEX
  8
0
 10
99.67331965
 20
-28.81483280
  0
VERTEX
  8
0
 10
93.52824865
 20
-28.81483280
  0
SEQEND
  0
POLYLINE
  8
Layer_1
 62
256
 66
   1
 39
0.000000
 70
    1
  0
VERTEX
  8
0
 10
102.24050260
 20
-28.81483280
  0
VERTEX
  8
0
 10
102.24050260
 20
-21.08396930
  0
VERTEX
  8
0
 10
108.38237200
 20
-21.08396930
  0
VERTEX
  8
0
 10
108.38237200
 20
-28.81483280
  0
VERTEX
  8
0
 10
102.24050260
 20
-28.81483280
  0
SEQEND
  0
POLYLINE
  8
Layer_1
 62
256
 66
   1
 39
0.000000
 70
    1
  0
VERTEX
  8
0
 10
93.52824865
 20
-19.56631085
  0
VERTEX
  8
0
 10
93.52824865
 20
-11.83644785
  0
VERTEX
  8
0
 10
99.65421010
 20
-11.83644785
  0
VERTEX
  8
0
 10
99.65421010
 20
-19.56631085
  0
VERTEX
  8
0
 10
93.52824865
 20
-19.56631085
  0
SEQEND
  0
POLYLINE
  8
Layer_1
 62
256
 66
   1
 39
0.000000
 70
    1
  0
VERTEX
  8
0
 10
102.23099785
 20
-19.56611075
  0
VERTEX
  8
0
 10
102.23099785
 20
-11.83644785
  0
VERTEX
  8
0
 10
108.38237200
 20
-11.83644785
  0
VERTEX
  8
0
 10
108.38237200
 20
-19.56611075
  0
VERTEX
  8
0
 10
102.23099785
 20
-19.56611075
  0
SEQEND
  0
POLYLINE
  8
Layer_1
 62
256
 66
   1
 39
0.000000
 70
    1
  0
VERTEX
  8
0
 10
110.96856445
 20
-28.81483280
  0
VERTEX
  8
0
 10
110.96856445
 20
-21.08146805
  0
VERTEX
  8
0
 10
117.11363545
 20
-21.08146805
  0
VERTEX
  8
0
 10
117.11363545
 20
-28.81483280
  0
VERTEX
  8
0
 10
110.96856445
 20
-28.81483280
  0
SEQEND
  0
POLYLINE
  8
Layer_1
 62
256
 66
   1
 39
0.000000
 70
    1
  0
VERTEX
  8
0
 10
119.68081840
 20
-28.81483280
  0
VERTEX
  8
0
 10
119.68081840
 20
-21.08396930
  0
VERTEX
  8
0
 10
125.82268780
 20
-21.08396930
  0
VERTEX
  8
0
 10
125.82268780
 20
-28.81483280
  0
VERTEX
  8
0
 10
119.68081840
 20
-28.81483280
  0
SEQEND
  0
POLYLINE
  8
Layer_1
 62
256
 66
   1
 39
0.000000
 70
    1
  0
VERTEX
  8
0
 10
110.96856445
 20
-19.56631085
  0
VERTEX
  8
0
 10
110.96856445
 20
-11.83644785
  0
VERTEX
  8
0
 10
117.09452590
 20
-11.83644785
  0
VERTEX
  8
0
 10
117.09452590
 20
-19.56631085
  0
VERTEX
  8
0
 10
110.96856445
 20
-19.56631085
  0
SEQEND
  0
POLYLINE
  8
Layer_1
 62
256
 66
   1
 39
0.000000
 70
    1
  0
VERTEX
  8
0
 10
119.67131365
 20
-19.56611075
  0
VERTEX
  8
0
 10
119.67131365
 20
-11.83644785
  0
VERTEX
  8
0
 10
125.82268780
 20
-11.83644785
  0
VERTEX
  8
0
 10
125.82268780
 20
-19.56611075
  0
VERTEX
  8
0
 10
119.67131365
 20
-19.56611075
  0
SEQEND
  0
POLYLINE
  8
Layer_1
 62
256
 66
   1
 39
0.000000
 70
    1
  0
VERTEX
  8
0
 10
78.81449545
 20
40.47149305
  0
VERTEX
  8
0
 10
71.36587300
 20
30.30581275
  0
VERTEX
  8
0
 10
68.95616875
 20
31.91441665
  0
VERTEX
  8
0
 10
66.10454365
 20
28.01476780
  0
VERTEX
  8
0
 10
68.40489325
 20
26.26479325
  0
VERTEX
  8
0
 10
54.50834845
 20
7.29911515
  0
VERTEX
  8
0
 10
52.07213095
 20
8.92552795
  0
VERTEX
  8
0
 10
49.22050585
 20
5.02587910
  0
VERTEX
  8
0
 10
51.54626815
 20
3.25659490
  0
VERTEX
  8
0
 10
42.83811625
 20
-8.62814450
  0
VERTEX
  8
0
 10
50.81620330
 20
-19.65125330
  0
VERTEX
  8
0
 10
48.43231195
 20
-21.35990720
  0
VERTEX
  8
0
 10
51.26392705
 20
-25.27406330
  0
VERTEX
  8
0
 10
53.65352125
 20
-23.57141240
  0
VERTEX
  8
0
 10
67.56937570
 20
-42.79852115
  0
VERTEX
  8
0
 10
65.22220270
 20
-44.48086190
  0
VERTEX
  8
0
 10
68.05381780
 20
-48.39501800
  0
VERTEX
  8
0
 10
70.40659360
 20
-46.71858020
  0
VERTEX
  8
0
 10
76.51014385
 20
-55.15169465
  0
VERTEX
  8
0
 10
83.06201815
 20
-55.09896830
  0
VERTEX
  8
0
 10
87.57517360
 20
-74.18230520
  0
VERTEX
  8
0
 10
84.74365855
 20
-74.82802790
  0
VERTEX
  8
0
 10
85.83520405
 20
-79.53407975
  0
VERTEX
  8
0
 10
88.69293220
 20
-78.90856715
  0
VERTEX
  8
0
 10
92.64490720
 20
-95.61891815
  0
VERTEX
  8
0
 10
146.16525400
 20
-95.61891815
  0
VERTEX
  8
0
 10
146.16525400
 20
-94.48555175
  0
VERTEX
  8
0
 10
149.08161145
 20
-94.48555175
  0
VERTEX
  8
0
 10
149.08161145
 20
-89.16449255
  0
VERTEX
  8
0
 10
146.16525400
 20
-89.16449255
  0
VERTEX
  8
0
 10
146.16525400
 20
-88.49235665
  0
VERTEX
  8
0
 10
94.62579715
 20
-88.49235665
  0
VERTEX
  8
0
 10
94.62579715
 20
-57.04394030
  0
VERTEX
  8
0
 10
146.16525400
 20
-57.04394030
  0
VERTEX
  8
0
 10
146.16525400
 20
-50.91367670
  0
VERTEX
  8
0
 10
149.09281705
 20
-50.91367670
  0
VERTEX
  8
0
 10
149.09281705
 20
-45.63513875
  0
VERTEX
  8
0
 10
146.16525400
 20
-45.63513875
  0
VERTEX
  8
0
 10
146.16525400
 20
27.93172630
  0
VERTEX
  8
0
 10
149.07460795
 20
27.93172630
  0
VERTEX
  8
0
 10
149.07460795
 20
33.24618220
  0
VERTEX
  8
0
 10
146.16525400
 20
33.24618220
  0
VERTEX
  8
0
 10
146.16525400
 20
40.47149305
  0
VERTEX
  8
0
 10
78.81449545
 20
40.47149305
  0
SEQEND
  0
POLYLINE
  8
Layer_1
 62
256
 66
   1
 39
0.000000
 70
    1
  0
VERTEX
  8
0
 10
93.53395150
 20
-5.24155205
  0
VERTEX
  8
0
 10
93.53395150
 20
2.49181270
  0
VERTEX
  8
0
 10
99.67902250
 20
2.49181270
  0
VERTEX
  8
0
 10
99.67902250
 20
-5.24155205
  0
VERTEX
  8
0
 10
93.53395150
 20
-5.24155205
  0
SEQEND
  0
POLYLINE
  8
Layer_1
 62
256
 66
   1
 39
0.000000
 70
    1
  0
VERTEX
  8
0
 10
102.24620545
 20
-5.24155205
  0
VERTEX
  8
0
 10
102.24620545
 20
2.48931145
  0
VERTEX
  8
0
 10
108.38807485
 20
2.48931145
  0
VERTEX
  8
0
 10
108.38807485
 20
-5.24155205
  0
VERTEX
  8
0
 10
102.24620545
 20
-5.24155205
  0
SEQEND
  0
POLYLINE
  8
Layer_1
 62
256
 66
   1
 39
0.000000
 70
    1
  0
VERTEX
  8
0
 10
93.53395150
 20
4.00696990
  0
VERTEX
  8
0
 10
93.53395150
 20
11.73683290
  0
VERTEX
  8
0
 10
99.65991295
 20
11.73683290
  0
VERTEX
  8
0
 10
99.65991295
 20
4.00696990
  0
VERTEX
  8
0
 10
93.53395150
 20
4.00696990
  0
SEQEND
  0
POLYLINE
  8
Layer_1
 62
256
 66
   1
 39
0.000000
 70
    1
  0
VERTEX
  8
0
 10
102.23670070
 20
4.00717000
  0
VERTEX
  8
0
 10
102.23670070
 20
11.73683290
  0
VERTEX
  8
0
 10
108.38807485
 20
11.73683290
  0
VERTEX
  8
0
 10
108.38807485
 20
4.00717000
  0
VERTEX
  8
0
 10
102.23670070
 20
4.00717000
  0
SEQEND
  0
POLYLINE
  8
Layer_1
 62
256
 66
   1
 39
0.000000
 70
    1
  0
VERTEX
  8
0
 10
110.97426730
 20
-5.24155205
  0
VERTEX
  8
0
 10
110.97426730
 20
2.49181270
  0
VERTEX
  8
0
 10
117.11933830
 20
2.49181270
  0
VERTEX
  8
0
 10
117.11933830
 20
-5.24155205
  0
VERTEX
  8
0
 10
110.97426730
 20
-5.24155205
  0
SEQEND
  0
POLYLINE
  8
Layer_1
 62
256
 66
   1
 39
0.000000
 70
    1
  0
VERTEX
  8
0
 10
119.68652125
 20
-5.24155205
  0
VERTEX
  8
0
 10
119.68652125
 20
2.48931145
  0
VERTEX
  8
0
 10
125.82839065
 20
2.48931145
  0
VERTEX
  8
0
 10
125.82839065
 20
-5.24155205
  0
VERTEX
  8
0
 10
119.68652125
 20
-5.24155205
  0
SEQEND
  0
POLYLINE
  8
Layer_1
 62
256
 66
   1
 39
0.000000
 70
    1
  0
VERTEX
  8
0
 10
110.97426730
 20
4.00696990
  0
VERTEX
  8
0
 10
110.97426730
 20
11.73683290
  0
VERTEX
  8
0
 10
117.10022875
 20
11.73683290
  0
VERTEX
  8
0
 10
117.10022875
 20
4.00696990
  0
VERTEX
  8
0
 10
110.97426730
 20
4.00696990
  0
SEQEND
  0
POLYLINE
  8
Layer_1
 62
256
 66
   1
 39
0.000000
 70
    1
  0
VERTEX
  8
0
 10
119.67701650
 20
4.00717000
  0
VERTEX
  8
0
 10
119.67701650
 20
11.73683290
  0
VERTEX
  8
0
 10
125.82839065
 20
11.73683290
  0
VERTEX
  8
0
 10
125.82839065
 20
4.00717000
  0
VERTEX
  8
0
 10
119.67701650
 20
4.00717000
  0
SEQEND
  0
POLYLINE
  8
Layer_1
 62
256
 66
   1
 39
0.000000
 70
    1
  0
VERTEX
  8
0
 10
72.06442210
 20
1.55924665
  0
VERTEX
  8
0
 10
72.06442210
 20
-7.60223180
  0
VERTEX
  8
0
 10
63.38908660
 20
-7.60223180
  0
VERTEX
  8
0
 10
63.43202047
 20
-7.16079572
  0
VERTEX
  8
0
 10
63.49387151
 20
-6.72517364
  0
VERTEX
  8
0
 10
63.57422006
 20
-6.29578506
  0
VERTEX
  8
0
 10
63.67264647
 20
-5.87304948
  0
VERTEX
  8
0
 10
63.78873110
 20
-5.45738640
  0
VERTEX
  8
0
 10
63.92205429
 20
-5.04921533
  0
VERTEX
  8
0
 10
64.07219640
 20
-4.64895577
  0
VERTEX
  8
0
 10
64.23873778
 20
-4.25702722
  0
VERTEX
  8
0
 10
64.42125877
 20
-3.87384919
  0
VERTEX
  8
0
 10
64.61933972
 20
-3.49984118
  0
VERTEX
  8
0
 10
64.83256100
 20
-3.13542268
  0
VERTEX
  8
0
 10
65.06050295
 20
-2.78101322
  0
VERTEX
  8
0
 10
65.30274591
 20
-2.43703227
  0
VERTEX
  8
0
 10
65.55887024
 20
-2.10389936
  0
VERTEX
  8
0
 10
65.82845629
 20
-1.78203399
  0
VERTEX
  8
0
 10
66.11108442
 20
-1.47185564
  0
VERTEX
  8
0
 10
66.40633496
 20
-1.17378384
  0
VERTEX
  8
0
 10
66.71378828
 20
-0.88823808
  0
VERTEX
  8
0
 10
67.03302472
 20
-0.61563786
  0
VERTEX
  8
0
 10
67.36362463
 20
-0.35640269
  0
VERTEX
  8
0
 10
67.70516837
 20
-0.11095207
  0
VERTEX
  8
0
 10
68.05723628
 20
0.12029450
  0
VERTEX
  8
0
 10
68.41940872
 20
0.33691751
  0
VERTEX
  8
0
 10
68.79126603
 20
0.53849747
  0
VERTEX
  8
0
 10
69.17238856
 20
0.72461486
  0
VERTEX
  8
0
 10
69.56235668
 20
0.89485019
  0
VERTEX
  8
0
 10
69.96075072
 20
1.04878395
  0
VERTEX
  8
0
 10
70.36715104
 20
1.18599664
  0
VERTEX
  8
0
 10
70.78113798
 20
1.30606876
  0
VERTEX
  8
0
 10
71.20229191
 20
1.40858080
  0
VERTEX
  8
0
 10
71.63019316
 20
1.49311327
  0
VERTEX
  8
0
 10
72.06442210
 20
1.55924665
  0
SEQEND
  0
POLYLINE
  8
Layer_1
 62
256
 66
   1
 39
0.000000
 70
    1
  0
VERTEX
  8
0
 10
74.64120985
 20
1.56284845
  0
VERTEX
  8
0
 10
75.07658333
 20
1.49767161
  0
VERTEX
  8
0
 10
75.50562815
 20
1.41400312
  0
VERTEX
  8
0
 10
75.92792248
 20
1.31226488
  0
VERTEX
  8
0
 10
76.34304452
 20
1.19287879
  0
VERTEX
  8
0
 10
76.75057246
 20
1.05626676
  0
VERTEX
  8
0
 10
77.15008449
 20
0.90285070
  0
VERTEX
  8
0
 10
77.54115879
 20
0.73305249
  0
VERTEX
  8
0
 10
77.92337355
 20
0.54729405
  0
VERTEX
  8
0
 10
78.29630697
 20
0.34599728
  0
VERTEX
  8
0
 10
78.65953722
 20
0.12958408
  0
VERTEX
  8
0
 10
79.01264251
 20
-0.10152365
  0
VERTEX
  8
0
 10
79.35520102
 20
-0.34690400
  0
VERTEX
  8
0
 10
79.68679093
 20
-0.60613507
  0
VERTEX
  8
0
 10
80.00699045
 20
-0.87879495
  0
VERTEX
  8
0
 10
80.31537775
 20
-1.16446176
  0
VERTEX
  8
0
 10
80.61153102
 20
-1.46271357
  0
VERTEX
  8
0
 10
80.89502846
 20
-1.77312850
  0
VERTEX
  8
0
 10
81.16544824
 20
-2.09528463
  0
VERTEX
  8
0
 10
81.42236857
 20
-2.42876007
  0
VERTEX
  8
0
 10
81.66536763
 20
-2.77313291
  0
VERTEX
  8
0
 10
81.89402361
 20
-3.12798125
  0
VERTEX
  8
0
 10
82.10791470
 20
-3.49288318
  0
VERTEX
  8
0
 10
82.30661908
 20
-3.86741681
  0
VERTEX
  8
0
 10
82.48971495
 20
-4.25116023
  0
VERTEX
  8
0
 10
82.65678050
 20
-4.64369153
  0
VERTEX
  8
0
 10
82.80739390
 20
-5.04458882
  0
VERTEX
  8
0
 10
82.94113336
 20
-5.45343020
  0
VERTEX
  8
0
 10
83.05757706
 20
-5.86979375
  0
VERTEX
  8
0
 10
83.15630319
 20
-6.29325758
  0
VERTEX
  8
0
 10
83.23688994
 20
-6.72339978
  0
VERTEX
  8
0
 10
83.29891550
 20
-7.15979846
  0
VERTEX
  8
0
 10
83.34195805
 20
-7.60203170
  0
VERTEX
  8
0
 10
74.64120985
 20
-7.60203170
  0
VERTEX
  8
0
 10
74.64120985
 20
1.56284845
  0
SEQEND
  0
POLYLINE
  8
Layer_1
 62
256
 66
   1
 39
0.000000
 70
    1
  0
VERTEX
  8
0
 10
83.34205810
 20
-9.11989025
  0
VERTEX
  8
0
 10
83.29910102
 20
-9.56187418
  0
VERTEX
  8
0
 10
83.23718135
 20
-9.99803193
  0
VERTEX
  8
0
 10
83.15672019
 20
-10.42794237
  0
VERTEX
  8
0
 10
83.05813867
 20
-10.85118437
  0
VERTEX
  8
0
 10
82.94185790
 20
-11.26733679
  0
VERTEX
  8
0
 10
82.80829900
 20
-11.67597850
  0
VERTEX
  8
0
 10
82.65788307
 20
-12.07668836
  0
VERTEX
  8
0
 10
82.49103124
 20
-12.46904524
  0
VERTEX
  8
0
 10
82.30816461
 20
-12.85262801
  0
VERTEX
  8
0
 10
82.10970432
 20
-13.22701554
  0
VERTEX
  8
0
 10
81.89607146
 20
-13.59178669
  0
VERTEX
  8
0
 10
81.66768715
 20
-13.94652033
  0
VERTEX
  8
0
 10
81.42497252
 20
-14.29079532
  0
VERTEX
  8
0
 10
81.16834867
 20
-14.62419054
  0
VERTEX
  8
0
 10
80.89823672
 20
-14.94628484
  0
VERTEX
  8
0
 10
80.61505778
 20
-15.25665710
  0
VERTEX
  8
0
 10
80.31923297
 20
-15.55488618
  0
VERTEX
  8
0
 10
80.01118341
 20
-15.84055095
  0
VERTEX
  8
0
 10
79.69133021
 20
-16.11323028
  0
VERTEX
  8
0
 10
79.36009448
 20
-16.37250303
  0
VERTEX
  8
0
 10
79.01789734
 20
-16.61794806
  0
VERTEX
  8
0
 10
78.66515991
 20
-16.84914425
  0
VERTEX
  8
0
 10
78.30230329
 20
-17.06567047
  0
VERTEX
  8
0
 10
77.92974861
 20
-17.26710557
  0
VERTEX
  8
0
 10
77.54791698
 20
-17.45302843
  0
VERTEX
  8
0
 10
77.15722951
 20
-17.62301791
  0
VERTEX
  8
0
 10
76.75810732
 20
-17.77665288
  0
VERTEX
  8
0
 10
76.35097153
 20
-17.91351221
  0
VERTEX
  8
0
 10
75.93624325
 20
-18.03317476
  0
VERTEX
  8
0
 10
75.51434359
 20
-18.13521939
  0
VERTEX
  8
0
 10
75.08569367
 20
-18.21922498
  0
VERTEX
  8
0
 10
74.65071460
 20
-18.28477040
  0
VERTEX
  8
0
 10
74.65071460
 20
-9.11989025
  0
VERTEX
  8
0
 10
83.34205810
 20
-9.11989025
  0
SEQEND
  0
POLYLINE
  8
Layer_1
 62
256
 66
   1
 39
0.000000
 70
    1
  0
VERTEX
  8
0
 10
72.08353165
 20
-18.28517060
  0
VERTEX
  8
0
 10
71.64833781
 20
-18.21972902
  0
VERTEX
  8
0
 10
71.21947537
 20
-18.13581014
  0
VERTEX
  8
0
 10
70.79736595
 20
-18.03383554
  0
VERTEX
  8
0
 10
70.38243113
 20
-17.91422682
  0
VERTEX
  8
0
 10
69.97509255
 20
-17.77740557
  0
VERTEX
  8
0
 10
69.57577180
 20
-17.62379337
  0
VERTEX
  8
0
 10
69.18489051
 20
-17.45381183
  0
VERTEX
  8
0
 10
68.80287026
 20
-17.26788252
  0
VERTEX
  8
0
 10
68.43013269
 20
-17.06642705
  0
VERTEX
  8
0
 10
68.06709939
 20
-16.84986700
  0
VERTEX
  8
0
 10
67.71419197
 20
-16.61862397
  0
VERTEX
  8
0
 10
67.37183206
 20
-16.37311954
  0
VERTEX
  8
0
 10
67.04044124
 20
-16.11377532
  0
VERTEX
  8
0
 10
66.72044114
 20
-15.84101288
  0
VERTEX
  8
0
 10
66.41225337
 20
-15.55525382
  0
VERTEX
  8
0
 10
66.11629953
 20
-15.25691973
  0
VERTEX
  8
0
 10
65.83300123
 20
-14.94643221
  0
VERTEX
  8
0
 10
65.56278008
 20
-14.62421284
  0
VERTEX
  8
0
 10
65.30605770
 20
-14.29068321
  0
VERTEX
  8
0
 10
65.06325569
 20
-13.94626493
  0
VERTEX
  8
0
 10
64.83479566
 20
-13.59137957
  0
VERTEX
  8
0
 10
64.62109922
 20
-13.22644873
  0
VERTEX
  8
0
 10
64.42258799
 20
-12.85189400
  0
VERTEX
  8
0
 10
64.23968356
 20
-12.46813697
  0
VERTEX
  8
0
 10
64.07280756
 20
-12.07559924
  0
VERTEX
  8
0
 10
63.92238158
 20
-11.67470239
  0
VERTEX
  8
0
 10
63.78882725
 20
-11.26586802
  0
VERTEX
  8
0
 10
63.67256616
 20
-10.84951772
  0
VERTEX
  8
0
 10
63.57401993
 20
-10.42607307
  0
VERTEX
  8
0
 10
63.49361017
 20
-9.99595568
  0
VERTEX
  8
0
 10
63.43175849
 20
-9.55958712
  0
VERTEX
  8
0
 10
63.38888650
 20
-9.11738900
  0
VERTEX
  8
0
 10
72.08353165
 20
-9.11738900
  0
VERTEX
  8
0
 10
72.08353165
 20
-18.28517060
  0
SEQEND
  0
POLYLINE
  8
Layer_1
 62
256
 66
   1
 39
0.000000
 70
    1
  0
VERTEX
  8
0
 10
132.36705835
 20
37.45728670
  0
VERTEX
  8
0
 10
127.53604405
 20
37.45728670
  0
VERTEX
  8
0
 10
127.53604405
 20
34.65808780
  0
VERTEX
  8
0
 10
132.36705835
 20
34.65808780
  0
VERTEX
  8
0
 10
132.36705835
 20
37.45728670
  0
SEQEND
  0
POLYLINE
  8
Layer_1
 62
256
 66
   1
 39
0.000000
 70
    1
  0
VERTEX
  8
0
 10
96.87562150
 20
37.45948780
  0
VERTEX
  8
0
 10
92.04460720
 20
37.45948780
  0
VERTEX
  8
0
 10
92.04460720
 20
34.66028890
  0
VERTEX
  8
0
 10
96.87562150
 20
34.66028890
  0
VERTEX
  8
0
 10
96.87562150
 20
37.45948780
  0
SEQEND
  0
POLYLINE
  8
Layer_1
 62
256
 66
   1
 39
0.000000
 70
    1
  0
VERTEX
  8
0
 10
132.36555760
 20
-50.44954475
  0
VERTEX
  8
0
 10
127.53454330
 20
-50.44954475
  0
VERTEX
  8
0
 10
127.53454330
 20
-53.23863860
  0
VERTEX
  8
0
 10
132.36555760
 20
-53.23863860
  0
VERTEX
  8
0
 10
132.36555760
 20
-50.44954475
  0
SEQEND
  0
POLYLINE
  8
Layer_1
 62
256
 66
   1
 39
0.000000
 70
    1
  0
VERTEX
  8
0
 10
96.66201475
 20
-50.43723860
  0
VERTEX
  8
0
 10
91.83100045
 20
-50.43723860
  0
VERTEX
  8
0
 10
91.83100045
 20
-53.22633245
  0
VERTEX
  8
0
 10
96.66201475
 20
-53.22633245
  0
VERTEX
  8
0
 10
96.66201475
 20
-50.43723860
  0
SEQEND
  0
POLYLINE
  8
Layer_1
 62
256
 66
   1
 39
0.000000
 70
    1
  0
VERTEX
  8
0
 10
133.06770850
 20
-22.60843115
  0
VERTEX
  8
0
 10
133.06770850
 20
-17.46966305
  0
VERTEX
  8
0
 10
130.32823945
 20
-17.46966305
  0
VERTEX
  8
0
 10
130.32823945
 20
-22.60843115
  0
VERTEX
  8
0
 10
133.06770850
 20
-22.60843115
  0
SEQEND
  0
POLYLINE
  8
Layer_1
 62
256
 66
   1
 39
0.000000
 70
    1
  0
VERTEX
  8
0
 10
133.00567750
 20
0.61937695
  0
VERTEX
  8
0
 10
133.00567750
 20
5.66920060
  0
VERTEX
  8
0
 10
130.26630850
 20
5.66920060
  0
VERTEX
  8
0
 10
130.26630850
 20
0.61937695
  0
VERTEX
  8
0
 10
133.00567750
 20
0.61937695
  0
SEQEND
  0
POLYLINE
  8
Layer_1
 62
256
 66
   1
 39
0.000000
 70
    1
  0
VERTEX
  8
0
 10
92.85741340
 20
-303.65618480
  0
VERTEX
  8
0
 10
92.87042914
 20
-304.17112462
  0
VERTEX
  8
0
 10
92.90905762
 20
-304.67929498
  0
VERTEX
  8
0
 10
92.97267073
 20
-305.18006777
  0
VERTEX
  8
0
 10
93.06064035
 20
-305.67281488
  0
VERTEX
  8
0
 10
93.17233839
 20
-306.15690820
  0
VERTEX
  8
0
 10
93.30713673
 20
-306.63171963
  0
VERTEX
  8
0
 10
93.46440727
 20
-307.09662105
  0
VERTEX
  8
0
 10
93.64352188
 20
-307.55098435
  0
VERTEX
  8
0
 10
93.84385247
 20
-307.99418143
  0
VERTEX
  8
0
 10
94.06477093
 20
-308.42558418
  0
VERTEX
  8
0
 10
94.30564914
 20
-308.84456448
  0
VERTEX
  8
0
 10
94.56585899
 20
-309.25049423
  0
VERTEX
  8
0
 10
94.84477238
 20
-309.64274532
  0
VERTEX
  8
0
 10
95.14176120
 20
-310.02068963
  0
VERTEX
  8
0
 10
95.45619734
 20
-310.38369907
  0
VERTEX
  8
0
 10
95.78745269
 20
-310.73114551
  0
VERTEX
  8
0
 10
96.13489913
 20
-311.06240086
  0
VERTEX
  8
0
 10
96.49790857
 20
-311.37683700
  0
VERTEX
  8
0
 10
96.87585288
 20
-311.67382582
  0
VERTEX
  8
0
 10
97.26810397
 20
-311.95273921
  0
VERTEX
  8
0
 10
97.67403372
 20
-312.21294906
  0
VERTEX
  8
0
 10
98.09301402
 20
-312.45382727
  0
VERTEX
  8
0
 10
98.52441677
 20
-312.67474573
  0
VERTEX
  8
0
 10
98.96761385
 20
-312.87507632
  0
VERTEX
  8
0
 10
99.42197715
 20
-313.05419093
  0
VERTEX
  8
0
 10
99.88687857
 20
-313.21146147
  0
VERTEX
  8
0
 10
100.36169000
 20
-313.34625981
  0
VERTEX
  8
0
 10
100.84578332
 20
-313.45795785
  0
VERTEX
  8
0
 10
101.33853043
 20
-313.54592747
  0
VERTEX
  8
0
 10
101.83930322
 20
-313.60954058
  0
VERTEX
  8
0
 10
102.34747358
 20
-313.64816906
  0
VERTEX
  8
0
 10
102.86241340
 20
-313.66118480
  0
VERTEX
  8
0
 10
103.37735322
 20
-313.64816906
  0
VERTEX
  8
0
 10
103.88552358
 20
-313.60954058
  0
VERTEX
  8
0
 10
104.38629637
 20
-313.54592747
  0
VERTEX
  8
0
 10
104.87904348
 20
-313.45795785
  0
VERTEX
  8
0
 10
105.36313680
 20
-313.34625981
  0
VERTEX
  8
0
 10
105.83794823
 20
-313.21146147
  0
VERTEX
  8
0
 10
106.30284965
 20
-313.05419093
  0
VERTEX
  8
0
 10
106.75721295
 20
-312.87507632
  0
VERTEX
  8
0
 10
107.20041003
 20
-312.67474573
  0
VERTEX
  8
0
 10
107.63181278
 20
-312.45382727
  0
VERTEX
  8
0
 10
108.05079308
 20
-312.21294906
  0
VERTEX
  8
0
 10
108.45672283
 20
-311.95273921
  0
VERTEX
  8
0
 10
108.84897392
 20
-311.67382582
  0
VERTEX
  8
0
 10
109.22691823
 20
-311.37683700
  0
VERTEX
  8
0
 10
109.58992767
 20
-311.06240086
  0
VERTEX
  8
0
 10
109.93737411
 20
-310.73114551
  0
VERTEX
  8
0
 10
110.26862946
 20
-310.38369907
  0
VERTEX
  8
0
 10
110.58306560
 20
-310.02068963
  0
VERTEX
  8
0
 10
110.88005442
 20
-309.64274532
  0
VERTEX
  8
0
 10
111.15896781
 20
-309.25049423
  0
VERTEX
  8
0
 10
111.41917766
 20
-308.84456448
  0
VERTEX
  8
0
 10
111.66005587
 20
-308.42558418
  0
VERTEX
  8
0
 10
111.88097433
 20
-307.99418143
  0
VERTEX
  8
0
 10
112.08130492
 20
-307.55098435
  0
VERTEX
  8
0
 10
112.26041953
 20
-307.09662105
  0
VERTEX
  8
0
 10
112.41769007
 20
-306.63171963
  0
VERTEX
  8
0
 10
112.55248841
 20
-306.15690820
  0
VERTEX
  8
0
 10
112.66418645
 20
-305.67281488
  0
VERTEX
  8
0
 10
112.75215607
 20
-305.18006777
  0
VERTEX
  8
0
 10
112.81576918
 20
-304.67929498
  0
VERTEX
  8
0
 10
112.85439766
 20
-304.17112462
  0
VERTEX
  8
0
 10
112.86741340
 20
-303.65618480
  0
VERTEX
  8
0
 10
112.85439766
 20
-303.14124498
  0
VERTEX
  8
0
 10
112.81576918
 20
-302.63307462
  0
VERTEX
  8
0
 10
112.75215607
 20
-302.13230183
  0
VERTEX
  8
0
 10
112.66418645
 20
-301.63955472
  0
VERTEX
  8
0
 10
112.55248841
 20
-301.15546140
  0
VERTEX
  8
0
 10
112.41769007
 20
-300.68064997
  0
VERTEX
  8
0
 10
112.26041953
 20
-300.21574855
  0
VERTEX
  8
0
 10
112.08130492
 20
-299.76138525
  0
VERTEX
  8
0
 10
111.88097433
 20
-299.31818817
  0
VERTEX
  8
0
 10
111.66005587
 20
-298.88678542
  0
VERTEX
  8
0
 10
111.41917766
 20
-298.46780512
  0
VERTEX
  8
0
 10
111.15896781
 20
-298.06187537
  0
VERTEX
  8
0
 10
110.88005442
 20
-297.66962428
  0
VERTEX
  8
0
 10
110.58306560
 20
-297.29167997
  0
VERTEX
  8
0
 10
110.26862946
 20
-296.92867053
  0
VERTEX
  8
0
 10
109.93737411
 20
-296.58122409
  0
VERTEX
  8
0
 10
109.58992767
 20
-296.24996874
  0
VERTEX
  8
0
 10
109.22691823
 20
-295.93553260
  0
VERTEX
  8
0
 10
108.84897392
 20
-295.63854378
  0
VERTEX
  8
0
 10
108.45672283
 20
-295.35963039
  0
VERTEX
  8
0
 10
108.05079308
 20
-295.09942054
  0
VERTEX
  8
0
 10
107.63181278
 20
-294.85854233
  0
VERTEX
  8
0
 10
107.20041003
 20
-294.63762387
  0
VERTEX
  8
0
 10
106.75721295
 20
-294.43729328
  0
VERTEX
  8
0
 10
106.30284965
 20
-294.25817867
  0
VERTEX
  8
0
 10
105.83794823
 20
-294.10090813
  0
VERTEX
  8
0
 10
105.36313680
 20
-293.96610979
  0
VERTEX
  8
0
 10
104.87904348
 20
-293.85441175
  0
VERTEX
  8
0
 10
104.38629637
 20
-293.76644213
  0
VERTEX
  8
0
 10
103.88552358
 20
-293.70282902
  0
VERTEX
  8
0
 10
103.37735322
 20
-293.66420054
  0
VERTEX
  8
0
 10
102.86241340
 20
-293.65118480
  0
VERTEX
  8
0
 10
102.34747358
 20
-293.66420054
  0
VERTEX
  8
0
 10
101.83930322
 20
-293.70282902
  0
VERTEX
  8
0
 10
101.33853043
 20
-293.76644213
  0
VERTEX
  8
0
 10
100.84578332
 20
-293.85441175
  0
VERTEX
  8
0
 10
100.36169000
 20
-293.96610979
  0
VERTEX
  8
0
 10
99.88687857
 20
-294.10090813
  0
VERTEX
  8
0
 10
99.42197715
 20
-294.25817867
  0
VERTEX
  8
0
 10
98.96761385
 20
-294.43729328
  0
VERTEX
  8
0
 10
98.52441677
 20
-294.63762387
  0
VERTEX
  8
0
 10
98.09301402
 20
-294.85854233
  0
VERTEX
  8
0
 10
97.67403372
 20
-295.09942054
  0
VERTEX
  8
0
 10
97.26810397
 20
-295.35963039
  0
VERTEX
  8
0
 10
96.87585288
 20
-295.63854378
  0
VERTEX
  8
0
 10
96.49790857
 20
-295.93553260
  0
VERTEX
  8
0
 10
96.13489913
 20
-296.24996874
  0
VERTEX
  8
0
 10
95.78745269
 20
-296.58122409
  0
VERTEX
  8
0
 10
95.45619734
 20
-296.92867053
  0
VERTEX
  8
0
 10
95.14176120
 20
-297.29167997
  0
VERTEX
  8
0
 10
94.84477238
 20
-297.66962428
  0
VERTEX
  8
0
 10
94.56585899
 20
-298.06187537
  0
VERTEX
  8
0
 10
94.30564914
 20
-298.46780512
  0
VERTEX
  8
0
 10
94.06477093
 20
-298.88678542
  0
VERTEX
  8
0
 10
93.84385247
 20
-299.31818817
  0
VERTEX
  8
0
 10
93.64352188
 20
-299.76138525
  0
VERTEX
  8
0
 10
93.46440727
 20
-300.21574855
  0
VERTEX
  8
0
 10
93.30713673
 20
-300.68064997
  0
VERTEX
  8
0
 10
93.17233839
 20
-301.15546140
  0
VERTEX
  8
0
 10
93.06064035
 20
-301.63955472
  0
VERTEX
  8
0
 10
92.97267073
 20
-302.13230183
  0
VERTEX
  8
0
 10
92.90905762
 20
-302.63307462
  0
VERTEX
  8
0
 10
92.87042914
 20
-303.14124498
  0
VERTEX
  8
0
 10
92.85741340
 20
-303.65618480
  0
SEQEND
  0
POLYLINE
  8
Layer_1
 62
256
 66
   1
 39
0.000000
 70
    1
  0
VERTEX
  8
0
 10
89.85591340
 20
-303.65618480
  0
VERTEX
  8
0
 10
89.87283738
 20
-302.98687219
  0
VERTEX
  8
0
 10
89.92306451
 20
-302.32634602
  0
VERTEX
  8
0
 10
90.00577757
 20
-301.67542351
  0
VERTEX
  8
0
 10
90.12015932
 20
-301.03492189
  0
VERTEX
  8
0
 10
90.26539256
 20
-300.40565839
  0
VERTEX
  8
0
 10
90.44066005
 20
-299.78845021
  0
VERTEX
  8
0
 10
90.64514456
 20
-299.18411460
  0
VERTEX
  8
0
 10
90.87802889
 20
-298.59346877
  0
VERTEX
  8
0
 10
91.13849580
 20
-298.01732994
  0
VERTEX
  8
0
 10
91.42572807
 20
-297.45651535
  0
VERTEX
  8
0
 10
91.73890847
 20
-296.91184220
  0
VERTEX
  8
0
 10
92.07721979
 20
-296.38412774
  0
VERTEX
  8
0
 10
92.43984479
 20
-295.87418917
  0
VERTEX
  8
0
 10
92.82596626
 20
-295.38284373
  0
VERTEX
  8
0
 10
93.23476698
 20
-294.91090863
  0
VERTEX
  8
0
 10
93.66542971
 20
-294.45920111
  0
VERTEX
  8
0
 10
94.11713723
 20
-294.02853838
  0
VERTEX
  8
0
 10
94.58907233
 20
-293.61973766
  0
VERTEX
  8
0
 10
95.08041777
 20
-293.23361619
  0
VERTEX
  8
0
 10
95.59035634
 20
-292.87099119
  0
VERTEX
  8
0
 10
96.11807080
 20
-292.53267987
  0
VERTEX
  8
0
 10
96.66274395
 20
-292.21949947
  0
VERTEX
  8
0
 10
97.22355854
 20
-291.93226720
  0
VERTEX
  8
0
 10
97.79969737
 20
-291.67180029
  0
VERTEX
  8
0
 10
98.39034320
 20
-291.43891596
  0
VERTEX
  8
0
 10
98.99467881
 20
-291.23443145
  0
VERTEX
  8
0
 10
99.61188699
 20
-291.05916396
  0
VERTEX
  8
0
 10
100.24115049
 20
-290.91393072
  0
VERTEX
  8
0
 10
100.88165211
 20
-290.79954897
  0
VERTEX
  8
0
 10
101.53257462
 20
-290.71683591
  0
VERTEX
  8
0
 10
102.19310079
 20
-290.66660878
  0
VERTEX
  8
0
 10
102.86241340
 20
-290.64968480
  0
VERTEX
  8
0
 10
103.53172601
 20
-290.66660878
  0
VERTEX
  8
0
 10
104.19225218
 20
-290.71683591
  0
VERTEX
  8
0
 10
104.84317469
 20
-290.79954897
  0
VERTEX
  8
0
 10
105.48367631
 20
-290.91393072
  0
VERTEX
  8
0
 10
106.11293981
 20
-291.05916396
  0
VERTEX
  8
0
 10
106.73014799
 20
-291.23443145
  0
VERTEX
  8
0
 10
107.33448360
 20
-291.43891596
  0
VERTEX
  8
0
 10
107.92512943
 20
-291.67180029
  0
VERTEX
  8
0
 10
108.50126826
 20
-291.93226720
  0
VERTEX
  8
0
 10
109.06208285
 20
-292.21949947
  0
VERTEX
  8
0
 10
109.60675600
 20
-292.53267987
  0
VERTEX
  8
0
 10
110.13447046
 20
-292.87099119
  0
VERTEX
  8
0
 10
110.64440903
 20
-293.23361619
  0
VERTEX
  8
0
 10
111.13575447
 20
-293.61973766
  0
VERTEX
  8
0
 10
111.60768957
 20
-294.02853838
  0
VERTEX
  8
0
 10
112.05939709
 20
-294.45920111
  0
VERTEX
  8
0
 10
112.49005982
 20
-294.91090863
  0
VERTEX
  8
0
 10
112.89886054
 20
-295.38284373
  0
VERTEX
  8
0
 10
113.28498201
 20
-295.87418917
  0
VERTEX
  8
0
 10
113.64760701
 20
-296.38412774
  0
VERTEX
  8
0
 10
113.98591833
 20
-296.91184220
  0
VERTEX
  8
0
 10
114.29909873
 20
-297.45651535
  0
VERTEX
  8
0
 10
114.58633100
 20
-298.01732994
  0
VERTEX
  8
0
 10
114.84679791
 20
-298.59346877
  0
VERTEX
  8
0
 10
115.07968224
 20
-299.18411460
  0
VERTEX
  8
0
 10
115.28416675
 20
-299.78845021
  0
VERTEX
  8
0
 10
115.45943424
 20
-300.40565839
  0
VERTEX
  8
0
 10
115.60466748
 20
-301.03492189
  0
VERTEX
  8
0
 10
115.71904923
 20
-301.67542351
  0
VERTEX
  8
0
 10
115.80176229
 20
-302.32634602
  0
VERTEX
  8
0
 10
115.85198942
 20
-302.98687219
  0
VERTEX
  8
0
 10
115.86891340
 20
-303.65618480
  0
VERTEX
  8
0
 10
115.85198942
 20
-304.32549741
  0
VERTEX
  8
0
 10
115.80176229
 20
-304.98602358
  0
VERTEX
  8
0
 10
115.71904923
 20
-305.63694609
  0
VERTEX
  8
0
 10
115.60466748
 20
-306.27744771
  0
VERTEX
  8
0
 10
115.45943424
 20
-306.90671121
  0
VERTEX
  8
0
 10
115.28416675
 20
-307.52391939
  0
VERTEX
  8
0
 10
115.07968224
 20
-308.12825500
  0
VERTEX
  8
0
 10
114.84679791
 20
-308.71890083
  0
VERTEX
  8
0
 10
114.58633100
 20
-309.29503966
  0
VERTEX
  8
0
 10
114.29909873
 20
-309.85585425
  0
VERTEX
  8
0
 10
113.98591833
 20
-310.40052740
  0
VERTEX
  8
0
 10
113.64760701
 20
-310.92824186
  0
VERTEX
  8
0
 10
113.28498201
 20
-311.43818043
  0
VERTEX
  8
0
 10
112.89886054
 20
-311.92952587
  0
VERTEX
  8
0
 10
112.49005982
 20
-312.40146097
  0
VERTEX
  8
0
 10
112.05939709
 20
-312.85316849
  0
VERTEX
  8
0
 10
111.60768957
 20
-313.28383122
  0
VERTEX
  8
0
 10
111.13575447
 20
-313.69263194
  0
VERTEX
  8
0
 10
110.64440903
 20
-314.07875341
  0
VERTEX
  8
0
 10
110.13447046
 20
-314.44137841
  0
VERTEX
  8
0
 10
109.60675600
 20
-314.77968973
  0
VERTEX
  8
0
 10
109.06208285
 20
-315.09287013
  0
VERTEX
  8
0
 10
108.50126826
 20
-315.38010240
  0
VERTEX
  8
0
 10
107.92512943
 20
-315.64056931
  0
VERTEX
  8
0
 10
107.33448360
 20
-315.87345364
  0
VERTEX
  8
0
 10
106.73014799
 20
-316.07793815
  0
VERTEX
  8
0
 10
106.11293981
 20
-316.25320564
  0
VERTEX
  8
0
 10
105.48367631
 20
-316.39843888
  0
VERTEX
  8
0
 10
104.84317469
 20
-316.51282063
  0
VERTEX
  8
0
 10
104.19225218
 20
-316.59553369
  0
VERTEX
  8
0
 10
103.53172601
 20
-316.64576082
  0
VERTEX
  8
0
 10
102.86241340
 20
-316.66268480
  0
VERTEX
  8
0
 10
102.19310079
 20
-316.64576082
  0
VERTEX
  8
0
 10
101.53257462
 20
-316.59553369
  0
VERTEX
  8
0
 10
100.88165211
 20
-316.51282063
  0
VERTEX
  8
0
 10
100.24115049
 20
-316.39843888
  0
VERTEX
  8
0
 10
99.61188699
 20
-316.25320564
  0
VERTEX
  8
0
 10
98.99467881
 20
-316.07793815
  0
VERTEX
  8
0
 10
98.39034320
 20
-315.87345364
  0
VERTEX
  8
0
 10
97.79969737
 20
-315.64056931
  0
VERTEX
  8
0
 10
97.22355854
 20
-315.38010240
  0
VERTEX
  8
0
 10
96.66274395
 20
-315.09287013
  0
VERTEX
  8
0
 10
96.11807080
 20
-314.77968973
  0
VERTEX
  8
0
 10
95.59035634
 20
-314.44137841
  0
VERTEX
  8
0
 10
95.08041777
 20
-314.07875341
  0
VERTEX
  8
0
 10
94.58907233
 20
-313.69263194
  0
VERTEX
  8
0
 10
94.11713723
 20
-313.28383122
  0
VERTEX
  8
0
 10
93.66542971
 20
-312.85316849
  0
VERTEX
  8
0
 10
93.23476698
 20
-312.40146097
  0
VERTEX
  8
0
 10
92.82596626
 20
-311.92952587
  0
VERTEX
  8
0
 10
92.43984479
 20
-311.43818043
  0
VERTEX
  8
0
 10
92.07721979
 20
-310.92824186
  0
VERTEX
  8
0
 10
91.73890847
 20
-310.40052740
  0
VERTEX
  8
0
 10
91.42572807
 20
-309.85585425
  0
VERTEX
  8
0
 10
91.13849580
 20
-309.29503966
  0
VERTEX
  8
0
 10
90.87802889
 20
-308.71890083
  0
VERTEX
  8
0
 10
90.64514456
 20
-308.12825500
  0
VERTEX
  8
0
 10
90.44066005
 20
-307.52391939
  0
VERTEX
  8
0
 10
90.26539256
 20
-306.90671121
  0
VERTEX
  8
0
 10
90.12015932
 20
-306.27744771
  0
VERTEX
  8
0
 10
90.00577757
 20
-305.63694609
  0
VERTEX
  8
0
 10
89.92306451
 20
-304.98602358
  0
VERTEX
  8
0
 10
89.87283738
 20
-304.32549741
  0
VERTEX
  8
0
 10
89.85591340
 20
-303.65618480
  0
SEQEND
  0
POLYLINE
  8
Layer_1
 62
256
 66
   1
 39
0.000000
 70
    1
  0
VERTEX
  8
0
 10
-37.21328945
 20
323.67722515
  0
VERTEX
  8
0
 10
-37.21328945
 20
308.36957515
  0
VERTEX
  8
0
 10
-44.36436320
 20
308.36957515
  0
VERTEX
  8
0
 10
-44.36436320
 20
323.67722515
  0
VERTEX
  8
0
 10
-37.21328945
 20
323.67722515
  0
SEQEND
  0
POLYLINE
  8
Layer_1
 62
256
 66
   1
 39
0.000000
 70
    1
  0
VERTEX
  8
0
 10
-27.06952010
 20
323.67722515
  0
VERTEX
  8
0
 10
-27.06952010
 20
308.36457265
  0
VERTEX
  8
0
 10
-34.22429570
 20
308.36457265
  0
VERTEX
  8
0
 10
-34.22429570
 20
323.67722515
  0
VERTEX
  8
0
 10
-27.06952010
 20
323.67722515
  0
SEQEND
  0
POLYLINE
  8
Layer_1
 62
256
 66
   1
 39
0.000000
 70
    1
  0
VERTEX
  8
0
 10
-37.20218390
 20
305.36407315
  0
VERTEX
  8
0
 10
-37.20218390
 20
290.05862425
  0
VERTEX
  8
0
 10
-44.36436320
 20
290.05862425
  0
VERTEX
  8
0
 10
-44.36436320
 20
305.36407315
  0
VERTEX
  8
0
 10
-37.20218390
 20
305.36407315
  0
SEQEND
  0
POLYLINE
  8
Layer_1
 62
256
 66
   1
 39
0.000000
 70
    1
  0
VERTEX
  8
0
 10
-27.06952010
 20
305.36437330
  0
VERTEX
  8
0
 10
-27.06952010
 20
290.05862425
  0
VERTEX
  8
0
 10
-34.20208460
 20
290.05862425
  0
VERTEX
  8
0
 10
-34.20208460
 20
305.36437330
  0
VERTEX
  8
0
 10
-27.06952010
 20
305.36437330
  0
SEQEND
  0
POLYLINE
  8
Layer_1
 62
256
 66
   1
 39
0.000000
 70
    1
  0
VERTEX
  8
0
 10
-60.70252820
 20
323.67462385
  0
VERTEX
  8
0
 10
-60.70252820
 20
308.36697385
  0
VERTEX
  8
0
 10
-67.85360195
 20
308.36697385
  0
VERTEX
  8
0
 10
-67.85360195
 20
323.67462385
  0
VERTEX
  8
0
 10
-60.70252820
 20
323.67462385
  0
SEQEND
  0
POLYLINE
  8
Layer_1
 62
256
 66
   1
 39
0.000000
 70
    1
  0
VERTEX
  8
0
 10
-50.55875885
 20
323.67462385
  0
VERTEX
  8
0
 10
-50.55875885
 20
308.36197135
  0
VERTEX
  8
0
 10
-57.71353445
 20
308.36197135
  0
VERTEX
  8
0
 10
-57.71353445
 20
323.67462385
  0
VERTEX
  8
0
 10
-50.55875885
 20
323.67462385
  0
SEQEND
  0
POLYLINE
  8
Layer_1
 62
256
 66
   1
 39
0.000000
 70
    1
  0
VERTEX
  8
0
 10
-60.69142265
 20
305.36147185
  0
VERTEX
  8
0
 10
-60.69142265
 20
290.05602295
  0
VERTEX
  8
0
 10
-67.85360195
 20
290.05602295
  0
VERTEX
  8
0
 10
-67.85360195
 20
305.36147185
  0
VERTEX
  8
0
 10
-60.69142265
 20
305.36147185
  0
SEQEND
  0
POLYLINE
  8
Layer_1
 62
256
 66
   1
 39
0.000000
 70
    1
  0
VERTEX
  8
0
 10
-50.55875885
 20
305.36177200
  0
VERTEX
  8
0
 10
-50.55875885
 20
290.05602295
  0
VERTEX
  8
0
 10
-57.69132335
 20
290.05602295
  0
VERTEX
  8
0
 10
-57.69132335
 20
305.36177200
  0
VERTEX
  8
0
 10
-50.55875885
 20
305.36177200
  0
SEQEND
  0
POLYLINE
  8
Layer_1
 62
256
 66
   1
 39
0.000000
 70
    1
  0
VERTEX
  8
0
 10
-83.81467850
 20
323.67842575
  0
VERTEX
  8
0
 10
-83.81467850
 20
308.37077575
  0
VERTEX
  8
0
 10
-90.96575225
 20
308.37077575
  0
VERTEX
  8
0
 10
-90.96575225
 20
323.67842575
  0
VERTEX
  8
0
 10
-83.81467850
 20
323.67842575
  0
SEQEND
  0
POLYLINE
  8
Layer_1
 62
256
 66
   1
 39
0.000000
 70
    1
  0
VERTEX
  8
0
 10
-73.67090915
 20
323.67842575
  0
VERTEX
  8
0
 10
-73.67090915
 20
308.36577325
  0
VERTEX
  8
0
 10
-80.82568475
 20
308.36577325
  0
VERTEX
  8
0
 10
-80.82568475
 20
323.67842575
  0
VERTEX
  8
0
 10
-73.67090915
 20
323.67842575
  0
SEQEND
  0
POLYLINE
  8
Layer_1
 62
256
 66
   1
 39
0.000000
 70
    1
  0
VERTEX
  8
0
 10
-83.80357295
 20
305.36527375
  0
VERTEX
  8
0
 10
-83.80357295
 20
290.05982485
  0
VERTEX
  8
0
 10
-90.96575225
 20
290.05982485
  0
VERTEX
  8
0
 10
-90.96575225
 20
305.36527375
  0
VERTEX
  8
0
 10
-83.80357295
 20
305.36527375
  0
SEQEND
  0
POLYLINE
  8
Layer_1
 62
256
 66
   1
 39
0.000000
 70
    1
  0
VERTEX
  8
0
 10
-73.67090915
 20
305.36557390
  0
VERTEX
  8
0
 10
-73.67090915
 20
290.05982485
  0
VERTEX
  8
0
 10
-80.80347365
 20
290.05982485
  0
VERTEX
  8
0
 10
-80.80347365
 20
305.36557390
  0
VERTEX
  8
0
 10
-73.67090915
 20
305.36557390
  0
SEQEND
  0
POLYLINE
  8
Layer_1
 62
256
 66
   1
 39
0.000000
 70
    1
  0
VERTEX
  8
0
 10
-119.10273917
 20
290.22860920
  0
VERTEX
  8
0
 10
-119.10273917
 20
295.39058890
  0
VERTEX
  8
0
 10
-116.30510832
 20
295.39058890
  0
VERTEX
  8
0
 10
-116.30510832
 20
290.22860920
  0
VERTEX
  8
0
 10
-119.10273917
 20
290.22860920
  0
SEQEND
  0
POLYLINE
  8
Layer_1
 62
256
 66
   1
 39
0.000000
 70
    1
  0
VERTEX
  8
0
 10
-119.10273917
 20
326.52424795
  0
VERTEX
  8
0
 10
-119.10273917
 20
331.68622765
  0
VERTEX
  8
0
 10
-116.30500645
 20
331.68622765
  0
VERTEX
  8
0
 10
-116.30500645
 20
326.52424795
  0
VERTEX
  8
0
 10
-119.10273917
 20
326.52424795
  0
SEQEND
  0
POLYLINE
  8
Layer_1
 62
256
 66
   1
 39
0.000000
 70
    1
  0
VERTEX
  8
0
 10
97.42389550
 20
330.16542850
  0
VERTEX
  8
0
 10
102.58587520
 20
330.16542850
  0
VERTEX
  8
0
 10
102.58587520
 20
327.36372400
  0
VERTEX
  8
0
 10
97.42389550
 20
327.36372400
  0
VERTEX
  8
0
 10
97.42389550
 20
330.16542850
  0
SEQEND
  0
POLYLINE
  8
Layer_1
 62
256
 66
   1
 39
0.000000
 70
    1
  0
VERTEX
  8
0
 10
74.17537705
 20
330.16542850
  0
VERTEX
  8
0
 10
79.33735675
 20
330.16542850
  0
VERTEX
  8
0
 10
79.33735675
 20
327.36372400
  0
VERTEX
  8
0
 10
74.17537705
 20
327.36372400
  0
VERTEX
  8
0
 10
74.17537705
 20
330.16542850
  0
SEQEND
  0
POLYLINE
  8
Layer_1
 62
256
 66
   1
 39
0.000000
 70
    1
  0
VERTEX
  8
0
 10
-38.36676590
 20
330.36192254
  0
VERTEX
  8
0
 10
-33.20478620
 20
330.36192254
  0
VERTEX
  8
0
 10
-33.20478620
 20
327.55613229
  0
VERTEX
  8
0
 10
-38.36676590
 20
327.55613229
  0
VERTEX
  8
0
 10
-38.36676590
 20
330.36192254
  0
SEQEND
  0
POLYLINE
  8
Layer_1
 62
256
 66
   1
 39
0.000000
 70
    1
  0
VERTEX
  8
0
 10
-61.62969155
 20
330.36202707
  0
VERTEX
  8
0
 10
-56.46771185
 20
330.36202707
  0
VERTEX
  8
0
 10
-56.46771185
 20
327.55613229
  0
VERTEX
  8
0
 10
-61.62969155
 20
327.55613229
  0
VERTEX
  8
0
 10
-61.62969155
 20
330.36202707
  0
SEQEND
  0
POLYLINE
  8
Layer_1
 62
256
 66
   1
 39
0.000000
 70
    1
  0
VERTEX
  8
0
 10
-85.02298235
 20
330.36192254
  0
VERTEX
  8
0
 10
-79.86100265
 20
330.36192254
  0
VERTEX
  8
0
 10
-79.86100265
 20
327.55613229
  0
VERTEX
  8
0
 10
-85.02298235
 20
327.55613229
  0
VERTEX
  8
0
 10
-85.02298235
 20
330.36192254
  0
SEQEND
  0
POLYLINE
  8
Layer_1
 62
256
 66
   1
 39
0.000000
 70
    1
  0
VERTEX
  8
0
 10
132.26109058
 20
326.17667425
  0
VERTEX
  8
0
 10
132.26109058
 20
331.33865395
  0
VERTEX
  8
0
 10
135.06684831
 20
331.33865395
  0
VERTEX
  8
0
 10
135.06684831
 20
326.17667425
  0
VERTEX
  8
0
 10
132.26109058
 20
326.17667425
  0
SEQEND
  0
POLYLINE
  8
Layer_1
 62
256
 66
   1
 39
0.000000
 70
    1
  0
VERTEX
  8
0
 10
132.26098682
 20
289.88763880
  0
VERTEX
  8
0
 10
132.26098682
 20
295.04961850
  0
VERTEX
  8
0
 10
135.06684831
 20
295.04961850
  0
VERTEX
  8
0
 10
135.06684831
 20
289.88763880
  0
VERTEX
  8
0
 10
132.26098682
 20
289.88763880
  0
SEQEND
  0
POLYLINE
  8
Layer_1
 62
256
 66
   1
 39
0.000000
 70
    1
  0
VERTEX
  8
0
 10
84.39188275
 20
305.40819520
  0
VERTEX
  8
0
 10
84.39188275
 20
290.10244615
  0
VERTEX
  8
0
 10
77.25931825
 20
290.10244615
  0
VERTEX
  8
0
 10
77.25931825
 20
305.40819520
  0
VERTEX
  8
0
 10
84.39188275
 20
305.40819520
  0
SEQEND
  0
POLYLINE
  8
Layer_1
 62
256
 66
   1
 39
0.000000
 70
    1
  0
VERTEX
  8
0
 10
74.25921895
 20
305.40789505
  0
VERTEX
  8
0
 10
74.25921895
 20
290.10244615
  0
VERTEX
  8
0
 10
67.09703965
 20
290.10244615
  0
VERTEX
  8
0
 10
67.09703965
 20
305.40789505
  0
VERTEX
  8
0
 10
74.25921895
 20
305.40789505
  0
SEQEND
  0
POLYLINE
  8
Layer_1
 62
256
 66
   1
 39
0.000000
 70
    1
  0
VERTEX
  8
0
 10
84.39188275
 20
323.72104705
  0
VERTEX
  8
0
 10
84.39188275
 20
308.40839455
  0
VERTEX
  8
0
 10
77.23710715
 20
308.40839455
  0
VERTEX
  8
0
 10
77.23710715
 20
323.72104705
  0
VERTEX
  8
0
 10
84.39188275
 20
323.72104705
  0
SEQEND
  0
POLYLINE
  8
Layer_1
 62
256
 66
   1
 39
0.000000
 70
    1
  0
VERTEX
  8
0
 10
74.24811340
 20
323.72104705
  0
VERTEX
  8
0
 10
74.24811340
 20
308.41339705
  0
VERTEX
  8
0
 10
67.09703965
 20
308.41339705
  0
VERTEX
  8
0
 10
67.09703965
 20
323.72104705
  0
VERTEX
  8
0
 10
74.24811340
 20
323.72104705
  0
SEQEND
  0
POLYLINE
  8
Layer_1
 62
256
 66
   1
 39
0.000000
 70
    1
  0
VERTEX
  8
0
 10
107.88112150
 20
305.41079650
  0
VERTEX
  8
0
 10
107.88112150
 20
290.10504745
  0
VERTEX
  8
0
 10
100.74855700
 20
290.10504745
  0
VERTEX
  8
0
 10
100.74855700
 20
305.41079650
  0
VERTEX
  8
0
 10
107.88112150
 20
305.41079650
  0
SEQEND
  0
POLYLINE
  8
Layer_1
 62
256
 66
   1
 39
0.000000
 70
    1
  0
VERTEX
  8
0
 10
97.74845770
 20
305.41049635
  0
VERTEX
  8
0
 10
97.74845770
 20
290.10504745
  0
VERTEX
  8
0
 10
90.58627840
 20
290.10504745
  0
VERTEX
  8
0
 10
90.58627840
 20
305.41049635
  0
VERTEX
  8
0
 10
97.74845770
 20
305.41049635
  0
SEQEND
  0
POLYLINE
  8
Layer_1
 62
256
 66
   1
 39
0.000000
 70
    1
  0
VERTEX
  8
0
 10
107.88112150
 20
323.72364835
  0
VERTEX
  8
0
 10
107.88112150
 20
308.41099585
  0
VERTEX
  8
0
 10
100.72634590
 20
308.41099585
  0
VERTEX
  8
0
 10
100.72634590
 20
323.72364835
  0
VERTEX
  8
0
 10
107.88112150
 20
323.72364835
  0
SEQEND
  0
POLYLINE
  8
Layer_1
 62
256
 66
   1
 39
0.000000
 70
    1
  0
VERTEX
  8
0
 10
97.73735215
 20
323.72364835
  0
VERTEX
  8
0
 10
97.73735215
 20
308.41599835
  0
VERTEX
  8
0
 10
90.58627840
 20
308.41599835
  0
VERTEX
  8
0
 10
90.58627840
 20
323.72364835
  0
VERTEX
  8
0
 10
97.73735215
 20
323.72364835
  0
SEQEND
  0
POLYLINE
  8
Layer_1
 62
256
 66
   1
 39
0.000000
 70
    1
  0
VERTEX
  8
0
 10
18.53487070
 20
13.87610200
  0
VERTEX
  8
0
 10
18.68830920
 20
13.86835350
  0
VERTEX
  8
0
 10
18.83731638
 20
13.84561098
  0
VERTEX
  8
0
 10
19.11901888
 20
13.75816181
  0
VERTEX
  8
0
 10
19.37394237
 20
13.61979031
  0
VERTEX
  8
0
 10
19.59605102
 20
13.43653233
  0
VERTEX
  8
0
 10
19.77930901
 20
13.21442367
  0
VERTEX
  8
0
 10
19.91768051
 20
12.95950018
  0
VERTEX
  8
0
 10
20.00512968
 20
12.67779768
  0
VERTEX
  8
0
 10
20.02787220
 20
12.52879050
  0
VERTEX
  8
0
 10
20.03562070
 20
12.37535200
  0
VERTEX
  8
0
 10
20.02787220
 20
12.22191350
  0
VERTEX
  8
0
 10
20.00512968
 20
12.07290632
  0
VERTEX
  8
0
 10
19.91768051
 20
11.79120382
  0
VERTEX
  8
0
 10
19.77930901
 20
11.53628033
  0
VERTEX
  8
0
 10
19.59605102
 20
11.31417168
  0
VERTEX
  8
0
 10
19.37394237
 20
11.13091369
  0
VERTEX
  8
0
 10
19.11901888
 20
10.99254219
  0
VERTEX
  8
0
 10
18.83731638
 20
10.90509302
  0
VERTEX
  8
0
 10
18.68830920
 20
10.88235050
  0
VERTEX
  8
0
 10
18.53487070
 20
10.87460200
  0
VERTEX
  8
0
 10
18.38143220
 20
10.88235050
  0
VERTEX
  8
0
 10
18.23242502
 20
10.90509302
  0
VERTEX
  8
0
 10
17.95072252
 20
10.99254219
  0
VERTEX
  8
0
 10
17.69579903
 20
11.13091369
  0
VERTEX
  8
0
 10
17.47369037
 20
11.31417168
  0
VERTEX
  8
0
 10
17.29043239
 20
11.53628033
  0
VERTEX
  8
0
 10
17.15206089
 20
11.79120382
  0
VERTEX
  8
0
 10
17.06461172
 20
12.07290632
  0
VERTEX
  8
0
 10
17.04186920
 20
12.22191350
  0
VERTEX
  8
0
 10
17.03412070
 20
12.37535200
  0
VERTEX
  8
0
 10
17.04186920
 20
12.52879050
  0
VERTEX
  8
0
 10
17.06461172
 20
12.67779768
  0
VERTEX
  8
0
 10
17.15206089
 20
12.95950018
  0
VERTEX
  8
0
 10
17.29043239
 20
13.21442367
  0
VERTEX
  8
0
 10
17.47369037
 20
13.43653233
  0
VERTEX
  8
0
 10
17.69579903
 20
13.61979031
  0
VERTEX
  8
0
 10
17.95072252
 20
13.75816181
  0
VERTEX
  8
0
 10
18.23242502
 20
13.84561098
  0
VERTEX
  8
0
 10
18.38143220
 20
13.86835350
  0
VERTEX
  8
0
 10
18.53487070
 20
13.87610200
  0
SEQEND
  0
POLYLINE
  8
Layer_1
 62
256
 66
   1
 39
0.000000
 70
    1
  0
VERTEX
  8
0
 10
18.46713685
 20
21.28080250
  0
VERTEX
  8
0
 10
18.62057535
 20
21.27305400
  0
VERTEX
  8
0
 10
18.76958253
 20
21.25031148
  0
VERTEX
  8
0
 10
19.05128503
 20
21.16286231
  0
VERTEX
  8
0
 10
19.30620852
 20
21.02449081
  0
VERTEX
  8
0
 10
19.52831717
 20
20.84123282
  0
VERTEX
  8
0
 10
19.71157516
 20
20.61912417
  0
VERTEX
  8
0
 10
19.84994666
 20
20.36420068
  0
VERTEX
  8
0
 10
19.93739583
 20
20.08249818
  0
VERTEX
  8
0
 10
19.96013835
 20
19.93349100
  0
VERTEX
  8
0
 10
19.96788685
 20
19.78005250
  0
VERTEX
  8
0
 10
19.96013835
 20
19.62661400
  0
VERTEX
  8
0
 10
19.93739583
 20
19.47760682
  0
VERTEX
  8
0
 10
19.84994666
 20
19.19590432
  0
VERTEX
  8
0
 10
19.71157516
 20
18.94098083
  0
VERTEX
  8
0
 10
19.52831717
 20
18.71887218
  0
VERTEX
  8
0
 10
19.30620852
 20
18.53561419
  0
VERTEX
  8
0
 10
19.05128503
 20
18.39724269
  0
VERTEX
  8
0
 10
18.76958253
 20
18.30979352
  0
VERTEX
  8
0
 10
18.62057535
 20
18.28705100
  0
VERTEX
  8
0
 10
18.46713685
 20
18.27930250
  0
VERTEX
  8
0
 10
18.31369835
 20
18.28705100
  0
VERTEX
  8
0
 10
18.16469117
 20
18.30979352
  0
VERTEX
  8
0
 10
17.88298867
 20
18.39724269
  0
VERTEX
  8
0
 10
17.62806518
 20
18.53561419
  0
VERTEX
  8
0
 10
17.40595652
 20
18.71887218
  0
VERTEX
  8
0
 10
17.22269854
 20
18.94098083
  0
VERTEX
  8
0
 10
17.08432704
 20
19.19590432
  0
VERTEX
  8
0
 10
16.99687787
 20
19.47760682
  0
VERTEX
  8
0
 10
16.97413535
 20
19.62661400
  0
VERTEX
  8
0
 10
16.96638685
 20
19.78005250
  0
VERTEX
  8
0
 10
16.97413535
 20
19.93349100
  0
VERTEX
  8
0
 10
16.99687787
 20
20.08249818
  0
VERTEX
  8
0
 10
17.08432704
 20
20.36420068
  0
VERTEX
  8
0
 10
17.22269854
 20
20.61912417
  0
VERTEX
  8
0
 10
17.40595652
 20
20.84123282
  0
VERTEX
  8
0
 10
17.62806518
 20
21.02449081
  0
VERTEX
  8
0
 10
17.88298867
 20
21.16286231
  0
VERTEX
  8
0
 10
18.16469117
 20
21.25031148
  0
VERTEX
  8
0
 10
18.31369835
 20
21.27305400
  0
VERTEX
  8
0
 10
18.46713685
 20
21.28080250
  0
SEQEND
  0
POLYLINE
  8
Layer_1
 62
256
 66
   1
 39
0.000000
 70
    1
  0
VERTEX
  8
0
 10
-19.45061255
 20
10.69121035
  0
VERTEX
  8
0
 10
-22.46872085
 20
10.03668325
  0
VERTEX
  8
0
 10
-23.45991620
 20
14.60706730
  0
VERTEX
  8
0
 10
-20.44180790
 20
15.26159440
  0
VERTEX
  8
0
 10
-19.45061255
 20
10.69121035
  0
SEQEND
  0
POLYLINE
  8
Layer_1
 62
256
 66
   1
 39
0.000000
 70
    1
  0
VERTEX
  8
0
 10
-14.44721210
 20
-79.73307920
  0
VERTEX
  8
0
 10
0.86043790
 20
-79.73307920
  0
VERTEX
  8
0
 10
0.86043790
 20
-86.88415295
  0
VERTEX
  8
0
 10
-14.44721210
 20
-86.88415295
  0
VERTEX
  8
0
 10
-14.44721210
 20
-79.73307920
  0
SEQEND
  0
POLYLINE
  8
Layer_1
 62
256
 66
   1
 39
0.000000
 70
    1
  0
VERTEX
  8
0
 10
-14.44721210
 20
-69.58930985
  0
VERTEX
  8
0
 10
0.86544040
 20
-69.58930985
  0
VERTEX
  8
0
 10
0.86544040
 20
-76.74408545
  0
VERTEX
  8
0
 10
-14.44721210
 20
-76.74408545
  0
VERTEX
  8
0
 10
-14.44721210
 20
-69.58930985
  0
SEQEND
  0
POLYLINE
  8
Layer_1
 62
256
 66
   1
 39
0.000000
 70
    1
  0
VERTEX
  8
0
 10
3.86593990
 20
-79.72197365
  0
VERTEX
  8
0
 10
19.17138880
 20
-79.72197365
  0
VERTEX
  8
0
 10
19.17138880
 20
-86.88415295
  0
VERTEX
  8
0
 10
3.86593990
 20
-86.88415295
  0
VERTEX
  8
0
 10
3.86593990
 20
-79.72197365
  0
SEQEND
  0
POLYLINE
  8
Layer_1
 62
256
 66
   1
 39
0.000000
 70
    1
  0
VERTEX
  8
0
 10
3.86563975
 20
-69.58930985
  0
VERTEX
  8
0
 10
19.17138880
 20
-69.58930985
  0
VERTEX
  8
0
 10
19.17138880
 20
-76.72187435
  0
VERTEX
  8
0
 10
3.86563975
 20
-76.72187435
  0
VERTEX
  8
0
 10
3.86563975
 20
-69.58930985
  0
SEQEND
  0
POLYLINE
  8
Layer_1
 62
256
 66
   1
 39
0.000000
 70
    1
  0
VERTEX
  8
0
 10
-14.45681690
 20
-56.37060380
  0
VERTEX
  8
0
 10
0.85083310
 20
-56.37060380
  0
VERTEX
  8
0
 10
0.85083310
 20
-63.52167755
  0
VERTEX
  8
0
 10
-14.45681690
 20
-63.52167755
  0
VERTEX
  8
0
 10
-14.45681690
 20
-56.37060380
  0
SEQEND
  0
POLYLINE
  8
Layer_1
 62
256
 66
   1
 39
0.000000
 70
    1
  0
VERTEX
  8
0
 10
-14.45681690
 20
-46.22683445
  0
VERTEX
  8
0
 10
0.85583560
 20
-46.22683445
  0
VERTEX
  8
0
 10
0.85583560
 20
-53.38161005
  0
VERTEX
  8
0
 10
-14.45681690
 20
-53.38161005
  0
VERTEX
  8
0
 10
-14.45681690
 20
-46.22683445
  0
SEQEND
  0
POLYLINE
  8
Layer_1
 62
256
 66
   1
 39
0.000000
 70
    1
  0
VERTEX
  8
0
 10
3.85633510
 20
-56.35949825
  0
VERTEX
  8
0
 10
19.16178400
 20
-56.35949825
  0
VERTEX
  8
0
 10
19.16178400
 20
-63.52167755
  0
VERTEX
  8
0
 10
3.85633510
 20
-63.52167755
  0
VERTEX
  8
0
 10
3.85633510
 20
-56.35949825
  0
SEQEND
  0
POLYLINE
  8
Layer_1
 62
256
 66
   1
 39
0.000000
 70
    1
  0
VERTEX
  8
0
 10
3.85603495
 20
-46.22683445
  0
VERTEX
  8
0
 10
19.16178400
 20
-46.22683445
  0
VERTEX
  8
0
 10
19.16178400
 20
-53.35939895
  0
VERTEX
  8
0
 10
3.85603495
 20
-53.35939895
  0
VERTEX
  8
0
 10
3.85603495
 20
-46.22683445
  0
SEQEND
  0
POLYLINE
  8
Layer_1
 62
256
 66
   1
 39
0.000000
 70
    1
  0
VERTEX
  8
0
 10
22.73076760
 20
-57.21032345
  0
VERTEX
  8
0
 10
22.73076760
 20
-52.04834375
  0
VERTEX
  8
0
 10
25.52906605
 20
-52.04834375
  0
VERTEX
  8
0
 10
25.52906605
 20
-57.21032345
  0
VERTEX
  8
0
 10
22.73076760
 20
-57.21032345
  0
SEQEND
  0
POLYLINE
  8
Layer_1
 62
256
 66
   1
 39
0.000000
 70
    1
  0
VERTEX
  8
0
 10
22.72766605
 20
-80.34918710
  0
VERTEX
  8
0
 10
22.72766605
 20
-75.18720740
  0
VERTEX
  8
0
 10
25.52606455
 20
-75.18720740
  0
VERTEX
  8
0
 10
25.52606455
 20
-80.34918710
  0
VERTEX
  8
0
 10
22.72766605
 20
-80.34918710
  0
SEQEND
  0
POLYLINE
  8
Layer_1
 62
256
 66
   1
 39
0.000000
 70
    1
  0
VERTEX
  8
0
 10
-16.61989790
 20
-124.91776025
  0
VERTEX
  8
0
 10
-11.45791820
 20
-124.91776025
  0
VERTEX
  8
0
 10
-11.45791820
 20
-127.71675905
  0
VERTEX
  8
0
 10
-16.61989790
 20
-127.71675905
  0
VERTEX
  8
0
 10
-16.61989790
 20
-124.91776025
  0
SEQEND
  0
POLYLINE
  8
Layer_1
 62
256
 66
   1
 39
0.000000
 70
    1
  0
VERTEX
  8
0
 10
19.18309465
 20
-124.92006140
  0
VERTEX
  8
0
 10
24.34507435
 20
-124.92006140
  0
VERTEX
  8
0
 10
24.34507435
 20
-127.71916025
  0
VERTEX
  8
0
 10
19.18309465
 20
-127.71916025
  0
VERTEX
  8
0
 10
19.18309465
 20
-124.92006140
  0
SEQEND
  0
POLYLINE
  8
Layer_1
 62
256
 66
   1
 39
0.000000
 70
    1
  0
VERTEX
  8
0
 10
-29.56526735
 20
35.72051875
  0
VERTEX
  8
0
 10
-16.61359475
 20
35.72051875
  0
VERTEX
  8
0
 10
-16.61359475
 20
38.62196875
  0
VERTEX
  8
0
 10
-11.45161505
 20
38.62196875
  0
VERTEX
  8
0
 10
-11.45161505
 20
35.72051875
  0
VERTEX
  8
0
 10
19.18659640
 20
35.72051875
  0
VERTEX
  8
0
 10
19.18659640
 20
38.62196875
  0
VERTEX
  8
0
 10
24.34857610
 20
38.62196875
  0
VERTEX
  8
0
 10
24.34857610
 20
35.72051875
  0
VERTEX
  8
0
 10
38.60560105
 20
35.72051875
  0
VERTEX
  8
0
 10
38.60560105
 20
-5.52509375
  0
VERTEX
  8
0
 10
41.61640570
 20
-5.52509375
  0
VERTEX
  8
0
 10
41.61640570
 20
-10.83274625
  0
VERTEX
  8
0
 10
38.60560105
 20
-10.83274625
  0
VERTEX
  8
0
 10
38.60560105
 20
-118.10685650
  0
VERTEX
  8
0
 10
41.56327915
 20
-118.10685650
  0
VERTEX
  8
0
 10
41.56327915
 20
-123.42381365
  0
VERTEX
  8
0
 10
38.60560105
 20
-123.42381365
  0
VERTEX
  8
0
 10
38.60560105
 20
-130.47693845
  0
VERTEX
  8
0
 10
-29.56526735
 20
-130.47693845
  0
VERTEX
  8
0
 10
-29.56526735
 20
35.72051875
  0
SEQEND
  0
POLYLINE
  8
Layer_1
 62
256
 66
   1
 39
0.000000
 70
    1
  0
VERTEX
  8
0
 10
5.56198750
 20
15.48740725
  0
VERTEX
  8
0
 10
5.56198750
 20
16.70071360
  0
VERTEX
  8
0
 10
38.60560105
 20
16.70071360
  0
VERTEX
  8
0
 10
38.60560105
 20
15.48740725
  0
VERTEX
  8
0
 10
5.56198750
 20
15.48740725
  0
SEQEND
  0
POLYLINE
  8
Layer_1
 62
256
 66
   1
 39
0.000000
 70
    1
  0
VERTEX
  8
0
 10
49.90264675
 20
46.05078130
  0
VERTEX
  8
0
 10
49.90304695
 20
41.66568985
  0
VERTEX
  8
0
 10
45.73376335
 20
41.66538970
  0
VERTEX
  8
0
 10
45.73336315
 20
46.05018100
  0
VERTEX
  8
0
 10
49.90264675
 20
46.05078130
  0
SEQEND
  0
POLYLINE
  8
Layer_1
 62
256
 66
   1
 39
0.000000
 70
    1
  0
VERTEX
  8
0
 10
136.07651565
 20
102.29889130
  0
VERTEX
  8
0
 10
136.08011278
 20
107.13470800
  0
VERTEX
  8
0
 10
133.28034784
 20
107.13180655
  0
VERTEX
  8
0
 10
133.28339995
 20
102.30199285
  0
VERTEX
  8
0
 10
136.07651565
 20
102.29889130
  0
SEQEND
  0
POLYLINE
  8
Layer_1
 62
256
 66
   1
 39
0.000000
 70
    1
  0
VERTEX
  8
0
 10
136.08011278
 20
55.77618444
  0
VERTEX
  8
0
 10
136.08360091
 20
60.63481254
  0
VERTEX
  8
0
 10
136.01699953
 20
60.60789909
  0
VERTEX
  8
0
 10
133.28416298
 20
60.66162594
  0
VERTEX
  8
0
 10
133.28056585
 20
55.77338304
  0
VERTEX
  8
0
 10
136.08011278
 20
55.77618444
  0
SEQEND
  0
POLYLINE
  8
Layer_1
 62
256
 66
   1
 39
0.000000
 70
    1
  0
VERTEX
  8
0
 10
33.55797850
 20
81.02515975
  0
VERTEX
  8
0
 10
33.55967935
 20
79.80875185
  0
VERTEX
  8
0
 10
33.54815495
 20
79.46339359
  0
VERTEX
  8
0
 10
33.51301665
 20
79.12243486
  0
VERTEX
  8
0
 10
33.45485192
 20
78.78630701
  0
VERTEX
  8
0
 10
33.37424820
 20
78.45544135
  0
VERTEX
  8
0
 10
33.27179297
 20
78.13026924
  0
VERTEX
  8
0
 10
33.14807367
 20
77.81122202
  0
VERTEX
  8
0
 10
33.00367777
 20
77.49873101
  0
VERTEX
  8
0
 10
32.83919272
 20
77.19322755
  0
VERTEX
  8
0
 10
32.65520599
 20
76.89514299
  0
VERTEX
  8
0
 10
32.45230502
 20
76.60490866
  0
VERTEX
  8
0
 10
32.23107727
 20
76.32295590
  0
VERTEX
  8
0
 10
31.99211021
 20
76.04971604
  0
VERTEX
  8
0
 10
31.73599130
 20
75.78562043
  0
VERTEX
  8
0
 10
31.46330798
 20
75.53110040
  0
VERTEX
  8
0
 10
31.17464772
 20
75.28658728
  0
VERTEX
  8
0
 10
30.87059798
 20
75.05251242
  0
VERTEX
  8
0
 10
30.55174621
 20
74.82930715
  0
VERTEX
  8
0
 10
30.21867988
 20
74.61740281
  0
VERTEX
  8
0
 10
29.87198643
 20
74.41723074
  0
VERTEX
  8
0
 10
29.51225333
 20
74.22922227
  0
VERTEX
  8
0
 10
29.14006803
 20
74.05380874
  0
VERTEX
  8
0
 10
28.75601800
 20
73.89142149
  0
VERTEX
  8
0
 10
28.36069069
 20
73.74249186
  0
VERTEX
  8
0
 10
27.95467356
 20
73.60745119
  0
VERTEX
  8
0
 10
27.53855407
 20
73.48673080
  0
VERTEX
  8
0
 10
27.11291967
 20
73.38076204
  0
VERTEX
  8
0
 10
26.67835782
 20
73.28997625
  0
VERTEX
  8
0
 10
26.23545598
 20
73.21480477
  0
VERTEX
  8
0
 10
25.78480161
 20
73.15567892
  0
VERTEX
  8
0
 10
25.32698217
 20
73.11303005
  0
VERTEX
  8
0
 10
24.86258512
 20
73.08728950
  0
VERTEX
  8
0
 10
24.39219790
 20
73.07888860
  0
VERTEX
  8
0
 10
-25.50473810
 20
73.12191010
  0
VERTEX
  8
0
 10
-25.94915876
 20
72.54741792
  0
VERTEX
  8
0
 10
-26.42546640
 20
72.00013856
  0
VERTEX
  8
0
 10
-26.93227121
 20
71.48145552
  0
VERTEX
  8
0
 10
-27.46818339
 20
70.99275230
  0
VERTEX
  8
0
 10
-28.03181314
 20
70.53541242
  0
VERTEX
  8
0
 10
-28.62177064
 20
70.11081937
  0
VERTEX
  8
0
 10
-29.23666610
 20
69.72035666
  0
VERTEX
  8
0
 10
-29.87510969
 20
69.36540779
  0
VERTEX
  8
0
 10
-30.53571163
 20
69.04735626
  0
VERTEX
  8
0
 10
-31.21708210
 20
68.76758559
  0
VERTEX
  8
0
 10
-31.91783130
 20
68.52747927
  0
VERTEX
  8
0
 10
-32.63656942
 20
68.32842080
  0
VERTEX
  8
0
 10
-33.37190666
 20
68.17179370
  0
VERTEX
  8
0
 10
-34.12245320
 20
68.05898146
  0
VERTEX
  8
0
 10
-34.88681925
 20
67.99136760
  0
VERTEX
  8
0
 10
-35.66361500
 20
67.97033560
  0
VERTEX
  8
0
 10
-36.43586824
 20
67.99650175
  0
VERTEX
  8
0
 10
-37.19552061
 20
68.06864684
  0
VERTEX
  8
0
 10
-37.94121512
 20
68.18540114
  0
VERTEX
  8
0
 10
-38.67159480
 20
68.34539491
  0
VERTEX
  8
0
 10
-39.38530267
 20
68.54725844
  0
VERTEX
  8
0
 10
-40.08098176
 20
68.78962199
  0
VERTEX
  8
0
 10
-40.75727508
 20
69.07111584
  0
VERTEX
  8
0
 10
-41.41282567
 20
69.39037026
  0
VERTEX
  8
0
 10
-42.04627654
 20
69.74601553
  0
VERTEX
  8
0
 10
-42.65627071
 20
70.13668190
  0
VERTEX
  8
0
 10
-43.24145122
 20
70.56099967
  0
VERTEX
  8
0
 10
-43.80046108
 20
71.01759910
  0
VERTEX
  8
0
 10
-44.33194331
 20
71.50511045
  0
VERTEX
  8
0
 10
-44.83454094
 20
72.02216402
  0
VERTEX
  8
0
 10
-45.30689700
 20
72.56739006
  0
VERTEX
  8
0
 10
-45.74765450
 20
73.13941885
  0
VERTEX
  8
0
 10
-95.61197420
 20
73.18224025
  0
VERTEX
  8
0
 10
-96.08238584
 20
73.19145261
  0
VERTEX
  8
0
 10
-96.54685535
 20
73.21799481
  0
VERTEX
  8
0
 10
-97.00479407
 20
73.26143448
  0
VERTEX
  8
0
 10
-97.45561333
 20
73.32133926
  0
VERTEX
  8
0
 10
-97.89872447
 20
73.39727678
  0
VERTEX
  8
0
 10
-98.33353882
 20
73.48881468
  0
VERTEX
  8
0
 10
-98.75946771
 20
73.59552059
  0
VERTEX
  8
0
 10
-99.17592247
 20
73.71696216
  0
VERTEX
  8
0
 10
-99.58231444
 20
73.85270703
  0
VERTEX
  8
0
 10
-99.97805495
 20
74.00232282
  0
VERTEX
  8
0
 10
-100.36255534
 20
74.16537717
  0
VERTEX
  8
0
 10
-100.73522693
 20
74.34143772
  0
VERTEX
  8
0
 10
-101.09548106
 20
74.53007211
  0
VERTEX
  8
0
 10
-101.44272906
 20
74.73084798
  0
VERTEX
  8
0
 10
-101.77638227
 20
74.94333296
  0
VERTEX
  8
0
 10
-102.09585202
 20
75.16709468
  0
VERTEX
  8
0
 10
-102.40054964
 20
75.40170079
  0
VERTEX
  8
0
 10
-102.68988646
 20
75.64671892
  0
VERTEX
  8
0
 10
-102.96327382
 20
75.90171671
  0
VERTEX
  8
0
 10
-103.22012305
 20
76.16626179
  0
VERTEX
  8
0
 10
-103.45984549
 20
76.43992180
  0
VERTEX
  8
0
 10
-103.68185246
 20
76.72226438
  0
VERTEX
  8
0
 10
-103.88555530
 20
77.01285717
  0
VERTEX
  8
0
 10
-104.07036534
 20
77.31126779
  0
VERTEX
  8
0
 10
-104.23569392
 20
77.61706390
  0
VERTEX
  8
0
 10
-104.38095237
 20
77.92981312
  0
VERTEX
  8
0
 10
-104.50555202
 20
78.24908309
  0
VERTEX
  8
0
 10
-104.60890421
 20
78.57444145
  0
VERTEX
  8
0
 10
-104.69042026
 20
78.90545583
  0
VERTEX
  8
0
 10
-104.74951151
 20
79.24169388
  0
VERTEX
  8
0
 10
-104.78558930
 20
79.58272322
  0
VERTEX
  8
0
 10
-104.79806495
 20
79.92811150
  0
VERTEX
  8
0
 10
-104.79976580
 20
81.14441935
  0
VERTEX
  8
0
 10
-104.78824168
 20
81.48978670
  0
VERTEX
  8
0
 10
-104.75310420
 20
81.83075395
  0
VERTEX
  8
0
 10
-104.69494076
 20
82.16688978
  0
VERTEX
  8
0
 10
-104.61433876
 20
82.49776287
  0
VERTEX
  8
0
 10
-104.51188560
 20
82.82294191
  0
VERTEX
  8
0
 10
-104.38816870
 20
83.14199557
  0
VERTEX
  8
0
 10
-104.24377544
 20
83.45449253
  0
VERTEX
  8
0
 10
-104.07929324
 20
83.76000149
  0
VERTEX
  8
0
 10
-103.89530950
 20
84.05809111
  0
VERTEX
  8
0
 10
-103.69241162
 20
84.34833008
  0
VERTEX
  8
0
 10
-103.47118700
 20
84.63028707
  0
VERTEX
  8
0
 10
-103.23222305
 20
84.90353078
  0
VERTEX
  8
0
 10
-102.97610716
 20
85.16762988
  0
VERTEX
  8
0
 10
-102.70342675
 20
85.42215305
  0
VERTEX
  8
0
 10
-102.41476921
 20
85.66666897
  0
VERTEX
  8
0
 10
-102.11072195
 20
85.90074632
  0
VERTEX
  8
0
 10
-101.79187237
 20
86.12395380
  0
VERTEX
  8
0
 10
-101.45880787
 20
86.33586006
  0
VERTEX
  8
0
 10
-101.11211587
 20
86.53603381
  0
VERTEX
  8
0
 10
-100.75238375
 20
86.72404371
  0
VERTEX
  8
0
 10
-100.38019892
 20
86.89945844
  0
VERTEX
  8
0
 10
-99.99614879
 20
87.06184670
  0
VERTEX
  8
0
 10
-99.60082075
 20
87.21077716
  0
VERTEX
  8
0
 10
-99.19480222
 20
87.34581850
  0
VERTEX
  8
0
 10
-98.77868059
 20
87.46653940
  0
VERTEX
  8
0
 10
-98.35304327
 20
87.57250855
  0
VERTEX
  8
0
 10
-97.91847766
 20
87.66329461
  0
VERTEX
  8
0
 10
-97.47557116
 20
87.73846629
  0
VERTEX
  8
0
 10
-97.02491117
 20
87.79759225
  0
VERTEX
  8
0
 10
-96.56708511
 20
87.84024117
  0
VERTEX
  8
0
 10
-96.10268037
 20
87.86598175
  0
VERTEX
  8
0
 10
-95.63228435
 20
87.87438265
  0
VERTEX
  8
0
 10
-45.73514825
 20
87.83136115
  0
VERTEX
  8
0
 10
-45.29071000
 20
88.40583460
  0
VERTEX
  8
0
 10
-44.81438712
 20
88.95309537
  0
VERTEX
  8
0
 10
-44.30756941
 20
89.47176011
  0
VERTEX
  8
0
 10
-43.77164668
 20
89.96044547
  0
VERTEX
  8
0
 10
-43.20800872
 20
90.41776809
  0
VERTEX
  8
0
 10
-42.61804536
 20
90.84234460
  0
VERTEX
  8
0
 10
-42.00314639
 20
91.23279165
  0
VERTEX
  8
0
 10
-41.36470162
 20
91.58772589
  0
VERTEX
  8
0
 10
-40.70410085
 20
91.90576396
  0
VERTEX
  8
0
 10
-40.02273390
 20
92.18552249
  0
VERTEX
  8
0
 10
-39.32199056
 20
92.42561814
  0
VERTEX
  8
0
 10
-38.60326065
 20
92.62466754
  0
VERTEX
  8
0
 10
-37.86793397
 20
92.78128734
  0
VERTEX
  8
0
 10
-37.11740032
 20
92.89409418
  0
VERTEX
  8
0
 10
-36.35304951
 20
92.96170470
  0
VERTEX
  8
0
 10
-35.57627135
 20
92.98273555
  0
VERTEX
  8
0
 10
-34.80403682
 20
92.95657057
  0
VERTEX
  8
0
 10
-34.04440287
 20
92.88442900
  0
VERTEX
  8
0
 10
-33.29872619
 20
92.76768057
  0
VERTEX
  8
0
 10
-32.56836346
 20
92.60769500
  0
VERTEX
  8
0
 10
-31.85467137
 20
92.40584202
  0
VERTEX
  8
0
 10
-31.15900659
 20
92.16349137
  0
VERTEX
  8
0
 10
-30.48272583
 20
91.88201276
  0
VERTEX
  8
0
 10
-29.82718574
 20
91.56277592
  0
VERTEX
  8
0
 10
-29.19374303
 20
91.20715059
  0
VERTEX
  8
0
 10
-28.58375438
 20
90.81650649
  0
VERTEX
  8
0
 10
-27.99857646
 20
90.39221335
  0
VERTEX
  8
0
 10
-27.43956597
 20
89.93564089
  0
VERTEX
  8
0
 10
-26.90807958
 20
89.44815884
  0
VERTEX
  8
0
 10
-26.40547399
 20
88.93113693
  0
VERTEX
  8
0
 10
-25.93310586
 20
88.38594490
  0
VERTEX
  8
0
 10
-25.49233190
 20
87.81395245
  0
VERTEX
  8
0
 10
24.37178770
 20
87.77093095
  0
VERTEX
  8
0
 10
24.84219934
 20
87.76170979
  0
VERTEX
  8
0
 10
25.30666887
 20
87.73515992
  0
VERTEX
  8
0
 10
25.76460765
 20
87.69171369
  0
VERTEX
  8
0
 10
26.21542703
 20
87.63180341
  0
VERTEX
  8
0
 10
26.65853835
 20
87.55586142
  0
VERTEX
  8
0
 10
27.09335298
 20
87.46432003
  0
VERTEX
  8
0
 10
27.51928226
 20
87.35761158
  0
VERTEX
  8
0
 10
27.93573753
 20
87.23616839
  0
VERTEX
  8
0
 10
28.34213017
 20
87.10042279
  0
VERTEX
  8
0
 10
28.73787151
 20
86.95080710
  0
VERTEX
  8
0
 10
29.12237290
 20
86.78775366
  0
VERTEX
  8
0
 10
29.49504571
 20
86.61169479
  0
VERTEX
  8
0
 10
29.85530127
 20
86.42306281
  0
VERTEX
  8
0
 10
30.20255094
 20
86.22229005
  0
VERTEX
  8
0
 10
30.53620608
 20
86.00980884
  0
VERTEX
  8
0
 10
30.85567802
 20
85.78605151
  0
VERTEX
  8
0
 10
31.16037814
 20
85.55145037
  0
VERTEX
  8
0
 10
31.44971777
 20
85.30643777
  0
VERTEX
  8
0
 10
31.72310826
 20
85.05144602
  0
VERTEX
  8
0
 10
31.97996098
 20
84.78690746
  0
VERTEX
  8
0
 10
32.21968726
 20
84.51325440
  0
VERTEX
  8
0
 10
32.44169847
 20
84.23091918
  0
VERTEX
  8
0
 10
32.64540595
 20
83.94033412
  0
VERTEX
  8
0
 10
32.83022105
 20
83.64193154
  0
VERTEX
  8
0
 10
32.99555513
 20
83.33614379
  0
VERTEX
  8
0
 10
33.14081954
 20
83.02340317
  0
VERTEX
  8
0
 10
33.26542562
 20
82.70414203
  0
VERTEX
  8
0
 10
33.36878473
 20
82.37879267
  0
VERTEX
  8
0
 10
33.45030822
 20
82.04778744
  0
VERTEX
  8
0
 10
33.50940745
 20
81.71155866
  0
VERTEX
  8
0
 10
33.54549376
 20
81.37053866
  0
VERTEX
  8
0
 10
33.55797850
 20
81.02515975
  0
SEQEND
  0
POLYLINE
  8
Layer_1
 62
256
 66
   1
 39
0.000000
 70
    1
  0
VERTEX
  8
0
 10
-115.01811843
 20
55.90110400
  0
VERTEX
  8
0
 10
-115.01492292
 20
60.79274860
  0
VERTEX
  8
0
 10
-117.80790807
 20
60.79024735
  0
VERTEX
  8
0
 10
-117.81099706
 20
55.92311500
  0
VERTEX
  8
0
 10
-115.01811843
 20
55.90110400
  0
SEQEND
  0
POLYLINE
  8
Layer_1
 62
256
 66
   1
 39
0.000000
 70
    1
  0
VERTEX
  8
0
 10
-115.02248563
 20
101.72050225
  0
VERTEX
  8
0
 10
-115.01929012
 20
106.61204680
  0
VERTEX
  8
0
 10
-117.81216875
 20
106.60954555
  0
VERTEX
  8
0
 10
-117.81547078
 20
101.74241320
  0
VERTEX
  8
0
 10
-115.02248563
 20
101.72050225
  0
SEQEND
  0
POLYLINE
  8
Layer_1
 62
256
 66
   1
 39
0.000000
 70
    1
  0
VERTEX
  8
0
 10
-52.34625215
 20
30.06582918
  0
VERTEX
  8
0
 10
-62.34895100
 20
30.05935625
  0
VERTEX
  8
0
 10
-62.35125215
 20
32.85290384
  0
VERTEX
  8
0
 10
-52.34855330
 20
32.85937677
  0
VERTEX
  8
0
 10
-52.34625215
 20
30.06582918
  0
SEQEND
  0
POLYLINE
  8
Layer_1
 62
256
 66
   1
 39
0.000000
 70
    1
  0
VERTEX
  8
0
 10
-95.53133390
 20
30.06591309
  0
VERTEX
  8
0
 10
-105.53413280
 20
30.05933404
  0
VERTEX
  8
0
 10
-105.53633390
 20
32.85298775
  0
VERTEX
  8
0
 10
-95.53373510
 20
32.85956679
  0
VERTEX
  8
0
 10
-95.53133390
 20
30.06591309
  0
SEQEND
  0
POLYLINE
  8
Layer_1
 62
256
 66
   1
 39
0.000000
 70
    1
  0
VERTEX
  8
0
 10
-50.23919915
 20
-221.18486975
  0
VERTEX
  8
0
 10
-60.24179795
 20
-221.19137300
  0
VERTEX
  8
0
 10
-60.24419915
 20
-218.39647625
  0
VERTEX
  8
0
 10
-50.24160035
 20
-218.38997300
  0
VERTEX
  8
0
 10
-50.23919915
 20
-221.18486975
  0
SEQEND
  0
POLYLINE
  8
Layer_1
 62
256
 66
   1
 39
0.000000
 70
    1
  0
VERTEX
  8
0
 10
-121.85058695
 20
-222.31633520
  0
VERTEX
  8
0
 10
-121.85058695
 20
34.88270005
  0
VERTEX
  8
0
 10
-121.83919644
 20
35.10638330
  0
VERTEX
  8
0
 10
-121.80577510
 20
35.32379373
  0
VERTEX
  8
0
 10
-121.75144820
 20
35.53380564
  0
VERTEX
  8
0
 10
-121.67734100
 20
35.73529332
  0
VERTEX
  8
0
 10
-121.58457877
 20
35.92713106
  0
VERTEX
  8
0
 10
-121.47428678
 20
36.10819315
  0
VERTEX
  8
0
 10
-121.34759031
 20
36.27735389
  0
VERTEX
  8
0
 10
-121.20561463
 20
36.43348756
  0
VERTEX
  8
0
 10
-121.04948499
 20
36.57546845
  0
VERTEX
  8
0
 10
-120.88032667
 20
36.70217085
  0
VERTEX
  8
0
 10
-120.69926495
 20
36.81246907
  0
VERTEX
  8
0
 10
-120.50742508
 20
36.90523738
  0
VERTEX
  8
0
 10
-120.30593234
 20
36.97935007
  0
VERTEX
  8
0
 10
-120.09591200
 20
37.03368145
  0
VERTEX
  8
0
 10
-119.87848933
 20
37.06710579
  0
VERTEX
  8
0
 10
-119.65478960
 20
37.07849740
  0
VERTEX
  8
0
 10
-115.90931780
 20
37.07849740
  0
VERTEX
  8
0
 10
-115.84768700
 20
37.07759695
  0
VERTEX
  8
0
 10
-115.84768700
 20
37.07849740
  0
VERTEX
  8
0
 10
-32.90333555
 20
37.13972800
  0
VERTEX
  8
0
 10
-32.64563731
 20
37.12126325
  0
VERTEX
  8
0
 10
-32.39534946
 20
37.06666766
  0
VERTEX
  8
0
 10
-32.15374104
 20
36.97775824
  0
VERTEX
  8
0
 10
-31.92208111
 20
36.85635201
  0
VERTEX
  8
0
 10
-31.70163869
 20
36.70426599
  0
VERTEX
  8
0
 10
-31.49368283
 20
36.52331721
  0
VERTEX
  8
0
 10
-31.29948258
 20
36.31532269
  0
VERTEX
  8
0
 10
-31.12030698
 20
36.08209945
  0
VERTEX
  8
0
 10
-30.95742507
 20
35.82546451
  0
VERTEX
  8
0
 10
-30.81210589
 20
35.54723489
  0
VERTEX
  8
0
 10
-30.68561848
 20
35.24922761
  0
VERTEX
  8
0
 10
-30.57923189
 20
34.93325969
  0
VERTEX
  8
0
 10
-30.49421516
 20
34.60114816
  0
VERTEX
  8
0
 10
-30.43183733
 20
34.25471004
  0
VERTEX
  8
0
 10
-30.39336745
 20
33.89576235
  0
VERTEX
  8
0
 10
-30.38007455
 20
33.52612210
  0
VERTEX
  8
0
 10
-30.39282865
 20
33.15644688
  0
VERTEX
  8
0
 10
-30.43077235
 20
32.79743255
  0
VERTEX
  8
0
 10
-30.49263981
 20
32.45089731
  0
VERTEX
  8
0
 10
-30.57716523
 20
32.11865935
  0
VERTEX
  8
0
 10
-30.68308279
 20
31.80253686
  0
VERTEX
  8
0
 10
-30.80912666
 20
31.50434805
  0
VERTEX
  8
0
 10
-30.95403104
 20
31.22591109
  0
VERTEX
  8
0
 10
-31.11653009
 20
30.96904420
  0
VERTEX
  8
0
 10
-31.29535801
 20
30.73556556
  0
VERTEX
  8
0
 10
-31.48924898
 20
30.52729336
  0
VERTEX
  8
0
 10
-31.69693717
 20
30.34604580
  0
VERTEX
  8
0
 10
-31.91715677
 20
30.19364107
  0
VERTEX
  8
0
 10
-32.14864196
 20
30.07189736
  0
VERTEX
  8
0
 10
-32.39012693
 20
29.98263288
  0
VERTEX
  8
0
 10
-32.64034584
 20
29.92766581
  0
VERTEX
  8
0
 10
-32.89803290
 20
29.90881435
  0
VERTEX
  8
0
 10
-32.89753265
 20
29.21646835
  0
VERTEX
  8
0
 10
-32.63980033
 20
29.19800470
  0
VERTEX
  8
0
 10
-32.38948500
 20
29.14341211
  0
VERTEX
  8
0
 10
-32.14785526
 20
29.05450716
  0
VERTEX
  8
0
 10
-31.91617972
 20
28.93310643
  0
VERTEX
  8
0
 10
-31.69572697
 20
28.78102649
  0
VERTEX
  8
0
 10
-31.48776562
 20
28.60008394
  0
VERTEX
  8
0
 10
-31.29356427
 20
28.39209536
  0
VERTEX
  8
0
 10
-31.11439153
 20
28.15887732
  0
VERTEX
  8
0
 10
-30.95151599
 20
27.90224641
  0
VERTEX
  8
0
 10
-30.80620626
 20
27.62401920
  0
VERTEX
  8
0
 10
-30.67973094
 20
27.32601229
  0
VERTEX
  8
0
 10
-30.57335864
 20
27.01004225
  0
VERTEX
  8
0
 10
-30.48835796
 20
26.67792567
  0
VERTEX
  8
0
 10
-30.42599750
 20
26.33147912
  0
VERTEX
  8
0
 10
-30.38754586
 20
25.97251918
  0
VERTEX
  8
0
 10
-30.37427165
 20
25.60286245
  0
VERTEX
  8
0
 10
-30.38700814
 20
25.23320484
  0
VERTEX
  8
0
 10
-30.42493642
 20
24.87420592
  0
VERTEX
  8
0
 10
-30.48679053
 20
24.52768404
  0
VERTEX
  8
0
 10
-30.57130449
 20
24.19545754
  0
VERTEX
  8
0
 10
-30.67721235
 20
23.87934475
  0
VERTEX
  8
0
 10
-30.80324814
 20
23.58116402
  0
VERTEX
  8
0
 10
-30.94814589
 20
23.30273369
  0
VERTEX
  8
0
 10
-31.11063965
 20
23.04587209
  0
VERTEX
  8
0
 10
-31.28946344
 20
22.81239758
  0
VERTEX
  8
0
 10
-31.48335130
 20
22.60412848
  0
VERTEX
  8
0
 10
-31.69103727
 20
22.42288314
  0
VERTEX
  8
0
 10
-31.91125538
 20
22.27047990
  0
VERTEX
  8
0
 10
-32.14273967
 20
22.14873710
  0
VERTEX
  8
0
 10
-32.38422417
 20
22.05947309
  0
VERTEX
  8
0
 10
-32.63444292
 20
22.00450619
  0
VERTEX
  8
0
 10
-32.89212995
 20
21.98565475
  0
VERTEX
  8
0
 10
-32.89192985
 20
21.67559980
  0
VERTEX
  8
0
 10
-32.63421512
 20
21.65711854
  0
VERTEX
  8
0
 10
-32.38391503
 20
21.60251054
  0
VERTEX
  8
0
 10
-32.14229819
 20
21.51359223
  0
VERTEX
  8
0
 10
-31.91063320
 20
21.39218004
  0
VERTEX
  8
0
 10
-31.69018865
 20
21.24009041
  0
VERTEX
  8
0
 10
-31.48223317
 20
21.05913977
  0
VERTEX
  8
0
 10
-31.28803533
 20
20.85114457
  0
VERTEX
  8
0
 10
-31.10886376
 20
20.61792123
  0
VERTEX
  8
0
 10
-30.94598705
 20
20.36128618
  0
VERTEX
  8
0
 10
-30.80067381
 20
20.08305588
  0
VERTEX
  8
0
 10
-30.67419263
 20
19.78504674
  0
VERTEX
  8
0
 10
-30.56781212
 20
19.46907521
  0
VERTEX
  8
0
 10
-30.48280089
 20
19.13695772
  0
VERTEX
  8
0
 10
-30.42042753
 20
18.79051071
  0
VERTEX
  8
0
 10
-30.38196065
 20
18.43155061
  0
VERTEX
  8
0
 10
-30.36866885
 20
18.06189385
  0
VERTEX
  8
0
 10
-30.38142295
 20
17.69221753
  0
VERTEX
  8
0
 10
-30.41936665
 20
17.33320019
  0
VERTEX
  8
0
 10
-30.48123411
 20
16.98666048
  0
VERTEX
  8
0
 10
-30.56575953
 20
16.65441703
  0
VERTEX
  8
0
 10
-30.67167709
 20
16.33828846
  0
VERTEX
  8
0
 10
-30.79772096
 20
16.04009342
  0
VERTEX
  8
0
 10
-30.94262534
 20
15.76165053
  0
VERTEX
  8
0
 10
-31.10512439
 20
15.50477843
  0
VERTEX
  8
0
 10
-31.28395231
 20
15.27129576
  0
VERTEX
  8
0
 10
-31.47784328
 20
15.06302114
  0
VERTEX
  8
0
 10
-31.68553147
 20
14.88177321
  0
VERTEX
  8
0
 10
-31.90575107
 20
14.72937061
  0
VERTEX
  8
0
 10
-32.13723626
 20
14.60763196
  0
VERTEX
  8
0
 10
-32.37872123
 20
14.51837591
  0
VERTEX
  8
0
 10
-32.62894014
 20
14.46342107
  0
VERTEX
  8
0
 10
-32.88662720
 20
14.44458610
  0
VERTEX
  8
0
 10
-32.88622700
 20
13.92662725
  0
VERTEX
  8
0
 10
-32.62852876
 20
13.90816360
  0
VERTEX
  8
0
 10
-32.37824091
 20
13.85357101
  0
VERTEX
  8
0
 10
-32.13663249
 20
13.76466606
  0
VERTEX
  8
0
 10
-31.90497256
 20
13.64326533
  0
VERTEX
  8
0
 10
-31.68453014
 20
13.49118539
  0
VERTEX
  8
0
 10
-31.47657428
 20
13.31024284
  0
VERTEX
  8
0
 10
-31.28237403
 20
13.10225426
  0
VERTEX
  8
0
 10
-31.10319843
 20
12.86903622
  0
VERTEX
  8
0
 10
-30.94031652
 20
12.61240531
  0
VERTEX
  8
0
 10
-30.79499734
 20
12.33417810
  0
VERTEX
  8
0
 10
-30.66850993
 20
12.03617119
  0
VERTEX
  8
0
 10
-30.56212334
 20
11.72020115
  0
VERTEX
  8
0
 10
-30.47710661
 20
11.38808457
  0
VERTEX
  8
0
 10
-30.41472878
 20
11.04163802
  0
VERTEX
  8
0
 10
-30.37625890
 20
10.68267808
  0
VERTEX
  8
0
 10
-30.36296600
 20
10.31302135
  0
VERTEX
  8
0
 10
-30.37572010
 20
9.94336261
  0
VERTEX
  8
0
 10
-30.41366380
 20
9.58436052
  0
VERTEX
  8
0
 10
-30.47553126
 20
9.23783371
  0
VERTEX
  8
0
 10
-30.56005668
 20
8.90560080
  0
VERTEX
  8
0
 10
-30.66597424
 20
8.58948044
  0
VERTEX
  8
0
 10
-30.79201811
 20
8.29129126
  0
VERTEX
  8
0
 10
-30.93692249
 20
8.01285189
  0
VERTEX
  8
0
 10
-31.09942154
 20
7.75598097
  0
VERTEX
  8
0
 10
-31.27824946
 20
7.52249712
  0
VERTEX
  8
0
 10
-31.47214043
 20
7.31421899
  0
VERTEX
  8
0
 10
-31.67982862
 20
7.13296520
  0
VERTEX
  8
0
 10
-31.90004822
 20
6.98055439
  0
VERTEX
  8
0
 10
-32.13153341
 20
6.85880519
  0
VERTEX
  8
0
 10
-32.37301838
 20
6.76953624
  0
VERTEX
  8
0
 10
-32.62323729
 20
6.71456616
  0
VERTEX
  8
0
 10
-32.88092435
 20
6.69571360
  0
VERTEX
  8
0
 10
-32.88062420
 20
6.38575870
  0
VERTEX
  8
0
 10
-32.62291059
 20
6.36727747
  0
VERTEX
  8
0
 10
-32.37261368
 20
6.31266963
  0
VERTEX
  8
0
 10
-32.13100177
 20
6.22375178
  0
VERTEX
  8
0
 10
-31.89934318
 20
6.10234050
  0
VERTEX
  8
0
 10
-31.67890621
 20
5.95025236
  0
VERTEX
  8
0
 10
-31.47095917
 20
5.76930395
  0
VERTEX
  8
0
 10
-31.27677038
 20
5.56131184
  0
VERTEX
  8
0
 10
-31.09760814
 20
5.32809263
  0
VERTEX
  8
0
 10
-30.93474076
 20
5.07146289
  0
VERTEX
  8
0
 10
-30.78943655
 20
4.79323921
  0
VERTEX
  8
0
 10
-30.66296382
 20
4.49523816
  0
VERTEX
  8
0
 10
-30.55659089
 20
4.17927632
  0
VERTEX
  8
0
 10
-30.47158605
 20
3.84717029
  0
VERTEX
  8
0
 10
-30.40921763
 20
3.50073664
  0
VERTEX
  8
0
 10
-30.37075393
 20
3.14179195
  0
VERTEX
  8
0
 10
-30.35746325
 20
2.77215280
  0
VERTEX
  8
0
 10
-30.37019974
 20
2.40247645
  0
VERTEX
  8
0
 10
-30.40812802
 20
2.04345895
  0
VERTEX
  8
0
 10
-30.46998213
 20
1.69691877
  0
VERTEX
  8
0
 10
-30.55449609
 20
1.36467441
  0
VERTEX
  8
0
 10
-30.66040395
 20
1.04854436
  0
VERTEX
  8
0
 10
-30.78643974
 20
0.75034709
  0
VERTEX
  8
0
 10
-30.93133749
 20
0.47190110
  0
VERTEX
  8
0
 10
-31.09383125
 20
0.21502488
  0
VERTEX
  8
0
 10
-31.27265504
 20
-0.01846310
  0
VERTEX
  8
0
 10
-31.46654290
 20
-0.22674434
  0
VERTEX
  8
0
 10
-31.67422887
 20
-0.40800035
  0
VERTEX
  8
0
 10
-31.89444698
 20
-0.56041265
  0
VERTEX
  8
0
 10
-32.12593127
 20
-0.68216275
  0
VERTEX
  8
0
 10
-32.36741577
 20
-0.77143217
  0
VERTEX
  8
0
 10
-32.61763452
 20
-0.82640241
  0
VERTEX
  8
0
 10
-32.87532155
 20
-0.84525500
  0
VERTEX
  8
0
 10
-32.87462120
 20
-1.79412920
  0
VERTEX
  8
0
 10
-32.61690649
 20
-1.81262695
  0
VERTEX
  8
0
 10
-32.36660658
 20
-1.86724719
  0
VERTEX
  8
0
 10
-32.12499020
 20
-1.95617393
  0
VERTEX
  8
0
 10
-31.89332611
 20
-2.07759117
  0
VERTEX
  8
0
 10
-31.67288306
 20
-2.22968293
  0
VERTEX
  8
0
 10
-31.46492979
 20
-2.41063320
  0
VERTEX
  8
0
 10
-31.27073506
 20
-2.61862598
  0
VERTEX
  8
0
 10
-31.09156762
 20
-2.85184529
  0
VERTEX
  8
0
 10
-30.92869621
 20
-3.10847513
  0
VERTEX
  8
0
 10
-30.78338958
 20
-3.38669950
  0
VERTEX
  8
0
 10
-30.65691649
 20
-3.68470241
  0
VERTEX
  8
0
 10
-30.55054568
 20
-4.00066786
  0
VERTEX
  8
0
 10
-30.46554590
 20
-4.33277985
  0
VERTEX
  8
0
 10
-30.40318590
 20
-4.67922239
  0
VERTEX
  8
0
 10
-30.36473444
 20
-5.03817949
  0
VERTEX
  8
0
 10
-30.35146025
 20
-5.40783515
  0
VERTEX
  8
0
 10
-30.36419564
 20
-5.77751147
  0
VERTEX
  8
0
 10
-30.40212092
 20
-6.13652881
  0
VERTEX
  8
0
 10
-30.46397055
 20
-6.48306852
  0
VERTEX
  8
0
 10
-30.54847902
 20
-6.81531197
  0
VERTEX
  8
0
 10
-30.65438080
 20
-7.13144054
  0
VERTEX
  8
0
 10
-30.78041036
 20
-7.42963558
  0
VERTEX
  8
0
 10
-30.92530218
 20
-7.70807847
  0
VERTEX
  8
0
 10
-31.08779073
 20
-7.96495057
  0
VERTEX
  8
0
 10
-31.26661049
 20
-8.19843324
  0
VERTEX
  8
0
 10
-31.46049594
 20
-8.40670786
  0
VERTEX
  8
0
 10
-31.66818154
 20
-8.58795579
  0
VERTEX
  8
0
 10
-31.88840177
 20
-8.74035839
  0
VERTEX
  8
0
 10
-32.11989112
 20
-8.86209704
  0
VERTEX
  8
0
 10
-32.36138405
 20
-8.95135309
  0
VERTEX
  8
0
 10
-32.61161503
 20
-9.00630793
  0
VERTEX
  8
0
 10
-32.86931855
 20
-9.02514290
  0
VERTEX
  8
0
 10
-32.86911845
 20
-9.33529790
  0
VERTEX
  8
0
 10
-32.61140372
 20
-9.35377801
  0
VERTEX
  8
0
 10
-32.36110363
 20
-9.40838267
  0
VERTEX
  8
0
 10
-32.11948679
 20
-9.49729558
  0
VERTEX
  8
0
 10
-31.88782180
 20
-9.61870047
  0
VERTEX
  8
0
 10
-31.66737725
 20
-9.77078104
  0
VERTEX
  8
0
 10
-31.45942177
 20
-9.95172100
  0
VERTEX
  8
0
 10
-31.26522393
 20
-10.15970406
  0
VERTEX
  8
0
 10
-31.08605236
 20
-10.39291394
  0
VERTEX
  8
0
 10
-30.92317565
 20
-10.64953435
  0
VERTEX
  8
0
 10
-30.77786241
 20
-10.92774900
  0
VERTEX
  8
0
 10
-30.65138123
 20
-11.22574160
  0
VERTEX
  8
0
 10
-30.54500072
 20
-11.54169586
  0
VERTEX
  8
0
 10
-30.45998949
 20
-11.87379549
  0
VERTEX
  8
0
 10
-30.39761613
 20
-12.22022421
  0
VERTEX
  8
0
 10
-30.35914925
 20
-12.57916573
  0
VERTEX
  8
0
 10
-30.34585745
 20
-12.94880375
  0
VERTEX
  8
0
 10
-30.35857745
 20
-13.31847902
  0
VERTEX
  8
0
 10
-30.39649350
 20
-13.67749369
  0
VERTEX
  8
0
 10
-30.45833918
 20
-14.02402986
  0
VERTEX
  8
0
 10
-30.54284808
 20
-14.35626963
  0
VERTEX
  8
0
 10
-30.64875382
 20
-14.67239510
  0
VERTEX
  8
0
 10
-30.77478997
 20
-14.97058836
  0
VERTEX
  8
0
 10
-30.91969015
 20
-15.24903151
  0
VERTEX
  8
0
 10
-31.08218793
 20
-15.50590666
  0
VERTEX
  8
0
 10
-31.26101693
 20
-15.73939591
  0
VERTEX
  8
0
 10
-31.45491072
 20
-15.94768135
  0
VERTEX
  8
0
 10
-31.66260292
 20
-16.12894508
  0
VERTEX
  8
0
 10
-31.88282711
 20
-16.28136920
  0
VERTEX
  8
0
 10
-32.11431690
 20
-16.40313581
  0
VERTEX
  8
0
 10
-32.35580587
 20
-16.49242702
  0
VERTEX
  8
0
 10
-32.60602762
 20
-16.54742492
  0
VERTEX
  8
0
 10
-32.86371575
 20
-16.56631160
  0
VERTEX
  8
0
 10
-32.86331555
 20
-17.08397030
  0
VERTEX
  8
0
 10
-32.60560082
 20
-17.10245156
  0
VERTEX
  8
0
 10
-32.35530073
 20
-17.15705956
  0
VERTEX
  8
0
 10
-32.11368389
 20
-17.24597787
  0
VERTEX
  8
0
 10
-31.88201890
 20
-17.36739006
  0
VERTEX
  8
0
 10
-31.66157435
 20
-17.51947969
  0
VERTEX
  8
0
 10
-31.45361887
 20
-17.70043033
  0
VERTEX
  8
0
 10
-31.25942103
 20
-17.90842553
  0
VERTEX
  8
0
 10
-31.08024946
 20
-18.14164887
  0
VERTEX
  8
0
 10
-30.91737275
 20
-18.39828392
  0
VERTEX
  8
0
 10
-30.77205951
 20
-18.67651422
  0
VERTEX
  8
0
 10
-30.64557833
 20
-18.97452336
  0
VERTEX
  8
0
 10
-30.53919782
 20
-19.29049489
  0
VERTEX
  8
0
 10
-30.45418659
 20
-19.62261238
  0
VERTEX
  8
0
 10
-30.39181323
 20
-19.96905939
  0
VERTEX
  8
0
 10
-30.35334635
 20
-20.32801949
  0
VERTEX
  8
0
 10
-30.34005455
 20
-20.69767625
  0
VERTEX
  8
0
 10
-30.35279217
 20
-21.06735260
  0
VERTEX
  8
0
 10
-30.39072362
 20
-21.42637010
  0
VERTEX
  8
0
 10
-30.45258266
 20
-21.77291028
  0
VERTEX
  8
0
 10
-30.53710303
 20
-22.10515464
  0
VERTEX
  8
0
 10
-30.64301846
 20
-22.42128469
  0
VERTEX
  8
0
 10
-30.76906270
 20
-22.71948196
  0
VERTEX
  8
0
 10
-30.91396949
 20
-22.99792795
  0
VERTEX
  8
0
 10
-31.07647258
 20
-23.25480418
  0
VERTEX
  8
0
 10
-31.25530570
 20
-23.48829215
  0
VERTEX
  8
0
 10
-31.44920260
 20
-23.69657339
  0
VERTEX
  8
0
 10
-31.65689702
 20
-23.87782940
  0
VERTEX
  8
0
 10
-31.87712270
 20
-24.03024170
  0
VERTEX
  8
0
 10
-32.10861339
 20
-24.15199180
  0
VERTEX
  8
0
 10
-32.35010282
 20
-24.24126122
  0
VERTEX
  8
0
 10
-32.60032475
 20
-24.29623146
  0
VERTEX
  8
0
 10
-32.85801290
 20
-24.31508405
  0
VERTEX
  8
0
 10
-32.85781280
 20
-24.62503895
  0
VERTEX
  8
0
 10
-32.60009807
 20
-24.64350150
  0
VERTEX
  8
0
 10
-32.34979798
 20
-24.69809108
  0
VERTEX
  8
0
 10
-32.10818114
 20
-24.78699157
  0
VERTEX
  8
0
 10
-31.87651615
 20
-24.90838680
  0
VERTEX
  8
0
 10
-31.65607160
 20
-25.06046065
  0
VERTEX
  8
0
 10
-31.44811612
 20
-25.24139697
  0
VERTEX
  8
0
 10
-31.25391828
 20
-25.44937963
  0
VERTEX
  8
0
 10
-31.07474671
 20
-25.68259246
  0
VERTEX
  8
0
 10
-30.91187000
 20
-25.93921934
  0
VERTEX
  8
0
 10
-30.76655676
 20
-26.21744413
  0
VERTEX
  8
0
 10
-30.64007558
 20
-26.51545068
  0
VERTEX
  8
0
 10
-30.53369507
 20
-26.83142284
  0
VERTEX
  8
0
 10
-30.44868384
 20
-27.16354448
  0
VERTEX
  8
0
 10
-30.38631048
 20
-27.50999946
  0
VERTEX
  8
0
 10
-30.34784360
 20
-27.86897163
  0
VERTEX
  8
0
 10
-30.33455180
 20
-28.23864485
  0
VERTEX
  8
0
 10
-30.34730480
 20
-28.60832007
  0
VERTEX
  8
0
 10
-30.38524549
 20
-28.96733440
  0
VERTEX
  8
0
 10
-30.44710849
 20
-29.31386964
  0
VERTEX
  8
0
 10
-30.53162841
 20
-29.64610760
  0
VERTEX
  8
0
 10
-30.63753989
 20
-29.96223009
  0
VERTEX
  8
0
 10
-30.76357753
 20
-30.26041890
  0
VERTEX
  8
0
 10
-30.90847597
 20
-30.53885586
  0
VERTEX
  8
0
 10
-31.07096983
 20
-30.79572275
  0
VERTEX
  8
0
 10
-31.24979371
 20
-31.02920139
  0
VERTEX
  8
0
 10
-31.44368226
 20
-31.23747359
  0
VERTEX
  8
0
 10
-31.65137009
 20
-31.41872115
  0
VERTEX
  8
0
 10
-31.87159181
 20
-31.57112588
  0
VERTEX
  8
0
 10
-32.10308206
 20
-31.69286959
  0
VERTEX
  8
0
 10
-32.34457545
 20
-31.78213407
  0
VERTEX
  8
0
 10
-32.59480661
 20
-31.83710114
  0
VERTEX
  8
0
 10
-32.85251015
 20
-31.85595260
  0
VERTEX
  8
0
 10
-32.85180980
 20
-32.54809850
  0
VERTEX
  8
0
 10
-32.59411271
 20
-32.56659622
  0
VERTEX
  8
0
 10
-32.34382820
 20
-32.62121629
  0
VERTEX
  8
0
 10
-32.10222519
 20
-32.71014257
  0
VERTEX
  8
0
 10
-31.87057255
 20
-32.83155891
  0
VERTEX
  8
0
 10
-31.65013920
 20
-32.98364917
  0
VERTEX
  8
0
 10
-31.44219402
 20
-33.16459722
  0
VERTEX
  8
0
 10
-31.24800591
 20
-33.37258691
  0
VERTEX
  8
0
 10
-31.06884376
 20
-33.60580209
  0
VERTEX
  8
0
 10
-30.90597648
 20
-33.86242662
  0
VERTEX
  8
0
 10
-30.76067296
 20
-34.14064438
  0
VERTEX
  8
0
 10
-30.63420209
 20
-34.43863920
  0
VERTEX
  8
0
 10
-30.52783277
 20
-34.75459495
  0
VERTEX
  8
0
 10
-30.44283389
 20
-35.08669548
  0
VERTEX
  8
0
 10
-30.38047436
 20
-35.43312467
  0
VERTEX
  8
0
 10
-30.34202306
 20
-35.79206635
  0
VERTEX
  8
0
 10
-30.32874890
 20
-36.16170440
  0
VERTEX
  8
0
 10
-30.34146888
 20
-36.53141487
  0
VERTEX
  8
0
 10
-30.37938475
 20
-36.89046020
  0
VERTEX
  8
0
 10
-30.44122997
 20
-37.23702263
  0
VERTEX
  8
0
 10
-30.52573797
 20
-37.56928440
  0
VERTEX
  8
0
 10
-30.63164221
 20
-37.88542777
  0
VERTEX
  8
0
 10
-30.75767615
 20
-38.18363498
  0
VERTEX
  8
0
 10
-30.90257322
 20
-38.46208827
  0
VERTEX
  8
0
 10
-31.06506687
 20
-38.71896989
  0
VERTEX
  8
0
 10
-31.24389057
 20
-38.95246209
  0
VERTEX
  8
0
 10
-31.43777775
 20
-39.16074712
  0
VERTEX
  8
0
 10
-31.64546186
 20
-39.34200721
  0
VERTEX
  8
0
 10
-31.86567635
 20
-39.49442461
  0
VERTEX
  8
0
 10
-32.09715468
 20
-39.61618158
  0
VERTEX
  8
0
 10
-32.33863029
 20
-39.70546035
  0
VERTEX
  8
0
 10
-32.58883663
 20
-39.76044318
  0
VERTEX
  8
0
 10
-32.84650715
 20
-39.77931230
  0
VERTEX
  8
0
 10
-32.84630705
 20
-40.08926720
  0
VERTEX
  8
0
 10
-32.58859344
 20
-40.10774731
  0
VERTEX
  8
0
 10
-32.33829653
 20
-40.16235197
  0
VERTEX
  8
0
 10
-32.09668462
 20
-40.25126488
  0
VERTEX
  8
0
 10
-31.86502603
 20
-40.37266977
  0
VERTEX
  8
0
 10
-31.64458906
 20
-40.52475034
  0
VERTEX
  8
0
 10
-31.43664202
 20
-40.70569030
  0
VERTEX
  8
0
 10
-31.24245323
 20
-40.91367336
  0
VERTEX
  8
0
 10
-31.06329099
 20
-41.14688324
  0
VERTEX
  8
0
 10
-30.90042361
 20
-41.40350365
  0
VERTEX
  8
0
 10
-30.75511940
 20
-41.68171830
  0
VERTEX
  8
0
 10
-30.62864667
 20
-41.97971090
  0
VERTEX
  8
0
 10
-30.52227374
 20
-42.29566516
  0
VERTEX
  8
0
 10
-30.43726890
 20
-42.62776479
  0
VERTEX
  8
0
 10
-30.37490048
 20
-42.97419351
  0
VERTEX
  8
0
 10
-30.33643678
 20
-43.33313503
  0
VERTEX
  8
0
 10
-30.32314610
 20
-43.70277305
  0
VERTEX
  8
0
 10
-30.33588149
 20
-44.07246698
  0
VERTEX
  8
0
 10
-30.37380677
 20
-44.43149973
  0
VERTEX
  8
0
 10
-30.43565640
 20
-44.77805280
  0
VERTEX
  8
0
 10
-30.52016487
 20
-45.11030772
  0
VERTEX
  8
0
 10
-30.62606665
 20
-45.42644598
  0
VERTEX
  8
0
 10
-30.75209621
 20
-45.72464911
  0
VERTEX
  8
0
 10
-30.89698803
 20
-46.00309861
  0
VERTEX
  8
0
 10
-31.05947658
 20
-46.25997601
  0
VERTEX
  8
0
 10
-31.23829634
 20
-46.49346281
  0
VERTEX
  8
0
 10
-31.43218179
 20
-46.70174053
  0
VERTEX
  8
0
 10
-31.63986739
 20
-46.88299068
  0
VERTEX
  8
0
 10
-31.86008762
 20
-47.03539478
  0
VERTEX
  8
0
 10
-32.09157697
 20
-47.15713433
  0
VERTEX
  8
0
 10
-32.33306990
 20
-47.24639085
  0
VERTEX
  8
0
 10
-32.58330088
 20
-47.30134585
  0
VERTEX
  8
0
 10
-32.84100440
 20
-47.32018085
  0
VERTEX
  8
0
 10
-32.84060420
 20
-47.83813970
  0
VERTEX
  8
0
 10
-32.58289057
 20
-47.85660220
  0
VERTEX
  8
0
 10
-32.33259349
 20
-47.91119144
  0
VERTEX
  8
0
 10
-32.09098111
 20
-48.00009100
  0
VERTEX
  8
0
 10
-31.85932162
 20
-48.12148443
  0
VERTEX
  8
0
 10
-31.63888316
 20
-48.27355530
  0
VERTEX
  8
0
 10
-31.43093390
 20
-48.45448717
  0
VERTEX
  8
0
 10
-31.23674200
 20
-48.66246362
  0
VERTEX
  8
0
 10
-31.05757563
 20
-48.89566820
  0
VERTEX
  8
0
 10
-30.89470295
 20
-49.15228448
  0
VERTEX
  8
0
 10
-30.74939212
 20
-49.43049603
  0
VERTEX
  8
0
 10
-30.62291131
 20
-49.72848640
  0
VERTEX
  8
0
 10
-30.51652868
 20
-50.04443917
  0
VERTEX
  8
0
 10
-30.43151239
 20
-50.37653790
  0
VERTEX
  8
0
 10
-30.36913060
 20
-50.72296616
  0
VERTEX
  8
0
 10
-30.33065149
 20
-51.08190750
  0
VERTEX
  8
0
 10
-30.31734320
 20
-51.45154550
  0
VERTEX
  8
0
 10
-30.33009730
 20
-51.82122187
  0
VERTEX
  8
0
 10
-30.36804100
 20
-52.18023955
  0
VERTEX
  8
0
 10
-30.42990846
 20
-52.52678019
  0
VERTEX
  8
0
 10
-30.51443388
 20
-52.85902545
  0
VERTEX
  8
0
 10
-30.62035144
 20
-53.17515700
  0
VERTEX
  8
0
 10
-30.74639531
 20
-53.47335649
  0
VERTEX
  8
0
 10
-30.89129969
 20
-53.75180558
  0
VERTEX
  8
0
 10
-31.05379874
 20
-54.00868593
  0
VERTEX
  8
0
 10
-31.23262666
 20
-54.24217921
  0
VERTEX
  8
0
 10
-31.42651763
 20
-54.45046706
  0
VERTEX
  8
0
 10
-31.63420582
 20
-54.63173116
  0
VERTEX
  8
0
 10
-31.85442542
 20
-54.78415316
  0
VERTEX
  8
0
 10
-32.08591061
 20
-54.90591472
  0
VERTEX
  8
0
 10
-32.32739558
 20
-54.99519750
  0
VERTEX
  8
0
 10
-32.57761449
 20
-55.05018315
  0
VERTEX
  8
0
 10
-32.83530155
 20
-55.06905335
  0
VERTEX
  8
0
 10
-32.83500140
 20
-55.37910830
  0
VERTEX
  8
0
 10
-32.57728667
 20
-55.39755543
  0
VERTEX
  8
0
 10
-32.32698658
 20
-55.45213562
  0
VERTEX
  8
0
 10
-32.08536974
 20
-55.54103168
  0
VERTEX
  8
0
 10
-31.85370475
 20
-55.66242645
  0
VERTEX
  8
0
 10
-31.63326020
 20
-55.81450277
  0
VERTEX
  8
0
 10
-31.42530472
 20
-55.99544346
  0
VERTEX
  8
0
 10
-31.23110688
 20
-56.20343136
  0
VERTEX
  8
0
 10
-31.05193531
 20
-56.43664931
  0
VERTEX
  8
0
 10
-30.88905860
 20
-56.69328012
  0
VERTEX
  8
0
 10
-30.74374536
 20
-56.97150664
  0
VERTEX
  8
0
 10
-30.61726418
 20
-57.26951170
  0
VERTEX
  8
0
 10
-30.51088367
 20
-57.58547812
  0
VERTEX
  8
0
 10
-30.42587244
 20
-57.91758875
  0
VERTEX
  8
0
 10
-30.36349908
 20
-58.26402641
  0
VERTEX
  8
0
 10
-30.32503220
 20
-58.62297393
  0
VERTEX
  8
0
 10
-30.31174040
 20
-58.99261415
  0
VERTEX
  8
0
 10
-30.32449453
 20
-59.36229052
  0
VERTEX
  8
0
 10
-30.36243839
 20
-59.72130820
  0
VERTEX
  8
0
 10
-30.42430632
 20
-60.06784884
  0
VERTEX
  8
0
 10
-30.50883265
 20
-60.40009410
  0
VERTEX
  8
0
 10
-30.61475169
 20
-60.71622565
  0
VERTEX
  8
0
 10
-30.74079779
 20
-61.01442514
  0
VERTEX
  8
0
 10
-30.88570527
 20
-61.29287423
  0
VERTEX
  8
0
 10
-31.04820845
 20
-61.54975458
  0
VERTEX
  8
0
 10
-31.22704167
 20
-61.78324786
  0
VERTEX
  8
0
 10
-31.42093925
 20
-61.99153571
  0
VERTEX
  8
0
 10
-31.62863553
 20
-62.17279981
  0
VERTEX
  8
0
 10
-31.84886483
 20
-62.32522181
  0
VERTEX
  8
0
 10
-32.08036148
 20
-62.44698337
  0
VERTEX
  8
0
 10
-32.32185980
 20
-62.53626615
  0
VERTEX
  8
0
 10
-32.57209413
 20
-62.59125180
  0
VERTEX
  8
0
 10
-32.82979880
 20
-62.61012200
  0
VERTEX
  8
0
 10
-32.82919850
 20
-63.40952150
  0
VERTEX
  8
0
 10
-32.57146728
 20
-63.42800166
  0
VERTEX
  8
0
 10
-32.32115496
 20
-63.48260666
  0
VERTEX
  8
0
 10
-32.07952969
 20
-63.57152050
  0
VERTEX
  8
0
 10
-31.84785964
 20
-63.69292719
  0
VERTEX
  8
0
 10
-31.62741297
 20
-63.84501074
  0
VERTEX
  8
0
 10
-31.41945785
 20
-64.02595515
  0
VERTEX
  8
0
 10
-31.22526244
 20
-64.23394442
  0
VERTEX
  8
0
 10
-31.04609489
 20
-64.46716256
  0
VERTEX
  8
0
 10
-30.88322339
 20
-64.72379357
  0
VERTEX
  8
0
 10
-30.73791608
 20
-65.00202145
  0
VERTEX
  8
0
 10
-30.61144113
 20
-65.30003022
  0
VERTEX
  8
0
 10
-30.50506670
 20
-65.61600388
  0
VERTEX
  8
0
 10
-30.42006096
 20
-65.94812642
  0
VERTEX
  8
0
 10
-30.35769208
 20
-66.29458186
  0
VERTEX
  8
0
 10
-30.31922820
 20
-66.65355420
  0
VERTEX
  8
0
 10
-30.30593750
 20
-67.02322745
  0
VERTEX
  8
0
 10
-30.31867399
 20
-67.39288619
  0
VERTEX
  8
0
 10
-30.35660227
 20
-67.75188828
  0
VERTEX
  8
0
 10
-30.41845638
 20
-68.09841509
  0
VERTEX
  8
0
 10
-30.50297034
 20
-68.43064800
  0
VERTEX
  8
0
 10
-30.60887820
 20
-68.74676836
  0
VERTEX
  8
0
 10
-30.73491399
 20
-69.04495754
  0
VERTEX
  8
0
 10
-30.87981174
 20
-69.32339691
  0
VERTEX
  8
0
 10
-31.04230550
 20
-69.58026783
  0
VERTEX
  8
0
 10
-31.22112929
 20
-69.81375168
  0
VERTEX
  8
0
 10
-31.41501715
 20
-70.02202981
  0
VERTEX
  8
0
 10
-31.62270312
 20
-70.20328360
  0
VERTEX
  8
0
 10
-31.84292123
 20
-70.35569441
  0
VERTEX
  8
0
 10
-32.07440552
 20
-70.47744361
  0
VERTEX
  8
0
 10
-32.31589002
 20
-70.56671256
  0
VERTEX
  8
0
 10
-32.56610877
 20
-70.62168264
  0
VERTEX
  8
0
 10
-32.82379580
 20
-70.64053520
  0
VERTEX
  8
0
 10
-32.82329555
 20
-71.33278115
  0
VERTEX
  8
0
 10
-32.56558082
 20
-71.35124480
  0
VERTEX
  8
0
 10
-32.31528073
 20
-71.40583739
  0
VERTEX
  8
0
 10
-32.07366389
 20
-71.49474234
  0
VERTEX
  8
0
 10
-31.84199890
 20
-71.61614307
  0
VERTEX
  8
0
 10
-31.62155435
 20
-71.76822301
  0
VERTEX
  8
0
 10
-31.41359887
 20
-71.94916556
  0
VERTEX
  8
0
 10
-31.21940103
 20
-72.15715414
  0
VERTEX
  8
0
 10
-31.04022946
 20
-72.39037218
  0
VERTEX
  8
0
 10
-30.87735275
 20
-72.64700309
  0
VERTEX
  8
0
 10
-30.73203951
 20
-72.92523030
  0
VERTEX
  8
0
 10
-30.60555833
 20
-73.22323721
  0
VERTEX
  8
0
 10
-30.49917782
 20
-73.53920725
  0
VERTEX
  8
0
 10
-30.41416659
 20
-73.87132383
  0
VERTEX
  8
0
 10
-30.35179323
 20
-74.21777038
  0
VERTEX
  8
0
 10
-30.31332635
 20
-74.57673032
  0
VERTEX
  8
0
 10
-30.30003455
 20
-74.94638705
  0
VERTEX
  8
0
 10
-30.31278753
 20
-75.31606227
  0
VERTEX
  8
0
 10
-30.35072805
 20
-75.67507660
  0
VERTEX
  8
0
 10
-30.41259058
 20
-76.02161184
  0
VERTEX
  8
0
 10
-30.49710960
 20
-76.35384980
  0
VERTEX
  8
0
 10
-30.60301958
 20
-76.66997229
  0
VERTEX
  8
0
 10
-30.72905501
 20
-76.96816110
  0
VERTEX
  8
0
 10
-30.87395034
 20
-77.24659806
  0
VERTEX
  8
0
 10
-31.03644007
 20
-77.50346495
  0
VERTEX
  8
0
 10
-31.21525866
 20
-77.73694359
  0
VERTEX
  8
0
 10
-31.40914058
 20
-77.94521579
  0
VERTEX
  8
0
 10
-31.61682032
 20
-78.12646335
  0
VERTEX
  8
0
 10
-31.83703235
 20
-78.27886808
  0
VERTEX
  8
0
 10
-32.06851114
 20
-78.40061179
  0
VERTEX
  8
0
 10
-32.30999117
 20
-78.48987627
  0
VERTEX
  8
0
 10
-32.56020692
 20
-78.54484334
  0
VERTEX
  8
0
 10
-32.81789285
 20
-78.56369480
  0
VERTEX
  8
0
 10
-32.81769275
 20
-78.87384980
  0
VERTEX
  8
0
 10
-32.55996153
 20
-78.89231235
  0
VERTEX
  8
0
 10
-32.30964921
 20
-78.94690193
  0
VERTEX
  8
0
 10
-32.06802394
 20
-79.03580242
  0
VERTEX
  8
0
 10
-31.83635389
 20
-79.15719765
  0
VERTEX
  8
0
 10
-31.61590722
 20
-79.30927150
  0
VERTEX
  8
0
 10
-31.40795210
 20
-79.49020782
  0
VERTEX
  8
0
 10
-31.21375669
 20
-79.69819048
  0
VERTEX
  8
0
 10
-31.03458914
 20
-79.93140331
  0
VERTEX
  8
0
 10
-30.87171764
 20
-80.18803019
  0
VERTEX
  8
0
 10
-30.72641033
 20
-80.46625498
  0
VERTEX
  8
0
 10
-30.59993538
 20
-80.76426153
  0
VERTEX
  8
0
 10
-30.49356095
 20
-81.08023369
  0
VERTEX
  8
0
 10
-30.40855521
 20
-81.41235533
  0
VERTEX
  8
0
 10
-30.34618633
 20
-81.75881031
  0
VERTEX
  8
0
 10
-30.30772245
 20
-82.11778248
  0
VERTEX
  8
0
 10
-30.29443175
 20
-82.48745570
  0
VERTEX
  8
0
 10
-30.30716824
 20
-82.85709682
  0
VERTEX
  8
0
 10
-30.34509652
 20
-83.21608350
  0
VERTEX
  8
0
 10
-30.40695063
 20
-83.56259696
  0
VERTEX
  8
0
 10
-30.49146459
 20
-83.89481840
  0
VERTEX
  8
0
 10
-30.59737245
 20
-84.21092907
  0
VERTEX
  8
0
 10
-30.72340824
 20
-84.50911016
  0
VERTEX
  8
0
 10
-30.86830599
 20
-84.78754291
  0
VERTEX
  8
0
 10
-31.03079975
 20
-85.04440854
  0
VERTEX
  8
0
 10
-31.20962354
 20
-85.27788826
  0
VERTEX
  8
0
 10
-31.40351140
 20
-85.48616329
  0
VERTEX
  8
0
 10
-31.61119737
 20
-85.66741486
  0
VERTEX
  8
0
 10
-31.83141548
 20
-85.81982418
  0
VERTEX
  8
0
 10
-32.06289977
 20
-85.94157247
  0
VERTEX
  8
0
 10
-32.30438427
 20
-86.03084096
  0
VERTEX
  8
0
 10
-32.55460302
 20
-86.08581086
  0
VERTEX
  8
0
 10
-32.81229005
 20
-86.10466340
  0
VERTEX
  8
0
 10
-32.81198990
 20
-86.62262225
  0
VERTEX
  8
0
 10
-32.55427407
 20
-86.64106938
  0
VERTEX
  8
0
 10
-32.30397098
 20
-86.69564957
  0
VERTEX
  8
0
 10
-32.06234967
 20
-86.78454563
  0
VERTEX
  8
0
 10
-31.83067918
 20
-86.90594040
  0
VERTEX
  8
0
 10
-31.61022855
 20
-87.05801672
  0
VERTEX
  8
0
 10
-31.40226684
 20
-87.23895741
  0
VERTEX
  8
0
 10
-31.20806307
 20
-87.44694531
  0
VERTEX
  8
0
 10
-31.02888629
 20
-87.68016326
  0
VERTEX
  8
0
 10
-30.86600555
 20
-87.93679407
  0
VERTEX
  8
0
 10
-30.72068989
 20
-88.21502059
  0
VERTEX
  8
0
 10
-30.59420835
 20
-88.51302565
  0
VERTEX
  8
0
 10
-30.48782996
 20
-88.82899207
  0
VERTEX
  8
0
 10
-30.40282379
 20
-89.16110270
  0
VERTEX
  8
0
 10
-30.34045885
 20
-89.50754036
  0
VERTEX
  8
0
 10
-30.30200421
 20
-89.86648788
  0
VERTEX
  8
0
 10
-30.28872890
 20
-90.23612810
  0
VERTEX
  8
0
 10
-30.30148190
 20
-90.60580447
  0
VERTEX
  8
0
 10
-30.33942259
 20
-90.96482215
  0
VERTEX
  8
0
 10
-30.40128559
 20
-91.31136279
  0
VERTEX
  8
0
 10
-30.48580551
 20
-91.64360805
  0
VERTEX
  8
0
 10
-30.59171699
 20
-91.95973960
  0
VERTEX
  8
0
 10
-30.71775463
 20
-92.25793909
  0
VERTEX
  8
0
 10
-30.86265307
 20
-92.53638818
  0
VERTEX
  8
0
 10
-31.02514692
 20
-92.79326853
  0
VERTEX
  8
0
 10
-31.20397081
 20
-93.02676181
  0
VERTEX
  8
0
 10
-31.39785936
 20
-93.23504966
  0
VERTEX
  8
0
 10
-31.60554719
 20
-93.41631376
  0
VERTEX
  8
0
 10
-31.82576891
 20
-93.56873576
  0
VERTEX
  8
0
 10
-32.05725916
 20
-93.69049732
  0
VERTEX
  8
0
 10
-32.29875255
 20
-93.77978010
  0
VERTEX
  8
0
 10
-32.54898371
 20
-93.83476575
  0
VERTEX
  8
0
 10
-32.80668725
 20
-93.85363595
  0
VERTEX
  8
0
 10
-32.80638710
 20
-94.16349080
  0
VERTEX
  8
0
 10
-32.54867239
 20
-94.18197206
  0
VERTEX
  8
0
 10
-32.29837248
 20
-94.23658006
  0
VERTEX
  8
0
 10
-32.05675610
 20
-94.32549837
  0
VERTEX
  8
0
 10
-31.82509201
 20
-94.44691056
  0
VERTEX
  8
0
 10
-31.60464896
 20
-94.59900019
  0
VERTEX
  8
0
 10
-31.39669569
 20
-94.77995083
  0
VERTEX
  8
0
 10
-31.20250096
 20
-94.98794603
  0
VERTEX
  8
0
 10
-31.02333352
 20
-95.22116937
  0
VERTEX
  8
0
 10
-30.86046211
 20
-95.47780442
  0
VERTEX
  8
0
 10
-30.71515548
 20
-95.75603472
  0
VERTEX
  8
0
 10
-30.58868239
 20
-96.05404386
  0
VERTEX
  8
0
 10
-30.48231158
 20
-96.37001539
  0
VERTEX
  8
0
 10
-30.39731180
 20
-96.70213288
  0
VERTEX
  8
0
 10
-30.33495180
 20
-97.04857989
  0
VERTEX
  8
0
 10
-30.29650034
 20
-97.40753999
  0
VERTEX
  8
0
 10
-30.28322615
 20
-97.77719675
  0
VERTEX
  8
0
 10
-30.29594503
 20
-98.14688846
  0
VERTEX
  8
0
 10
-30.33385790
 20
-98.50591503
  0
VERTEX
  8
0
 10
-30.39569864
 20
-98.85245870
  0
VERTEX
  8
0
 10
-30.48020115
 20
-99.18470171
  0
VERTEX
  8
0
 10
-30.58609931
 20
-99.50082632
  0
VERTEX
  8
0
 10
-30.71212702
 20
-99.79901477
  0
VERTEX
  8
0
 10
-30.85701815
 20
-100.07744930
  0
VERTEX
  8
0
 10
-31.01950661
 20
-100.33431217
  0
VERTEX
  8
0
 10
-31.19832627
 20
-100.56778561
  0
VERTEX
  8
0
 10
-31.39221103
 20
-100.77605187
  0
VERTEX
  8
0
 10
-31.59989478
 20
-100.95729321
  0
VERTEX
  8
0
 10
-31.82011140
 20
-101.10969185
  0
VERTEX
  8
0
 10
-32.05159478
 20
-101.23143006
  0
VERTEX
  8
0
 10
-32.29307882
 20
-101.32069007
  0
VERTEX
  8
0
 10
-32.54329739
 20
-101.37565414
  0
VERTEX
  8
0
 10
-32.80098440
 20
-101.39450450
  0
VERTEX
  8
0
 10
-32.80068425
 20
-101.86523975
  0
VERTEX
  8
0
 10
-32.54297062
 20
-101.88370230
  0
VERTEX
  8
0
 10
-32.29267354
 20
-101.93829188
  0
VERTEX
  8
0
 10
-32.05106116
 20
-102.02719237
  0
VERTEX
  8
0
 10
-31.81940167
 20
-102.14858760
  0
VERTEX
  8
0
 10
-31.59896321
 20
-102.30066145
  0
VERTEX
  8
0
 10
-31.39101395
 20
-102.48159777
  0
VERTEX
  8
0
 10
-31.19682205
 20
-102.68958043
  0
VERTEX
  8
0
 10
-31.01765568
 20
-102.92279326
  0
VERTEX
  8
0
 10
-30.85478300
 20
-103.17942014
  0
VERTEX
  8
0
 10
-30.70947217
 20
-103.45764493
  0
VERTEX
  8
0
 10
-30.58299136
 20
-103.75565148
  0
VERTEX
  8
0
 10
-30.47660873
 20
-104.07162364
  0
VERTEX
  8
0
 10
-30.39159244
 20
-104.40374528
  0
VERTEX
  8
0
 10
-30.32921065
 20
-104.75020026
  0
VERTEX
  8
0
 10
-30.29073154
 20
-105.10917243
  0
VERTEX
  8
0
 10
-30.27742325
 20
-105.47884565
  0
VERTEX
  8
0
 10
-30.29017735
 20
-105.84852087
  0
VERTEX
  8
0
 10
-30.32812105
 20
-106.20753520
  0
VERTEX
  8
0
 10
-30.38998851
 20
-106.55407044
  0
VERTEX
  8
0
 10
-30.47451393
 20
-106.88630840
  0
VERTEX
  8
0
 10
-30.58043149
 20
-107.20243089
  0
VERTEX
  8
0
 10
-30.70647536
 20
-107.50061970
  0
VERTEX
  8
0
 10
-30.85137974
 20
-107.77905666
  0
VERTEX
  8
0
 10
-31.01387879
 20
-108.03592355
  0
VERTEX
  8
0
 10
-31.19270671
 20
-108.26940219
  0
VERTEX
  8
0
 10
-31.38659768
 20
-108.47767439
  0
VERTEX
  8
0
 10
-31.59428587
 20
-108.65892195
  0
VERTEX
  8
0
 10
-31.81450547
 20
-108.81132668
  0
VERTEX
  8
0
 10
-32.04599066
 20
-108.93307039
  0
VERTEX
  8
0
 10
-32.28747563
 20
-109.02233487
  0
VERTEX
  8
0
 10
-32.53769454
 20
-109.07730194
  0
VERTEX
  8
0
 10
-32.79538160
 20
-109.09615340
  0
VERTEX
  8
0
 10
-32.79508145
 20
-109.40620835
  0
VERTEX
  8
0
 10
-32.53736787
 20
-109.42468961
  0
VERTEX
  8
0
 10
-32.28707113
 20
-109.47929761
  0
VERTEX
  8
0
 10
-32.04545968
 20
-109.56821592
  0
VERTEX
  8
0
 10
-31.81380199
 20
-109.68962811
  0
VERTEX
  8
0
 10
-31.59336651
 20
-109.84171774
  0
VERTEX
  8
0
 10
-31.38542170
 20
-110.02266838
  0
VERTEX
  8
0
 10
-31.19123601
 20
-110.23066358
  0
VERTEX
  8
0
 10
-31.01207789
 20
-110.46388692
  0
VERTEX
  8
0
 10
-30.84921581
 20
-110.72052197
  0
VERTEX
  8
0
 10
-30.70391823
 20
-110.99875227
  0
VERTEX
  8
0
 10
-30.57745359
 20
-111.29676141
  0
VERTEX
  8
0
 10
-30.47109035
 20
-111.61273294
  0
VERTEX
  8
0
 10
-30.38609697
 20
-111.94485043
  0
VERTEX
  8
0
 10
-30.32374191
 20
-112.29129744
  0
VERTEX
  8
0
 10
-30.28529361
 20
-112.65025754
  0
VERTEX
  8
0
 10
-30.27202055
 20
-113.01991430
  0
VERTEX
  8
0
 10
-30.28475592
 20
-113.38957304
  0
VERTEX
  8
0
 10
-30.32268102
 20
-113.74857513
  0
VERTEX
  8
0
 10
-30.38453019
 20
-114.09510194
  0
VERTEX
  8
0
 10
-30.46903776
 20
-114.42733485
  0
VERTEX
  8
0
 10
-30.57493805
 20
-114.74345521
  0
VERTEX
  8
0
 10
-30.70096538
 20
-115.04164439
  0
VERTEX
  8
0
 10
-30.84585410
 20
-115.32008376
  0
VERTEX
  8
0
 10
-31.00833852
 20
-115.57695468
  0
VERTEX
  8
0
 10
-31.18715299
 20
-115.81043853
  0
VERTEX
  8
0
 10
-31.38103181
 20
-116.01871666
  0
VERTEX
  8
0
 10
-31.58870933
 20
-116.19997045
  0
VERTEX
  8
0
 10
-31.80891987
 20
-116.35238126
  0
VERTEX
  8
0
 10
-32.04039775
 20
-116.47413046
  0
VERTEX
  8
0
 10
-32.28187732
 20
-116.56339941
  0
VERTEX
  8
0
 10
-32.53209289
 20
-116.61836949
  0
VERTEX
  8
0
 10
-32.78977880
 20
-116.63722205
  0
VERTEX
  8
0
 10
-32.78937860
 20
-117.15508085
  0
VERTEX
  8
0
 10
-32.53166389
 20
-117.17356211
  0
VERTEX
  8
0
 10
-32.28136398
 20
-117.22817011
  0
VERTEX
  8
0
 10
-32.03974760
 20
-117.31708842
  0
VERTEX
  8
0
 10
-31.80808351
 20
-117.43850061
  0
VERTEX
  8
0
 10
-31.58764046
 20
-117.59059024
  0
VERTEX
  8
0
 10
-31.37968719
 20
-117.77154088
  0
VERTEX
  8
0
 10
-31.18549246
 20
-117.97953608
  0
VERTEX
  8
0
 10
-31.00632502
 20
-118.21275943
  0
VERTEX
  8
0
 10
-30.84345361
 20
-118.46939447
  0
VERTEX
  8
0
 10
-30.69814698
 20
-118.74762477
  0
VERTEX
  8
0
 10
-30.57167389
 20
-119.04563391
  0
VERTEX
  8
0
 10
-30.46530308
 20
-119.36160544
  0
VERTEX
  8
0
 10
-30.38030330
 20
-119.69372293
  0
VERTEX
  8
0
 10
-30.31794330
 20
-120.04016994
  0
VERTEX
  8
0
 10
-30.27949184
 20
-120.39913004
  0
VERTEX
  8
0
 10
-30.26621765
 20
-120.76878680
  0
VERTEX
  8
0
 10
-30.27895414
 20
-121.13847854
  0
VERTEX
  8
0
 10
-30.31688242
 20
-121.49750527
  0
VERTEX
  8
0
 10
-30.37873653
 20
-121.84404941
  0
VERTEX
  8
0
 10
-30.46325049
 20
-122.17629333
  0
VERTEX
  8
0
 10
-30.56915835
 20
-122.49241943
  0
VERTEX
  8
0
 10
-30.69519414
 20
-122.79061010
  0
VERTEX
  8
0
 10
-30.84009189
 20
-123.06904773
  0
VERTEX
  8
0
 10
-31.00258565
 20
-123.32591472
  0
VERTEX
  8
0
 10
-31.18140944
 20
-123.55939347
  0
VERTEX
  8
0
 10
-31.37529730
 20
-123.76766635
  0
VERTEX
  8
0
 10
-31.58298327
 20
-123.94891577
  0
VERTEX
  8
0
 10
-31.80320138
 20
-124.10132411
  0
VERTEX
  8
0
 10
-32.03468567
 20
-124.22307377
  0
VERTEX
  8
0
 10
-32.27617017
 20
-124.31234715
  0
VERTEX
  8
0
 10
-32.52638892
 20
-124.36732663
  0
VERTEX
  8
0
 10
-32.78407595
 20
-124.38619460
  0
VERTEX
  8
0
 10
-32.78377580
 20
-124.69594940
  0
VERTEX
  8
0
 10
-32.52606219
 20
-124.71442956
  0
VERTEX
  8
0
 10
-32.27576528
 20
-124.76903456
  0
VERTEX
  8
0
 10
-32.03415337
 20
-124.85794840
  0
VERTEX
  8
0
 10
-31.80249478
 20
-124.97935509
  0
VERTEX
  8
0
 10
-31.58205781
 20
-125.13143864
  0
VERTEX
  8
0
 10
-31.37411077
 20
-125.31238305
  0
VERTEX
  8
0
 10
-31.17992198
 20
-125.52037232
  0
VERTEX
  8
0
 10
-31.00075974
 20
-125.75359046
  0
VERTEX
  8
0
 10
-30.83789236
 20
-126.01022147
  0
VERTEX
  8
0
 10
-30.69258815
 20
-126.28844935
  0
VERTEX
  8
0
 10
-30.56611542
 20
-126.58645812
  0
VERTEX
  8
0
 10
-30.45974249
 20
-126.90243178
  0
VERTEX
  8
0
 10
-30.37473765
 20
-127.23455432
  0
VERTEX
  8
0
 10
-30.31236923
 20
-127.58100976
  0
VERTEX
  8
0
 10
-30.27390553
 20
-127.93998210
  0
VERTEX
  8
0
 10
-30.26061485
 20
-128.30965535
  0
VERTEX
  8
0
 10
-30.27335247
 20
-128.67931409
  0
VERTEX
  8
0
 10
-30.31128392
 20
-129.03831618
  0
VERTEX
  8
0
 10
-30.37314296
 20
-129.38484299
  0
VERTEX
  8
0
 10
-30.45766332
 20
-129.71707590
  0
VERTEX
  8
0
 10
-30.56357876
 20
-130.03319626
  0
VERTEX
  8
0
 10
-30.68962300
 20
-130.33138544
  0
VERTEX
  8
0
 10
-30.83452979
 20
-130.60982481
  0
VERTEX
  8
0
 10
-30.99703287
 20
-130.86669573
  0
VERTEX
  8
0
 10
-31.17586600
 20
-131.10017958
  0
VERTEX
  8
0
 10
-31.36976290
 20
-131.30845771
  0
VERTEX
  8
0
 10
-31.57745732
 20
-131.48971150
  0
VERTEX
  8
0
 10
-31.79768300
 20
-131.64212231
  0
VERTEX
  8
0
 10
-32.02917369
 20
-131.76387151
  0
VERTEX
  8
0
 10
-32.27066312
 20
-131.85314046
  0
VERTEX
  8
0
 10
-32.52088505
 20
-131.90811054
  0
VERTEX
  8
0
 10
-32.77857320
 20
-131.92696310
  0
VERTEX
  8
0
 10
-32.77807295
 20
-132.61930910
  0
VERTEX
  8
0
 10
-32.52035712
 20
-132.63775621
  0
VERTEX
  8
0
 10
-32.27005403
 20
-132.69233622
  0
VERTEX
  8
0
 10
-32.02843272
 20
-132.78123182
  0
VERTEX
  8
0
 10
-31.79676223
 20
-132.90262569
  0
VERTEX
  8
0
 10
-31.57631160
 20
-133.05470052
  0
VERTEX
  8
0
 10
-31.36834989
 20
-133.23563899
  0
VERTEX
  8
0
 10
-31.17414612
 20
-133.44362379
  0
VERTEX
  8
0
 10
-30.99496934
 20
-133.67683760
  0
VERTEX
  8
0
 10
-30.83208860
 20
-133.93346311
  0
VERTEX
  8
0
 10
-30.68677294
 20
-134.21168301
  0
VERTEX
  8
0
 10
-30.56029140
 20
-134.50967998
  0
VERTEX
  8
0
 10
-30.45391301
 20
-134.82563671
  0
VERTEX
  8
0
 10
-30.36890684
 20
-135.15773588
  0
VERTEX
  8
0
 10
-30.30654190
 20
-135.50416018
  0
VERTEX
  8
0
 10
-30.26808726
 20
-135.86309229
  0
VERTEX
  8
0
 10
-30.25481195
 20
-136.23271490
  0
VERTEX
  8
0
 10
-30.26754844
 20
-136.60242422
  0
VERTEX
  8
0
 10
-30.30547672
 20
-136.96146620
  0
VERTEX
  8
0
 10
-30.36733083
 20
-137.30802323
  0
VERTEX
  8
0
 10
-30.45184479
 20
-137.64027770
  0
VERTEX
  8
0
 10
-30.55775265
 20
-137.95641201
  0
VERTEX
  8
0
 10
-30.68378844
 20
-138.25460854
  0
VERTEX
  8
0
 10
-30.82868619
 20
-138.53304970
  0
VERTEX
  8
0
 10
-30.99117995
 20
-138.78991786
  0
VERTEX
  8
0
 10
-31.17000374
 20
-139.02339543
  0
VERTEX
  8
0
 10
-31.36389160
 20
-139.23166480
  0
VERTEX
  8
0
 10
-31.57157757
 20
-139.41290835
  0
VERTEX
  8
0
 10
-31.79179568
 20
-139.56530849
  0
VERTEX
  8
0
 10
-32.02327997
 20
-139.68704760
  0
VERTEX
  8
0
 10
-32.26476447
 20
-139.77630808
  0
VERTEX
  8
0
 10
-32.51498322
 20
-139.83127231
  0
VERTEX
  8
0
 10
-32.77267025
 20
-139.85012270
  0
VERTEX
  8
0
 10
-32.77237010
 20
-140.16017765
  0
VERTEX
  8
0
 10
-32.51465652
 20
-140.17865781
  0
VERTEX
  8
0
 10
-32.26435978
 20
-140.23326281
  0
VERTEX
  8
0
 10
-32.02274833
 20
-140.32217665
  0
VERTEX
  8
0
 10
-31.79109064
 20
-140.44358334
  0
VERTEX
  8
0
 10
-31.57065516
 20
-140.59566689
  0
VERTEX
  8
0
 10
-31.36271035
 20
-140.77661130
  0
VERTEX
  8
0
 10
-31.16852466
 20
-140.98460057
  0
VERTEX
  8
0
 10
-30.98936654
 20
-141.21781871
  0
VERTEX
  8
0
 10
-30.82650446
 20
-141.47444972
  0
VERTEX
  8
0
 10
-30.68120688
 20
-141.75267760
  0
VERTEX
  8
0
 10
-30.55474224
 20
-142.05068637
  0
VERTEX
  8
0
 10
-30.44837900
 20
-142.36666003
  0
VERTEX
  8
0
 10
-30.36338562
 20
-142.69878257
  0
VERTEX
  8
0
 10
-30.30103056
 20
-143.04523801
  0
VERTEX
  8
0
 10
-30.26258226
 20
-143.40421035
  0
VERTEX
  8
0
 10
-30.24930920
 20
-143.77388360
  0
VERTEX
  8
0
 10
-30.26204457
 20
-144.14355882
  0
VERTEX
  8
0
 10
-30.29996967
 20
-144.50257315
  0
VERTEX
  8
0
 10
-30.36181884
 20
-144.84910839
  0
VERTEX
  8
0
 10
-30.44632641
 20
-145.18134635
  0
VERTEX
  8
0
 10
-30.55222670
 20
-145.49746884
  0
VERTEX
  8
0
 10
-30.67825403
 20
-145.79565765
  0
VERTEX
  8
0
 10
-30.82314275
 20
-146.07409461
  0
VERTEX
  8
0
 10
-30.98562717
 20
-146.33096150
  0
VERTEX
  8
0
 10
-31.16444164
 20
-146.56444014
  0
VERTEX
  8
0
 10
-31.35832046
 20
-146.77271234
  0
VERTEX
  8
0
 10
-31.56599798
 20
-146.95395990
  0
VERTEX
  8
0
 10
-31.78620852
 20
-147.10636463
  0
VERTEX
  8
0
 10
-32.01768640
 20
-147.22810834
  0
VERTEX
  8
0
 10
-32.25916597
 20
-147.31737282
  0
VERTEX
  8
0
 10
-32.50938154
 20
-147.37233989
  0
VERTEX
  8
0
 10
-32.76706745
 20
-147.39119135
  0
VERTEX
  8
0
 10
-32.76676730
 20
-147.90905015
  0
VERTEX
  8
0
 10
-32.50903496
 20
-147.92751382
  0
VERTEX
  8
0
 10
-32.25871946
 20
-147.98210658
  0
VERTEX
  8
0
 10
-32.01708925
 20
-148.07101200
  0
VERTEX
  8
0
 10
-31.78541281
 20
-148.19241364
  0
VERTEX
  8
0
 10
-31.56495857
 20
-148.34449506
  0
VERTEX
  8
0
 10
-31.35699499
 20
-148.52543983
  0
VERTEX
  8
0
 10
-31.16279054
 20
-148.73343152
  0
VERTEX
  8
0
 10
-30.98361367
 20
-148.96665369
  0
VERTEX
  8
0
 10
-30.82073283
 20
-149.22328990
  0
VERTEX
  8
0
 10
-30.67541648
 20
-149.50152372
  0
VERTEX
  8
0
 10
-30.54893308
 20
-149.79953872
  0
VERTEX
  8
0
 10
-30.44255109
 20
-150.11551846
  0
VERTEX
  8
0
 10
-30.35753895
 20
-150.44764650
  0
VERTEX
  8
0
 10
-30.29516512
 20
-150.79410641
  0
VERTEX
  8
0
 10
-30.25669807
 20
-151.15308176
  0
VERTEX
  8
0
 10
-30.24340625
 20
-151.52275610
  0
VERTEX
  8
0
 10
-30.25616035
 20
-151.89243132
  0
VERTEX
  8
0
 10
-30.29410405
 20
-152.25144565
  0
VERTEX
  8
0
 10
-30.35597151
 20
-152.59798089
  0
VERTEX
  8
0
 10
-30.44049693
 20
-152.93021885
  0
VERTEX
  8
0
 10
-30.54641449
 20
-153.24634134
  0
VERTEX
  8
0
 10
-30.67245836
 20
-153.54453015
  0
VERTEX
  8
0
 10
-30.81736274
 20
-153.82296711
  0
VERTEX
  8
0
 10
-30.97986179
 20
-154.07983400
  0
VERTEX
  8
0
 10
-31.15868971
 20
-154.31331264
  0
VERTEX
  8
0
 10
-31.35258068
 20
-154.52158484
  0
VERTEX
  8
0
 10
-31.56026887
 20
-154.70283240
  0
VERTEX
  8
0
 10
-31.78048847
 20
-154.85523713
  0
VERTEX
  8
0
 10
-32.01197366
 20
-154.97698084
  0
VERTEX
  8
0
 10
-32.25345863
 20
-155.06624532
  0
VERTEX
  8
0
 10
-32.50367754
 20
-155.12121239
  0
VERTEX
  8
0
 10
-32.76136460
 20
-155.14006385
  0
VERTEX
  8
0
 10
-32.76116450
 20
-155.45001875
  0
VERTEX
  8
0
 10
-32.50344867
 20
-155.46851652
  0
VERTEX
  8
0
 10
-32.25314558
 20
-155.52313693
  0
VERTEX
  8
0
 10
-32.01152427
 20
-155.61206414
  0
VERTEX
  8
0
 10
-31.77985378
 20
-155.73348229
  0
VERTEX
  8
0
 10
-31.55940315
 20
-155.88557553
  0
VERTEX
  8
0
 10
-31.35144144
 20
-156.06652802
  0
VERTEX
  8
0
 10
-31.15723767
 20
-156.27452391
  0
VERTEX
  8
0
 10
-30.97806089
 20
-156.50774735
  0
VERTEX
  8
0
 10
-30.81518015
 20
-156.76438249
  0
VERTEX
  8
0
 10
-30.66986449
 20
-157.04261348
  0
VERTEX
  8
0
 10
-30.54338295
 20
-157.34062447
  0
VERTEX
  8
0
 10
-30.43700456
 20
-157.65659961
  0
VERTEX
  8
0
 10
-30.35199839
 20
-157.98872306
  0
VERTEX
  8
0
 10
-30.28963345
 20
-158.33517897
  0
VERTEX
  8
0
 10
-30.25117881
 20
-158.69415148
  0
VERTEX
  8
0
 10
-30.23790350
 20
-159.06382475
  0
VERTEX
  8
0
 10
-30.25065758
 20
-159.43346587
  0
VERTEX
  8
0
 10
-30.28860110
 20
-159.79245255
  0
VERTEX
  8
0
 10
-30.35046810
 20
-160.13896601
  0
VERTEX
  8
0
 10
-30.43499262
 20
-160.47118745
  0
VERTEX
  8
0
 10
-30.54090869
 20
-160.78729812
  0
VERTEX
  8
0
 10
-30.66695034
 20
-161.08547921
  0
VERTEX
  8
0
 10
-30.81185161
 20
-161.36391196
  0
VERTEX
  8
0
 10
-30.97434654
 20
-161.62077759
  0
VERTEX
  8
0
 10
-31.15316916
 20
-161.85425731
  0
VERTEX
  8
0
 10
-31.34705350
 20
-162.06253234
  0
VERTEX
  8
0
 10
-31.55473361
 20
-162.24378391
  0
VERTEX
  8
0
 10
-31.77494351
 20
-162.39619323
  0
VERTEX
  8
0
 10
-32.00641725
 20
-162.51794152
  0
VERTEX
  8
0
 10
-32.24788885
 20
-162.60721001
  0
VERTEX
  8
0
 10
-32.49809236
 20
-162.66217991
  0
VERTEX
  8
0
 10
-32.75576180
 20
-162.68103245
  0
VERTEX
  8
0
 10
-32.75506145
 20
-163.62990665
  0
VERTEX
  8
0
 10
-32.49734672
 20
-163.64838681
  0
VERTEX
  8
0
 10
-32.24704663
 20
-163.70299181
  0
VERTEX
  8
0
 10
-32.00542979
 20
-163.79190565
  0
VERTEX
  8
0
 10
-31.77376480
 20
-163.91331234
  0
VERTEX
  8
0
 10
-31.55332025
 20
-164.06539589
  0
VERTEX
  8
0
 10
-31.34536477
 20
-164.24634030
  0
VERTEX
  8
0
 10
-31.15116693
 20
-164.45432957
  0
VERTEX
  8
0
 10
-30.97199536
 20
-164.68754771
  0
VERTEX
  8
0
 10
-30.80911865
 20
-164.94417872
  0
VERTEX
  8
0
 10
-30.66380541
 20
-165.22240660
  0
VERTEX
  8
0
 10
-30.53732423
 20
-165.52041537
  0
VERTEX
  8
0
 10
-30.43094372
 20
-165.83638903
  0
VERTEX
  8
0
 10
-30.34593249
 20
-166.16851157
  0
VERTEX
  8
0
 10
-30.28355913
 20
-166.51496701
  0
VERTEX
  8
0
 10
-30.24509225
 20
-166.87393935
  0
VERTEX
  8
0
 10
-30.23180045
 20
-167.24361260
  0
VERTEX
  8
0
 10
-30.24456992
 20
-167.61330544
  0
VERTEX
  8
0
 10
-30.28252267
 20
-167.97233518
  0
VERTEX
  8
0
 10
-30.34439363
 20
-168.31888378
  0
VERTEX
  8
0
 10
-30.42891771
 20
-168.65113320
  0
VERTEX
  8
0
 10
-30.53482982
 20
-168.96726538
  0
VERTEX
  8
0
 10
-30.66086487
 20
-169.26546228
  0
VERTEX
  8
0
 10
-30.80575779
 20
-169.54390585
  0
VERTEX
  8
0
 10
-30.96824349
 20
-169.80077804
  0
VERTEX
  8
0
 10
-31.14705687
 20
-170.03426082
  0
VERTEX
  8
0
 10
-31.34093286
 20
-170.24253612
  0
VERTEX
  8
0
 10
-31.54860638
 20
-170.42378590
  0
VERTEX
  8
0
 10
-31.76881232
 20
-170.57619212
  0
VERTEX
  8
0
 10
-32.00028562
 20
-170.69793673
  0
VERTEX
  8
0
 10
-32.24176118
 20
-170.78720167
  0
VERTEX
  8
0
 10
-32.49197392
 20
-170.84216891
  0
VERTEX
  8
0
 10
-32.74965875
 20
-170.86102040
  0
VERTEX
  8
0
 10
-32.74955870
 20
-171.17097530
  0
VERTEX
  8
0
 10
-32.49184397
 20
-171.18945546
  0
VERTEX
  8
0
 10
-32.24154388
 20
-171.24406046
  0
VERTEX
  8
0
 10
-31.99992704
 20
-171.33297430
  0
VERTEX
  8
0
 10
-31.76826205
 20
-171.45438099
  0
VERTEX
  8
0
 10
-31.54781750
 20
-171.60646454
  0
VERTEX
  8
0
 10
-31.33986202
 20
-171.78740895
  0
VERTEX
  8
0
 10
-31.14566418
 20
-171.99539822
  0
VERTEX
  8
0
 10
-30.96649261
 20
-172.22861636
  0
VERTEX
  8
0
 10
-30.80361590
 20
-172.48524737
  0
VERTEX
  8
0
 10
-30.65830266
 20
-172.76347525
  0
VERTEX
  8
0
 10
-30.53182148
 20
-173.06148402
  0
VERTEX
  8
0
 10
-30.42544097
 20
-173.37745768
  0
VERTEX
  8
0
 10
-30.34042974
 20
-173.70958022
  0
VERTEX
  8
0
 10
-30.27805638
 20
-174.05603566
  0
VERTEX
  8
0
 10
-30.23958950
 20
-174.41500800
  0
VERTEX
  8
0
 10
-30.22629770
 20
-174.78468125
  0
VERTEX
  8
0
 10
-30.23905070
 20
-175.15433776
  0
VERTEX
  8
0
 10
-30.27699139
 20
-175.51333368
  0
VERTEX
  8
0
 10
-30.33885439
 20
-175.85985109
  0
VERTEX
  8
0
 10
-30.42337431
 20
-176.19207209
  0
VERTEX
  8
0
 10
-30.52928579
 20
-176.50817880
  0
VERTEX
  8
0
 10
-30.65532343
 20
-176.80635330
  0
VERTEX
  8
0
 10
-30.80022187
 20
-177.08477770
  0
VERTEX
  8
0
 10
-30.96271572
 20
-177.34163409
  0
VERTEX
  8
0
 10
-31.14153961
 20
-177.57510457
  0
VERTEX
  8
0
 10
-31.33542816
 20
-177.78337125
  0
VERTEX
  8
0
 10
-31.54311599
 20
-177.96461622
  0
VERTEX
  8
0
 10
-31.76333771
 20
-178.11702159
  0
VERTEX
  8
0
 10
-31.99482796
 20
-178.23876944
  0
VERTEX
  8
0
 10
-32.23632135
 20
-178.32804189
  0
VERTEX
  8
0
 10
-32.48655251
 20
-178.38302102
  0
VERTEX
  8
0
 10
-32.74425605
 20
-178.40188895
  0
VERTEX
  8
0
 10
-32.74375580
 20
-178.91974775
  0
VERTEX
  8
0
 10
-32.48605871
 20
-178.93822901
  0
VERTEX
  8
0
 10
-32.23577420
 20
-178.99283701
  0
VERTEX
  8
0
 10
-31.99417119
 20
-179.08175532
  0
VERTEX
  8
0
 10
-31.76251855
 20
-179.20316751
  0
VERTEX
  8
0
 10
-31.54208520
 20
-179.35525714
  0
VERTEX
  8
0
 10
-31.33414002
 20
-179.53620778
  0
VERTEX
  8
0
 10
-31.13995191
 20
-179.74420298
  0
VERTEX
  8
0
 10
-30.96078976
 20
-179.97742633
  0
VERTEX
  8
0
 10
-30.79792248
 20
-180.23406137
  0
VERTEX
  8
0
 10
-30.65261896
 20
-180.51229167
  0
VERTEX
  8
0
 10
-30.52614809
 20
-180.81030081
  0
VERTEX
  8
0
 10
-30.41977877
 20
-181.12627234
  0
VERTEX
  8
0
 10
-30.33477989
 20
-181.45838983
  0
VERTEX
  8
0
 10
-30.27242036
 20
-181.80483684
  0
VERTEX
  8
0
 10
-30.23396906
 20
-182.16379694
  0
VERTEX
  8
0
 10
-30.22069490
 20
-182.53345370
  0
VERTEX
  8
0
 10
-30.23341488
 20
-182.90312782
  0
VERTEX
  8
0
 10
-30.27133075
 20
-183.26213915
  0
VERTEX
  8
0
 10
-30.33317597
 20
-183.60866992
  0
VERTEX
  8
0
 10
-30.41768397
 20
-183.94090239
  0
VERTEX
  8
0
 10
-30.52358821
 20
-184.25701879
  0
VERTEX
  8
0
 10
-30.64962215
 20
-184.55520137
  0
VERTEX
  8
0
 10
-30.79451922
 20
-184.83363239
  0
VERTEX
  8
0
 10
-30.95701287
 20
-185.09049408
  0
VERTEX
  8
0
 10
-31.13583657
 20
-185.32396869
  0
VERTEX
  8
0
 10
-31.32972375
 20
-185.53223848
  0
VERTEX
  8
0
 10
-31.53740786
 20
-185.71348567
  0
VERTEX
  8
0
 10
-31.75762235
 20
-185.86589252
  0
VERTEX
  8
0
 10
-31.98910068
 20
-185.98764128
  0
VERTEX
  8
0
 10
-32.23057629
 20
-186.07691419
  0
VERTEX
  8
0
 10
-32.48078263
 20
-186.13189350
  0
VERTEX
  8
0
 10
-32.73845315
 20
-186.15076145
  0
VERTEX
  8
0
 10
-32.73825305
 20
-186.46091645
  0
VERTEX
  8
0
 10
-32.48053834
 20
-186.47939656
  0
VERTEX
  8
0
 10
-32.23023843
 20
-186.53400122
  0
VERTEX
  8
0
 10
-31.98862205
 20
-186.62291413
  0
VERTEX
  8
0
 10
-31.75695796
 20
-186.74431902
  0
VERTEX
  8
0
 10
-31.53651491
 20
-186.89639959
  0
VERTEX
  8
0
 10
-31.32856164
 20
-187.07733955
  0
VERTEX
  8
0
 10
-31.13436691
 20
-187.28532261
  0
VERTEX
  8
0
 10
-30.95519947
 20
-187.51853249
  0
VERTEX
  8
0
 10
-30.79232806
 20
-187.77515290
  0
VERTEX
  8
0
 10
-30.64702143
 20
-188.05336755
  0
VERTEX
  8
0
 10
-30.52054834
 20
-188.35136015
  0
VERTEX
  8
0
 10
-30.41417753
 20
-188.66731441
  0
VERTEX
  8
0
 10
-30.32917775
 20
-188.99941404
  0
VERTEX
  8
0
 10
-30.26681775
 20
-189.34584276
  0
VERTEX
  8
0
 10
-30.22836629
 20
-189.70478428
  0
VERTEX
  8
0
 10
-30.21509210
 20
-190.07442230
  0
VERTEX
  8
0
 10
-30.22782749
 20
-190.44411404
  0
VERTEX
  8
0
 10
-30.26575277
 20
-190.80314077
  0
VERTEX
  8
0
 10
-30.32760240
 20
-191.14968491
  0
VERTEX
  8
0
 10
-30.41211087
 20
-191.48192883
  0
VERTEX
  8
0
 10
-30.51801265
 20
-191.79805493
  0
VERTEX
  8
0
 10
-30.64404221
 20
-192.09624560
  0
VERTEX
  8
0
 10
-30.78893403
 20
-192.37468323
  0
VERTEX
  8
0
 10
-30.95142258
 20
-192.63155023
  0
VERTEX
  8
0
 10
-31.13024234
 20
-192.86502897
  0
VERTEX
  8
0
 10
-31.32412779
 20
-193.07330185
  0
VERTEX
  8
0
 10
-31.53181339
 20
-193.25455127
  0
VERTEX
  8
0
 10
-31.75203362
 20
-193.40695961
  0
VERTEX
  8
0
 10
-31.98352297
 20
-193.52870927
  0
VERTEX
  8
0
 10
-32.22501590
 20
-193.61798265
  0
VERTEX
  8
0
 10
-32.47524688
 20
-193.67296213
  0
VERTEX
  8
0
 10
-32.73295040
 20
-193.69183010
  0
VERTEX
  8
0
 10
-32.73235010
 20
-194.38387595
  0
VERTEX
  8
0
 10
-32.47465188
 20
-194.40237482
  0
VERTEX
  8
0
 10
-32.22436420
 20
-194.45699824
  0
VERTEX
  8
0
 10
-31.98275625
 20
-194.54592991
  0
VERTEX
  8
0
 10
-31.75109722
 20
-194.66735356
  0
VERTEX
  8
0
 10
-31.53065629
 20
-194.81945288
  0
VERTEX
  8
0
 10
-31.32270266
 20
-195.00041160
  0
VERTEX
  8
0
 10
-31.12850551
 20
-195.20841343
  0
VERTEX
  8
0
 10
-30.94933404
 20
-195.44164207
  0
VERTEX
  8
0
 10
-30.78645743
 20
-195.69828124
  0
VERTEX
  8
0
 10
-30.64114486
 20
-195.97651464
  0
VERTEX
  8
0
 10
-30.51466554
 20
-196.27452600
  0
VERTEX
  8
0
 10
-30.40828865
 20
-196.59049902
  0
VERTEX
  8
0
 10
-30.32328338
 20
-196.92261742
  0
VERTEX
  8
0
 10
-30.26091891
 20
-197.26906489
  0
VERTEX
  8
0
 10
-30.22246444
 20
-197.62802517
  0
VERTEX
  8
0
 10
-30.20918915
 20
-197.99768195
  0
VERTEX
  8
0
 10
-30.22194213
 20
-198.36734066
  0
VERTEX
  8
0
 10
-30.25988265
 20
-198.72634258
  0
VERTEX
  8
0
 10
-30.32174518
 20
-199.07286893
  0
VERTEX
  8
0
 10
-30.40626420
 20
-199.40510093
  0
VERTEX
  8
0
 10
-30.51217418
 20
-199.72121980
  0
VERTEX
  8
0
 10
-30.63820961
 20
-200.01940676
  0
VERTEX
  8
0
 10
-30.78310494
 20
-200.29784303
  0
VERTEX
  8
0
 10
-30.94559467
 20
-200.55470983
  0
VERTEX
  8
0
 10
-31.12441326
 20
-200.78818837
  0
VERTEX
  8
0
 10
-31.31829518
 20
-200.99645989
  0
VERTEX
  8
0
 10
-31.52597492
 20
-201.17770559
  0
VERTEX
  8
0
 10
-31.74618695
 20
-201.33010670
  0
VERTEX
  8
0
 10
-31.97766574
 20
-201.45184445
  0
VERTEX
  8
0
 10
-32.21914577
 20
-201.54110004
  0
VERTEX
  8
0
 10
-32.46936152
 20
-201.59605470
  0
VERTEX
  8
0
 10
-32.72704745
 20
-201.61488965
  0
VERTEX
  8
0
 10
-32.72674730
 20
-201.92494460
  0
VERTEX
  8
0
 10
-32.46904908
 20
-201.94342583
  0
VERTEX
  8
0
 10
-32.21876140
 20
-201.99803367
  0
VERTEX
  8
0
 10
-31.97715345
 20
-202.08695152
  0
VERTEX
  8
0
 10
-31.74549442
 20
-202.20836280
  0
VERTEX
  8
0
 10
-31.52505349
 20
-202.36045094
  0
VERTEX
  8
0
 10
-31.31709986
 20
-202.54139935
  0
VERTEX
  8
0
 10
-31.12290271
 20
-202.74939146
  0
VERTEX
  8
0
 10
-30.94373124
 20
-202.98261067
  0
VERTEX
  8
0
 10
-30.78085463
 20
-203.23924041
  0
VERTEX
  8
0
 10
-30.63554206
 20
-203.51746409
  0
VERTEX
  8
0
 10
-30.50906274
 20
-203.81546514
  0
VERTEX
  8
0
 10
-30.40268585
 20
-204.13142698
  0
VERTEX
  8
0
 10
-30.31768058
 20
-204.46353301
  0
VERTEX
  8
0
 10
-30.25531611
 20
-204.80996666
  0
VERTEX
  8
0
 10
-30.21686164
 20
-205.16891135
  0
VERTEX
  8
0
 10
-30.20358635
 20
-205.53855050
  0
VERTEX
  8
0
 10
-30.21632287
 20
-205.90822575
  0
VERTEX
  8
0
 10
-30.25425132
 20
-206.26724025
  0
VERTEX
  8
0
 10
-30.31610589
 20
-206.61377595
  0
VERTEX
  8
0
 10
-30.40062076
 20
-206.94601482
  0
VERTEX
  8
0
 10
-30.50653010
 20
-207.26213879
  0
VERTEX
  8
0
 10
-30.63256812
 20
-207.56032983
  0
VERTEX
  8
0
 10
-30.77746897
 20
-207.83876988
  0
VERTEX
  8
0
 10
-30.93996686
 20
-208.09564091
  0
VERTEX
  8
0
 10
-31.11879595
 20
-208.32912485
  0
VERTEX
  8
0
 10
-31.31269043
 20
-208.53740367
  0
VERTEX
  8
0
 10
-31.52038448
 20
-208.71865932
  0
VERTEX
  8
0
 10
-31.74061229
 20
-208.87107374
  0
VERTEX
  8
0
 10
-31.97210804
 20
-208.99282890
  0
VERTEX
  8
0
 10
-32.21360590
 20
-209.08210674
  0
VERTEX
  8
0
 10
-32.46384006
 20
-209.13708923
  0
VERTEX
  8
0
 10
-32.72154470
 20
-209.15595830
  0
VERTEX
  8
0
 10
-32.72114450
 20
-209.67381710
  0
VERTEX
  8
0
 10
-32.46342867
 20
-209.69229723
  0
VERTEX
  8
0
 10
-32.21312558
 20
-209.74690206
  0
VERTEX
  8
0
 10
-31.97150427
 20
-209.83581544
  0
VERTEX
  8
0
 10
-31.73983378
 20
-209.95722123
  0
VERTEX
  8
0
 10
-31.51938315
 20
-210.10930329
  0
VERTEX
  8
0
 10
-31.31142144
 20
-210.29024547
  0
VERTEX
  8
0
 10
-31.11721767
 20
-210.49823164
  0
VERTEX
  8
0
 10
-30.93804089
 20
-210.73144565
  0
VERTEX
  8
0
 10
-30.77516015
 20
-210.98807136
  0
VERTEX
  8
0
 10
-30.62984449
 20
-211.26629263
  0
VERTEX
  8
0
 10
-30.50336295
 20
-211.56429331
  0
VERTEX
  8
0
 10
-30.39698456
 20
-211.88025727
  0
VERTEX
  8
0
 10
-30.31197839
 20
-212.21236836
  0
VERTEX
  8
0
 10
-30.24961345
 20
-212.55881044
  0
VERTEX
  8
0
 10
-30.21115881
 20
-212.91776737
  0
VERTEX
  8
0
 10
-30.19788350
 20
-213.28742300
  0
VERTEX
  8
0
 10
-30.21063648
 20
-213.65708174
  0
VERTEX
  8
0
 10
-30.24857700
 20
-214.01608383
  0
VERTEX
  8
0
 10
-30.31043953
 20
-214.36261064
  0
VERTEX
  8
0
 10
-30.39495855
 20
-214.69484355
  0
VERTEX
  8
0
 10
-30.50086853
 20
-215.01096391
  0
VERTEX
  8
0
 10
-30.62690396
 20
-215.30915309
  0
VERTEX
  8
0
 10
-30.77179929
 20
-215.58759246
  0
VERTEX
  8
0
 10
-30.93428902
 20
-215.84446338
  0
VERTEX
  8
0
 10
-31.11310761
 20
-216.07794723
  0
VERTEX
  8
0
 10
-31.30698953
 20
-216.28622536
  0
VERTEX
  8
0
 10
-31.51466927
 20
-216.46747915
  0
VERTEX
  8
0
 10
-31.73488130
 20
-216.61988996
  0
VERTEX
  8
0
 10
-31.96636009
 20
-216.74163916
  0
VERTEX
  8
0
 10
-32.20784012
 20
-216.83090811
  0
VERTEX
  8
0
 10
-32.45805587
 20
-216.88587819
  0
VERTEX
  8
0
 10
-32.71574180
 20
-216.90473075
  0
VERTEX
  8
0
 10
-32.71564175
 20
-217.21478570
  0
VERTEX
  8
0
 10
-32.45792700
 20
-217.23326693
  0
VERTEX
  8
0
 10
-32.20762674
 20
-217.28787477
  0
VERTEX
  8
0
 10
-31.96600943
 20
-217.37679262
  0
VERTEX
  8
0
 10
-31.73434353
 20
-217.49820390
  0
VERTEX
  8
0
 10
-31.51389750
 20
-217.65029204
  0
VERTEX
  8
0
 10
-31.30593979
 20
-217.83124045
  0
VERTEX
  8
0
 10
-31.11173886
 20
-218.03923256
  0
VERTEX
  8
0
 10
-30.93256316
 20
-218.27245177
  0
VERTEX
  8
0
 10
-30.76968115
 20
-218.52908151
  0
VERTEX
  8
0
 10
-30.62436128
 20
-218.80730519
  0
VERTEX
  8
0
 10
-30.49787202
 20
-219.10530624
  0
VERTEX
  8
0
 10
-30.39148181
 20
-219.42126808
  0
VERTEX
  8
0
 10
-30.30645912
 20
-219.75337411
  0
VERTEX
  8
0
 10
-30.24407240
 20
-220.09980776
  0
VERTEX
  8
0
 10
-30.20559011
 20
-220.45875245
  0
VERTEX
  8
0
 10
-30.19228070
 20
-220.82839160
  0
VERTEX
  8
0
 10
-30.20503480
 20
-221.19806795
  0
VERTEX
  8
0
 10
-30.24297850
 20
-221.55708545
  0
VERTEX
  8
0
 10
-30.30484596
 20
-221.90362563
  0
VERTEX
  8
0
 10
-30.38937138
 20
-222.23586999
  0
VERTEX
  8
0
 10
-30.49528894
 20
-222.55200004
  0
VERTEX
  8
0
 10
-30.62133281
 20
-222.85019731
  0
VERTEX
  8
0
 10
-30.76623719
 20
-223.12864330
  0
VERTEX
  8
0
 10
-30.92873624
 20
-223.38551953
  0
VERTEX
  8
0
 10
-31.10756416
 20
-223.61900750
  0
VERTEX
  8
0
 10
-31.30145513
 20
-223.82728874
  0
VERTEX
  8
0
 10
-31.50914332
 20
-224.00854475
  0
VERTEX
  8
0
 10
-31.72936292
 20
-224.16095705
  0
VERTEX
  8
0
 10
-31.96084811
 20
-224.28270715
  0
VERTEX
  8
0
 10
-32.20233308
 20
-224.37197657
  0
VERTEX
  8
0
 10
-32.45255199
 20
-224.42694681
  0
VERTEX
  8
0
 10
-32.71023905
 20
-224.44579940
  0
VERTEX
  8
0
 10
-115.65439040
 20
-224.50713005
  0
VERTEX
  8
0
 10
-115.65439040
 20
-224.49712505
  0
VERTEX
  8
0
 10
-115.90931780
 20
-224.51213255
  0
VERTEX
  8
0
 10
-119.65478960
 20
-224.51213255
  0
VERTEX
  8
0
 10
-119.87848933
 20
-224.50074094
  0
VERTEX
  8
0
 10
-120.09591200
 20
-224.46731660
  0
VERTEX
  8
0
 10
-120.30593234
 20
-224.41298522
  0
VERTEX
  8
0
 10
-120.50742508
 20
-224.33887253
  0
VERTEX
  8
0
 10
-120.69926495
 20
-224.24610422
  0
VERTEX
  8
0
 10
-120.88032667
 20
-224.13580600
  0
VERTEX
  8
0
 10
-121.04948499
 20
-224.00910360
  0
VERTEX
  8
0
 10
-121.20561462
 20
-223.86712271
  0
VERTEX
  8
0
 10
-121.34759031
 20
-223.71098904
  0
VERTEX
  8
0
 10
-121.47428678
 20
-223.54182830
  0
VERTEX
  8
0
 10
-121.58457877
 20
-223.36076621
  0
VERTEX
  8
0
 10
-121.67734100
 20
-223.16892847
  0
VERTEX
  8
0
 10
-121.75144820
 20
-222.96744079
  0
VERTEX
  8
0
 10
-121.80577510
 20
-222.75742888
  0
VERTEX
  8
0
 10
-121.83919644
 20
-222.54001845
  0
VERTEX
  8
0
 10
-121.85058695
 20
-222.31633520
  0
SEQEND
  0
POLYLINE
  8
Layer_1
 62
256
 66
   1
 39
0.000000
 70
    1
  0
VERTEX
  8
0
 10
-92.48170985
 20
-221.16055760
  0
VERTEX
  8
0
 10
-102.48440870
 20
-221.16706085
  0
VERTEX
  8
0
 10
-102.48670985
 20
-218.37226415
  0
VERTEX
  8
0
 10
-92.48401100
 20
-218.36566085
  0
VERTEX
  8
0
 10
-92.48170985
 20
-221.16055760
  0
SEQEND
  0
POLYLINE
  8
Layer_1
 62
256
 66
   1
 39
0.000000
 70
    1
  0
VERTEX
  8
0
 10
-122.42167235
 20
120.13680580
  0
VERTEX
  8
0
 10
-122.42167235
 20
276.82421035
  0
VERTEX
  8
0
 10
145.36025170
 20
276.82421035
  0
VERTEX
  8
0
 10
145.36025170
 20
120.13680580
  0
VERTEX
  8
0
 10
-122.42167235
 20
120.13680580
  0
SEQEND
  0
POLYLINE
  8
Layer_1
 62
256
 66
   1
 39
0.000000
 70
    1
  0
VERTEX
  8
0
 10
-112.27440125
 20
147.15951040
  0
VERTEX
  8
0
 10
-112.27440125
 20
149.96091040
  0
VERTEX
  8
0
 10
-106.95794435
 20
149.96091040
  0
VERTEX
  8
0
 10
-106.95794435
 20
147.15951040
  0
VERTEX
  8
0
 10
-112.27440125
 20
147.15951040
  0
SEQEND
  0
POLYLINE
  8
Layer_1
 62
256
 66
   1
 39
0.000000
 70
    1
  0
VERTEX
  8
0
 10
-113.76314525
 20
156.18141910
  0
VERTEX
  8
0
 10
-116.56454525
 20
156.18141910
  0
VERTEX
  8
0
 10
-116.56454525
 20
161.49787600
  0
VERTEX
  8
0
 10
-113.76314525
 20
161.49787600
  0
VERTEX
  8
0
 10
-113.76314525
 20
156.18141910
  0
SEQEND
  0
POLYLINE
  8
Layer_1
 62
256
 66
   1
 39
0.000000
 70
    1
  0
VERTEX
  8
0
 10
-113.76034385
 20
268.76208130
  0
VERTEX
  8
0
 10
-116.56174385
 20
268.76208130
  0
VERTEX
  8
0
 10
-116.56174385
 20
263.44562440
  0
VERTEX
  8
0
 10
-113.76034385
 20
263.44562440
  0
VERTEX
  8
0
 10
-113.76034385
 20
268.76208130
  0
SEQEND
  0
POLYLINE
  8
Layer_1
 62
256
 66
   1
 39
0.000000
 70
    1
  0
VERTEX
  8
0
 10
-112.27490150
 20
271.78729315
  0
VERTEX
  8
0
 10
-112.27490150
 20
268.98589315
  0
VERTEX
  8
0
 10
-106.95844460
 20
268.98589315
  0
VERTEX
  8
0
 10
-106.95844460
 20
271.78729315
  0
VERTEX
  8
0
 10
-112.27490150
 20
271.78729315
  0
SEQEND
  0
POLYLINE
  8
Layer_1
 62
256
 66
   1
 39
0.000000
 70
    1
  0
VERTEX
  8
0
 10
-43.69502870
 20
271.78379140
  0
VERTEX
  8
0
 10
-43.69502870
 20
268.99279660
  0
VERTEX
  8
0
 10
-38.37857180
 20
268.99279660
  0
VERTEX
  8
0
 10
-38.37857180
 20
271.78379140
  0
VERTEX
  8
0
 10
-43.69502870
 20
271.78379140
  0
SEQEND
  0
POLYLINE
  8
Layer_1
 62
256
 66
   1
 39
0.000000
 70
    1
  0
VERTEX
  8
0
 10
60.08913745
 20
271.79939920
  0
VERTEX
  8
0
 10
60.08913745
 20
268.99799920
  0
VERTEX
  8
0
 10
65.40559435
 20
268.99799920
  0
VERTEX
  8
0
 10
65.40559435
 20
271.79939920
  0
VERTEX
  8
0
 10
60.08913745
 20
271.79939920
  0
SEQEND
  0
POLYLINE
  8
Layer_1
 62
256
 66
   1
 39
0.000000
 70
    1
  0
VERTEX
  8
0
 10
128.12093635
 20
271.80069985
  0
VERTEX
  8
0
 10
128.12093635
 20
268.99929985
  0
VERTEX
  8
0
 10
133.43739325
 20
268.99929985
  0
VERTEX
  8
0
 10
133.43739325
 20
271.80069985
  0
VERTEX
  8
0
 10
128.12093635
 20
271.80069985
  0
SEQEND
  0
POLYLINE
  8
Layer_1
 62
256
 66
   1
 39
0.000000
 70
    1
  0
VERTEX
  8
0
 10
134.87231035
 20
263.10405370
  0
VERTEX
  8
0
 10
137.67200950
 20
263.10405370
  0
VERTEX
  8
0
 10
137.67200950
 20
268.42051060
  0
VERTEX
  8
0
 10
134.87231035
 20
268.42051060
  0
VERTEX
  8
0
 10
134.87231035
 20
263.10405370
  0
SEQEND
  0
POLYLINE
  8
Layer_1
 62
256
 66
   1
 39
0.000000
 70
    1
  0
VERTEX
  8
0
 10
134.87401120
 20
155.43084400
  0
VERTEX
  8
0
 10
137.67371035
 20
155.43084400
  0
VERTEX
  8
0
 10
137.67371035
 20
160.74730090
  0
VERTEX
  8
0
 10
134.87401120
 20
160.74730090
  0
VERTEX
  8
0
 10
134.87401120
 20
155.43084400
  0
SEQEND
  0
POLYLINE
  8
Layer_1
 62
256
 66
   1
 39
0.000000
 70
    1
  0
VERTEX
  8
0
 10
128.11683430
 20
128.26947010
  0
VERTEX
  8
0
 10
128.11683430
 20
125.46807010
  0
VERTEX
  8
0
 10
133.43329120
 20
125.46807010
  0
VERTEX
  8
0
 10
133.43329120
 20
128.26947010
  0
VERTEX
  8
0
 10
128.11683430
 20
128.26947010
  0
SEQEND
  0
POLYLINE
  8
Layer_1
 62
256
 66
   1
 39
0.000000
 70
    1
  0
VERTEX
  8
0
 10
49.27933525
 20
128.26586830
  0
VERTEX
  8
0
 10
49.27933525
 20
125.46596905
  0
VERTEX
  8
0
 10
54.59579215
 20
125.46596905
  0
VERTEX
  8
0
 10
54.59579215
 20
128.26586830
  0
VERTEX
  8
0
 10
49.27933525
 20
128.26586830
  0
SEQEND
  0
POLYLINE
  8
Layer_1
 62
256
 66
   1
 39
0.000000
 70
    1
  0
VERTEX
  8
0
 10
5.70025660
 20
128.26736905
  0
VERTEX
  8
0
 10
5.70025660
 20
125.46746980
  0
VERTEX
  8
0
 10
11.01671350
 20
125.46746980
  0
VERTEX
  8
0
 10
11.01671350
 20
128.26736905
  0
VERTEX
  8
0
 10
5.70025660
 20
128.26736905
  0
SEQEND
  0
POLYLINE
  8
Layer_1
 62
256
 66
   1
 39
0.000000
 70
    1
  0
VERTEX
  8
0
 10
0.30686125
 20
150.33349660
  0
VERTEX
  8
0
 10
0.30686125
 20
147.53209660
  0
VERTEX
  8
0
 10
5.62331815
 20
147.53209660
  0
VERTEX
  8
0
 10
5.62331815
 20
150.33349660
  0
VERTEX
  8
0
 10
0.30686125
 20
150.33349660
  0
SEQEND
  0
POLYLINE
  8
Layer_1
 62
256
 66
   1
 39
0.000000
 70
    1
  0
VERTEX
  8
0
 10
-117.29541050
 20
-230.07691355
  0
VERTEX
  8
0
 10
-77.67481010
 20
-230.36185595
  0
VERTEX
  8
0
 10
-77.84229380
 20
-253.65909875
  0
VERTEX
  8
0
 10
-117.46289420
 20
-253.37415635
  0
VERTEX
  8
0
 10
-117.44128340
 20
-250.37275640
  0
VERTEX
  8
0
 10
-80.82218300
 20
-250.63608800
  0
VERTEX
  8
0
 10
-80.69782085
 20
-233.34174515
  0
VERTEX
  8
0
 10
-117.31692125
 20
-233.07831350
  0
VERTEX
  8
0
 10
-117.29541050
 20
-230.07691355
  0
SEQEND
  0
POLYLINE
  8
Layer_1
 62
256
 66
   1
 39
0.000000
 70
    1
  0
VERTEX
  8
0
 10
-48.29102555
 20
85.07918575
  0
VERTEX
  8
0
 10
-48.22189100
 20
79.34552035
  0
VERTEX
  8
0
 10
-48.23186386
 20
79.08912246
  0
VERTEX
  8
0
 10
-48.26716128
 20
78.83960795
  0
VERTEX
  8
0
 10
-48.32650940
 20
78.59828161
  0
VERTEX
  8
0
 10
-48.40863433
 20
78.36644825
  0
VERTEX
  8
0
 10
-48.51226219
 20
78.14541266
  0
VERTEX
  8
0
 10
-48.63611910
 20
77.93647966
  0
VERTEX
  8
0
 10
-48.77893120
 20
77.74095404
  0
VERTEX
  8
0
 10
-48.93942459
 20
77.56014061
  0
VERTEX
  8
0
 10
-49.11632540
 20
77.39534416
  0
VERTEX
  8
0
 10
-49.30835974
 20
77.24786951
  0
VERTEX
  8
0
 10
-49.51425375
 20
77.11902145
  0
VERTEX
  8
0
 10
-49.73273354
 20
77.01010479
  0
VERTEX
  8
0
 10
-49.96252524
 20
76.92242432
  0
VERTEX
  8
0
 10
-50.20235496
 20
76.85728486
  0
VERTEX
  8
0
 10
-50.45094882
 20
76.81599120
  0
VERTEX
  8
0
 10
-50.70703295
 20
76.79984815
  0
VERTEX
  8
0
 10
-59.44119785
 20
76.69459555
  0
VERTEX
  8
0
 10
-59.40237845
 20
73.47418615
  0
VERTEX
  8
0
 10
-64.56405800
 20
73.41195505
  0
VERTEX
  8
0
 10
-64.60277735
 20
76.63246450
  0
VERTEX
  8
0
 10
-82.69051670
 20
76.41455560
  0
VERTEX
  8
0
 10
-82.65649970
 20
73.59124465
  0
VERTEX
  8
0
 10
-87.70602320
 20
73.53041425
  0
VERTEX
  8
0
 10
-87.74004020
 20
76.35372520
  0
VERTEX
  8
0
 10
-97.20386975
 20
76.23966820
  0
VERTEX
  8
0
 10
-97.46026764
 20
76.24962344
  0
VERTEX
  8
0
 10
-97.70978215
 20
76.28490546
  0
VERTEX
  8
0
 10
-97.95110849
 20
76.34424021
  0
VERTEX
  8
0
 10
-98.18294185
 20
76.42635368
  0
VERTEX
  8
0
 10
-98.40397744
 20
76.52997185
  0
VERTEX
  8
0
 10
-98.61291044
 20
76.65382068
  0
VERTEX
  8
0
 10
-98.80843606
 20
76.79662615
  0
VERTEX
  8
0
 10
-98.98924949
 20
76.95711424
  0
VERTEX
  8
0
 10
-99.15404594
 20
77.13401092
  0
VERTEX
  8
0
 10
-99.30152059
 20
77.32604217
  0
VERTEX
  8
0
 10
-99.43036865
 20
77.53193396
  0
VERTEX
  8
0
 10
-99.53928531
 20
77.75041226
  0
VERTEX
  8
0
 10
-99.62696578
 20
77.98020305
  0
VERTEX
  8
0
 10
-99.69210524
 20
78.22003230
  0
VERTEX
  8
0
 10
-99.73339890
 20
78.46862599
  0
VERTEX
  8
0
 10
-99.74954195
 20
78.72471010
  0
VERTEX
  8
0
 10
-99.81857645
 20
84.45837550
  0
VERTEX
  8
0
 10
-99.80862121
 20
84.71477449
  0
VERTEX
  8
0
 10
-99.77333919
 20
84.96429200
  0
VERTEX
  8
0
 10
-99.71400444
 20
85.20562281
  0
VERTEX
  8
0
 10
-99.63189097
 20
85.43746167
  0
VERTEX
  8
0
 10
-99.52827280
 20
85.65850334
  0
VERTEX
  8
0
 10
-99.40442397
 20
85.86744257
  0
VERTEX
  8
0
 10
-99.26161850
 20
86.06297413
  0
VERTEX
  8
0
 10
-99.10113041
 20
86.24379276
  0
VERTEX
  8
0
 10
-98.92423373
 20
86.40859324
  0
VERTEX
  8
0
 10
-98.73220248
 20
86.55607031
  0
VERTEX
  8
0
 10
-98.52631069
 20
86.68491873
  0
VERTEX
  8
0
 10
-98.30783239
 20
86.79383327
  0
VERTEX
  8
0
 10
-98.07804160
 20
86.88150868
  0
VERTEX
  8
0
 10
-97.83821235
 20
86.94663971
  0
VERTEX
  8
0
 10
-97.58961866
 20
86.98792113
  0
VERTEX
  8
0
 10
-97.33353455
 20
87.00404770
  0
VERTEX
  8
0
 10
-50.83669775
 20
87.56422765
  0
VERTEX
  8
0
 10
-50.58029876
 20
87.55427241
  0
VERTEX
  8
0
 10
-50.33078125
 20
87.51899039
  0
VERTEX
  8
0
 10
-50.08945044
 20
87.45965564
  0
VERTEX
  8
0
 10
-49.85761158
 20
87.37754217
  0
VERTEX
  8
0
 10
-49.63656991
 20
87.27392400
  0
VERTEX
  8
0
 10
-49.42763068
 20
87.15007517
  0
VERTEX
  8
0
 10
-49.23209912
 20
87.00726970
  0
VERTEX
  8
0
 10
-49.05128049
 20
86.84678161
  0
VERTEX
  8
0
 10
-48.88648001
 20
86.66988493
  0
VERTEX
  8
0
 10
-48.73900294
 20
86.47785368
  0
VERTEX
  8
0
 10
-48.61015452
 20
86.27196189
  0
VERTEX
  8
0
 10
-48.50123998
 20
86.05348359
  0
VERTEX
  8
0
 10
-48.41356457
 20
85.82369280
  0
VERTEX
  8
0
 10
-48.34843354
 20
85.58386355
  0
VERTEX
  8
0
 10
-48.30715212
 20
85.33526986
  0
VERTEX
  8
0
 10
-48.29102555
 20
85.07918575
  0
SEQEND
  0
POLYLINE
  8
Layer_1
 62
256
 66
   1
 39
0.000000
 70
    1
  0
VERTEX
  8
0
 10
146.99506870
 20
-76.78110395
  0
VERTEX
  8
0
 10
146.99506870
 20
-82.51516955
  0
VERTEX
  8
0
 10
146.98201840
 20
-82.77142928
  0
VERTEX
  8
0
 10
146.94372722
 20
-83.02050197
  0
VERTEX
  8
0
 10
146.88148471
 20
-83.26109807
  0
VERTEX
  8
0
 10
146.79658044
 20
-83.49192800
  0
VERTEX
  8
0
 10
146.69030397
 20
-83.71170221
  0
VERTEX
  8
0
 10
146.56394485
 20
-83.91913114
  0
VERTEX
  8
0
 10
146.41879264
 20
-84.11292523
  0
VERTEX
  8
0
 10
146.25613692
 20
-84.29179492
  0
VERTEX
  8
0
 10
146.07726723
 20
-84.45445064
  0
VERTEX
  8
0
 10
145.88347314
 20
-84.59960285
  0
VERTEX
  8
0
 10
145.67604421
 20
-84.72596197
  0
VERTEX
  8
0
 10
145.45627000
 20
-84.83223844
  0
VERTEX
  8
0
 10
145.22544007
 20
-84.91714271
  0
VERTEX
  8
0
 10
144.98484397
 20
-84.97938522
  0
VERTEX
  8
0
 10
144.73577128
 20
-85.01767640
  0
VERTEX
  8
0
 10
144.47951155
 20
-85.03072670
  0
VERTEX
  8
0
 10
135.74464630
 20
-85.03072670
  0
VERTEX
  8
0
 10
135.74464630
 20
-88.25143625
  0
VERTEX
  8
0
 10
130.58266660
 20
-88.25143625
  0
VERTEX
  8
0
 10
130.58266660
 20
-85.03072670
  0
VERTEX
  8
0
 10
112.49362660
 20
-85.03072670
  0
VERTEX
  8
0
 10
112.49362660
 20
-87.85423775
  0
VERTEX
  8
0
 10
107.44380295
 20
-87.85423775
  0
VERTEX
  8
0
 10
107.44380295
 20
-85.03072670
  0
VERTEX
  8
0
 10
97.97927305
 20
-85.03072670
  0
VERTEX
  8
0
 10
97.72301332
 20
-85.01767640
  0
VERTEX
  8
0
 10
97.47394063
 20
-84.97938522
  0
VERTEX
  8
0
 10
97.23334453
 20
-84.91714271
  0
VERTEX
  8
0
 10
97.00251460
 20
-84.83223844
  0
VERTEX
  8
0
 10
96.78274039
 20
-84.72596197
  0
VERTEX
  8
0
 10
96.57531146
 20
-84.59960285
  0
VERTEX
  8
0
 10
96.38151737
 20
-84.45445064
  0
VERTEX
  8
0
 10
96.20264768
 20
-84.29179492
  0
VERTEX
  8
0
 10
96.03999196
 20
-84.11292523
  0
VERTEX
  8
0
 10
95.89483975
 20
-83.91913114
  0
VERTEX
  8
0
 10
95.76848063
 20
-83.71170221
  0
VERTEX
  8
0
 10
95.66220416
 20
-83.49192800
  0
VERTEX
  8
0
 10
95.57729989
 20
-83.26109807
  0
VERTEX
  8
0
 10
95.51505738
 20
-83.02050197
  0
VERTEX
  8
0
 10
95.47676620
 20
-82.77142928
  0
VERTEX
  8
0
 10
95.46371590
 20
-82.51516955
  0
VERTEX
  8
0
 10
95.46371590
 20
-76.78110395
  0
VERTEX
  8
0
 10
95.47676620
 20
-76.52484422
  0
VERTEX
  8
0
 10
95.51505738
 20
-76.27577153
  0
VERTEX
  8
0
 10
95.57729989
 20
-76.03517543
  0
VERTEX
  8
0
 10
95.66220416
 20
-75.80434550
  0
VERTEX
  8
0
 10
95.76848063
 20
-75.58457129
  0
VERTEX
  8
0
 10
95.89483975
 20
-75.37714236
  0
VERTEX
  8
0
 10
96.03999196
 20
-75.18334827
  0
VERTEX
  8
0
 10
96.20264768
 20
-75.00447858
  0
VERTEX
  8
0
 10
96.38151737
 20
-74.84182286
  0
VERTEX
  8
0
 10
96.57531146
 20
-74.69667065
  0
VERTEX
  8
0
 10
96.78274039
 20
-74.57031153
  0
VERTEX
  8
0
 10
97.00251460
 20
-74.46403506
  0
VERTEX
  8
0
 10
97.23334453
 20
-74.37913079
  0
VERTEX
  8
0
 10
97.47394063
 20
-74.31688828
  0
VERTEX
  8
0
 10
97.72301332
 20
-74.27859710
  0
VERTEX
  8
0
 10
97.97927305
 20
-74.26554680
  0
VERTEX
  8
0
 10
144.47951155
 20
-74.26554680
  0
VERTEX
  8
0
 10
144.73577128
 20
-74.27859710
  0
VERTEX
  8
0
 10
144.98484397
 20
-74.31688828
  0
VERTEX
  8
0
 10
145.22544007
 20
-74.37913079
  0
VERTEX
  8
0
 10
145.45627000
 20
-74.46403506
  0
VERTEX
  8
0
 10
145.67604421
 20
-74.57031153
  0
VERTEX
  8
0
 10
145.88347314
 20
-74.69667065
  0
VERTEX
  8
0
 10
146.07726723
 20
-74.84182286
  0
VERTEX
  8
0
 10
146.25613692
 20
-75.00447858
  0
VERTEX
  8
0
 10
146.41879264
 20
-75.18334827
  0
VERTEX
  8
0
 10
146.56394485
 20
-75.37714236
  0
VERTEX
  8
0
 10
146.69030397
 20
-75.58457129
  0
VERTEX
  8
0
 10
146.79658044
 20
-75.80434550
  0
VERTEX
  8
0
 10
146.88148471
 20
-76.03517543
  0
VERTEX
  8
0
 10
146.94372722
 20
-76.27577153
  0
VERTEX
  8
0
 10
146.98201840
 20
-76.52484422
  0
VERTEX
  8
0
 10
146.99506870
 20
-76.78110395
  0
SEQEND
  0
POLYLINE
  8
Default_Layer
 62
256
 66
   1
 39
0.000000
 70
    0
  0
VERTEX
  8
0
 10
-38.36676590
 20
327.55613229
  0
VERTEX
  8
0
 10
-33.20478620
 20
327.55613229
  0
SEQEND
  0
ENDSEC
  0
EOF
