  0
SECTION
  2
HEADER
  9
$ACADVER
  1
AC1006
  9
$DWGCODEPAGE
  3
ansi_1252
  9
$INSBASE
 10
0.0
 20
0.0
 30
0.0
  9
$EXTMIN
 10
0.0735792524506096
 20
0.0497760008493949
  9
$EXTMAX
 10
15.23737749603072
 20
17.7450030931996
  9
$LIMMIN
 10
0.0
 20
0.0
  9
$LIMMAX
 10
12.0
 20
9.0
  9
$ORTHOMODE
 70
     0
  9
$REGENMODE
 70
     1
  9
$FILLMODE
 70
     1
  9
$QTEXTMODE
 70
     0
  9
$MIRRTEXT
 70
     1
  9
$DRAGMODE
 70
     2
  9
$LTSCALE
 40
0.000394
  9
$OSMODE
 70
    37
  9
$ATTMODE
 70
     1
  9
$TEXTSIZE
 40
0.2
  9
$TRACEWID
 40
0.05
  9
$TEXTSTYLE
  7
STANDARD
  9
$CLAYER
  8
2
  9
$CELTYPE
  6
BYBLOCK
  9
$CECOLOR
 62
     1
  9
$DIMSCALE
 40
1.0
  9
$DIMASZ
 40
0.18
  9
$DIMEXO
 40
0.0625
  9
$DIMDLI
 40
0.38
  9
$DIMRND
 40
0.0
  9
$DIMDLE
 40
0.0
  9
$DIMEXE
 40
0.18
  9
$DIMTP
 40
0.0
  9
$DIMTM
 40
0.0
  9
$DIMTXT
 40
0.18
  9
$DIMCEN
 40
0.09
  9
$DIMTSZ
 40
0.0
  9
$DIMTOL
 70
     0
  9
$DIMLIM
 70
     0
  9
$DIMTIH
 70
     1
  9
$DIMTOH
 70
     1
  9
$DIMSE1
 70
     0
  9
$DIMSE2
 70
     0
  9
$DIMTAD
 70
     0
  9
$DIMZIN
 70
     0
  9
$DIMBLK
  1

  9
$DIMASO
 70
     1
  9
$DIMSHO
 70
     1
  9
$DIMPOST
  1

  9
$DIMAPOST
  1

  9
$DIMALT
 70
     0
  9
$DIMALTD
 70
     2
  9
$DIMALTF
 40
25.4
  9
$DIMLFAC
 40
1.0
  9
$DIMTOFL
 70
     0
  9
$DIMTVP
 40
0.0
  9
$DIMTIX
 70
     0
  9
$DIMSOXD
 70
     0
  9
$DIMSAH
 70
     0
  9
$DIMBLK1
  1

  9
$DIMBLK2
  1

  9
$LUNITS
 70
     2
  9
$LUPREC
 70
     4
  9
$SKETCHINC
 40
0.1
  9
$FILLETRAD
 40
0.5
  9
$AUNITS
 70
     0
  9
$AUPREC
 70
     0
  9
$MENU
  1
.
  9
$ELEVATION
 40
0.0
  9
$THICKNESS
 40
0.0
  9
$LIMCHECK
 70
     0
  9
$CHAMFERA
 40
0.5
  9
$CHAMFERB
 40
0.5
  9
$SKPOLY
 70
     0
  9
$TDCREATE
 40
2453353.550459155
  9
$TDUPDATE
 40
2440653.891761481
  9
$TDINDWG
 40
2440772.066245926
  9
$TDUSRTIMER
 40
2440772.066245926
  9
$USRTIMER
 70
     1
  9
$ANGBASE
 50
0.0
  9
$ANGDIR
 70
     0
  9
$PDMODE
 70
    35
  9
$PDSIZE
 40
0.000315
  9
$PLINEWID
 40
0.0
  9
$COORDS
 70
     1
  9
$SPLFRAME
 70
     0
  9
$SPLINETYPE
 70
     6
  9
$SPLINESEGS
 70
     8
  9
$ATTDIA
 70
     0
  9
$ATTREQ
 70
     1
  9
$HANDLING
 70
     1
  9
$HANDSEED
  5
4FC3
  9
$SURFTAB1
 70
     6
  9
$SURFTAB2
 70
     6
  9
$SURFTYPE
 70
     6
  9
$SURFU
 70
     6
  9
$SURFV
 70
     6
  9
$UCSNAME
  2

  9
$UCSORG
 10
0.0
 20
0.0
 30
0.0
  9
$UCSXDIR
 10
1.0
 20
0.0
 30
0.0
  9
$UCSYDIR
 10
0.0
 20
1.0
 30
0.0
  9
$USERI1
 70
     0
  9
$USERI2
 70
     0
  9
$USERI3
 70
     0
  9
$USERI4
 70
     0
  9
$USERI5
 70
     0
  9
$USERR1
 40
0.0
  9
$USERR2
 40
0.0
  9
$USERR3
 40
0.0
  9
$USERR4
 40
0.0
  9
$USERR5
 40
0.0
  9
$WORLDVIEW
 70
     1
  0
ENDSEC
  0
SECTION
  2
TABLES
  0
TABLE
  2
VPORT
 70
     1
  0
VPORT
  2
*ACTIVE
 70
     0
 10
0.0
 20
0.0
 11
1.0
 21
1.0
 12
5.611926414755877
 22
9.570098753786104
 13
0.0
 23
0.0
 14
0.5
 24
0.5
 15
0.5
 25
0.5
 16
0.0
 26
0.0
 36
1.0
 17
0.0
 27
0.0
 37
0.0
 40
23.93624967254654
 41
1.972972972850329
 42
50.0
 43
0.0
 44
0.0
 50
0.0
 51
0.0
 71
    16
 72
   100
 73
     1
 74
     3
 75
     0
 76
     0
 77
     0
 78
     0
  0
ENDTAB
  0
TABLE
  2
LTYPE
 70
    10
  0
LTYPE
  2
CONTINUOUS
 70
     0
  3
Solid line
 72
    65
 73
     0
 40
0.0
  0
LTYPE
  2
DASHED
 70
     0
  3
__ __ __ __ __ __ __ __ __ __ __ __ __ __ __
 72
    65
 73
     2
 40
0.000003
 49
0.000002
 49
-0.000001
  0
LTYPE
  2
HIDDEN
 70
     0
  3
 _ _ _ _ _ _ _ _ _ _ _ _ _ _ _ _ _ _ _ _ _ _
 72
    65
 73
     2
 40
0.000001
 49
0.000001
 49
0.0
  0
LTYPE
  2
CENTER
 70
     0
  3
____ _ ____ _ ____ _ ____ _ ____ _ ____ _ ____
 72
    65
 73
     4
 40
0.000008
 49
0.000005
 49
-0.000001
 49
0.000001
 49
-0.000001
  0
LTYPE
  2
PHANTOM
 70
     0
  3
_____ _ _ _____ _ _ _____ _ _ _____ _ _ ____
 72
    65
 73
     6
 40
0.00001
 49
0.000005
 49
-0.000001
 49
0.000001
 49
-0.000001
 49
0.000001
 49
-0.000001
  0
LTYPE
  2
DOT
 70
     0
  3
...............................................
 72
    65
 73
     2
 40
0.000001
 49
0.0
 49
-0.000001
  0
LTYPE
  2
DASHDOT
 70
     0
  3
__ . __ . __ . __ . __ . __ . __ . __ . __ . __
 72
    65
 73
     4
 40
0.000004
 49
0.000002
 49
-0.000001
 49
0.0
 49
-0.000001
  0
LTYPE
  2
BORDER
 70
     0
  3
__ __ . __ __ . __ __ . __ __ . __ __ . __ __
 72
    65
 73
     6
 40
0.000007
 49
0.000002
 49
-0.000001
 49
0.000002
 49
-0.000001
 49
0.0
 49
-0.000001
  0
LTYPE
  2
DIVIDE
 70
     0
  3
__ . . __ . . __ . . __ . . __ . . __ . . __
 72
    65
 73
     6
 40
0.000005
 49
0.000002
 49
-0.000001
 49
0.0
 49
-0.000001
 49
0.0
 49
-0.000001
  0
LTYPE
  2
DOTDOT
 70
     0
  3
 . .  . .  . .  . .  . .  . . 
 72
    65
 73
     5
 40
0.000003
 49
-0.000001
 49
0.0
 49
-0.000001
 49
0.0
 49
-0.000001
  0
ENDTAB
  0
TABLE
  2
LAYER
 70
     7
  0
LAYER
  2
0
 70
     0
 62
     7
  6
CONTINUOUS
  0
LAYER
  2
FOREGROUND
 70
     0
 62
     7
  6
CONTINUOUS
  0
LAYER
  2
BACKGROUND
 70
     1
 62
     7
  6
CONTINUOUS
  0
LAYER
  2
OUTLINE
 70
     0
 62
     7
  6
CONTINUOUS
  0
LAYER
  2
1
 70
     0
 62
     7
  6
CONTINUOUS
  0
LAYER
  2
2
 70
     0
 62
     7
  6
CONTINUOUS
  0
LAYER
  2
3
 70
     0
 62
     7
  6
CONTINUOUS
  0
ENDTAB
  0
TABLE
  2
STYLE
 70
     1
  0
STYLE
  2
STANDARD
 70
     0
 40
0.0
 41
1.0
 50
0.0
 71
     0
 42
0.2
  3
txt
  4

  0
ENDTAB
  0
TABLE
  2
VIEW
 70
     0
  0
ENDTAB
  0
TABLE
  2
UCS
 70
     0
  0
ENDTAB
  0
ENDSEC
  0
SECTION
  2
BLOCKS
  0
ENDSEC
  0
SECTION
  2
ENTITIES
  0
ARC
  5
4DCE
  8
2
  6
BYBLOCK
 62
     2
 10
7.007688124328105
 20
11.07427253443548
 30
0.0
 40
6.722741662037207
 50
38.92066523307607
 51
67.54269850046079
  0
ARC
  5
4DCF
  8
2
  6
BYBLOCK
 62
     2
 10
9.470513903414226
 20
12.60821471736456
 30
0.0
 40
3.81772810547472
 50
6.343247146608482
 51
29.1678083872024
  0
ARC
  5
4DD0
  8
2
  6
BYBLOCK
 62
     2
 10
10.50295787048598
 20
16.28446209554073
 30
0.0
 40
1.365722515936152
 50
98.4232730498791
 51
132.7593568796442
  0
ARC
  5
4DD1
  8
2
  6
BYBLOCK
 62
     2
 10
9.739411641505214
 20
15.57072411730649
 30
0.0
 40
2.140238873501951
 50
74.73504504707248
 51
114.6236883894849
  0
ARC
  5
4DD2
  8
2
  6
BYBLOCK
 62
     2
 10
12.84426557254251
 20
13.7567173149423
 30
0.0
 40
1.656006885776355
 50
49.21814702781736
 51
111.4718987808702
  0
ARC
  5
4DD3
  8
2
  6
BYBLOCK
 62
     2
 10
13.59013826546347
 20
11.90633854658515
 30
0.0
 40
3.122419652288915
 50
83.82621088090312
 51
109.559166612964
  0
ARC
  5
4DD4
  8
2
  6
BYBLOCK
 62
     2
 10
2.68151270640517
 20
15.22307951164213
 30
0.0
 40
1.683871442597399
 50
59.18992610105651
 51
99.83567076642201
  0
ARC
  5
4DD5
  8
2
  6
BYBLOCK
 62
     2
 10
3.638504722868229
 20
17.66627168945002
 30
0.0
 40
1.471015104011899
 50
212.2092830139485
 51
234.6913387574927
  0
ARC
  5
4DD6
  8
2
  6
BYBLOCK
 62
     2
 10
12.72546521612105
 20
13.83495760123331
 30
0.0
 40
1.029597569854795
 50
53.24642261059107
 51
100.1053000780816
  0
ARC
  5
4DD7
  8
2
  6
BYBLOCK
 62
     2
 10
13.57624889881882
 20
13.14818511509458
 30
0.0
 40
1.52981351840022
 50
98.82496940556115
 51
120.3120053040351
  0
ARC
  5
4DD8
  8
2
  6
BYBLOCK
 62
     2
 10
12.84378347729669
 20
10.66725749221553
 30
0.0
 40
2.399986334212283
 50
355.817280050534
 51
79.89495468904866
  0
ARC
  5
4DD9
  8
2
  6
BYBLOCK
 62
     2
 10
13.8538715225064
 20
9.924422381510604
 30
0.0
 40
1.495483228920132
 50
22.31308607805276
 51
56.85409077448495
  0
ARC
  5
4DDA
  8
2
  6
BYBLOCK
 62
     2
 10
13.42391980777197
 20
10.85059643422099
 30
0.0
 40
1.289520467710982
 50
346.4597069813339
 51
14.64210097710305
  0
ARC
  5
4DDB
  8
2
  6
BYBLOCK
 62
     2
 10
17.20688017405773
 20
13.1990685575607
 30
0.0
 40
3.663579243426177
 50
206.3142728150884
 51
226.3393790891519
  0
ARC
  5
4DDC
  8
2
  6
BYBLOCK
 62
     2
 10
12.28685884716813
 20
11.12452534035738
 30
0.0
 40
1.696966725831727
 50
342.2931311429744
 51
15.39505501234918
  0
ARC
  5
4DDD
  8
2
  6
BYBLOCK
 62
     2
 10
15.77294922470253
 20
12.64652907650514
 30
0.0
 40
2.765696198988508
 50
203.6716800707841
 51
227.4707665822116
  0
LINE
  5
4DDE
  8
2
  6
BYBLOCK
 62
     2
 10
7.388443881667627
 20
6.244533812670894
 30
0.0
 11
7.153106338969515
 21
5.552444374220428
 31
0.0
  0
LINE
  5
4DDF
  8
2
  6
BYBLOCK
 62
     2
 10
7.153106338969515
 20
5.552444374220428
 30
0.0
 11
7.405265999179216
 21
5.4836735577996
 31
0.0
  0
LINE
  5
4DE0
  8
2
  6
BYBLOCK
 62
     2
 10
7.405265999179216
 20
5.4836735577996
 30
0.0
 11
7.153106338969515
 21
4.704270971696894
 31
0.0
  0
LINE
  5
4DE1
  8
2
  6
BYBLOCK
 62
     2
 10
7.153106338969515
 20
4.704270971696894
 30
0.0
 11
7.382342393705606
 21
4.635500155276067
 31
0.0
  0
LINE
  5
4DE2
  8
2
  6
BYBLOCK
 62
     2
 10
7.382342393705606
 20
4.635500155276067
 30
0.0
 11
7.198953549916734
 21
3.856097569173359
 31
0.0
  0
LINE
  5
4DE3
  8
2
  6
BYBLOCK
 62
     2
 10
7.198953549916734
 20
3.856097569173359
 30
0.0
 11
7.405265999179216
 21
3.787326752752531
 31
0.0
  0
LINE
  5
4DE4
  8
2
  6
BYBLOCK
 62
     2
 10
7.405265999179216
 20
3.787326752752531
 30
0.0
 11
7.176029944443124
 21
3.076694983070654
 31
0.0
  0
LINE
  5
4DE5
  8
2
  6
BYBLOCK
 62
     2
 10
7.176029944443124
 20
3.076694983070654
 30
0.0
 11
7.382342393705606
 21
3.053771377597045
 31
0.0
  0
LINE
  5
4DE6
  8
2
  6
BYBLOCK
 62
     2
 10
7.382342393705606
 20
3.053771377597045
 30
0.0
 11
6.992641100654252
 21
2.297292396967948
 31
0.0
  0
LINE
  5
4DE7
  8
2
  6
BYBLOCK
 62
     2
 10
6.992641100654252
 20
2.297292396967948
 30
0.0
 11
7.153106338969515
 21
2.251445186020728
 31
0.0
  0
LINE
  5
4DE8
  8
2
  6
BYBLOCK
 62
     2
 10
7.153106338969515
 20
2.251445186020728
 30
0.0
 11
6.786328651391772
 21
1.586660627286067
 31
0.0
  0
LINE
  5
4DE9
  8
2
  6
BYBLOCK
 62
     2
 10
6.786328651391772
 20
1.586660627286067
 30
0.0
 11
7.038488311601471
 21
1.472042599918022
 31
0.0
  0
LINE
  5
4DEA
  8
2
  6
BYBLOCK
 62
     2
 10
7.038488311601471
 20
1.472042599918022
 30
0.0
 11
6.602939807602901
 21
0.8760288576041856
 31
0.0
  0
LINE
  5
4DEB
  8
2
  6
BYBLOCK
 62
     2
 10
6.602939807602901
 20
0.8760288576041856
 30
0.0
 11
6.878023073286208
 21
0.8072580411833613
 31
0.0
  0
LINE
  5
4DEC
  8
2
  6
BYBLOCK
 62
     2
 10
6.878023073286208
 20
0.8072580411833613
 30
0.0
 11
6.236162120025155
 21
0.0507790605542639
 31
0.0
  0
LINE
  5
4DED
  8
2
  6
BYBLOCK
 62
     2
 10
6.236162120025155
 20
0.0507790605542639
 30
0.0
 11
10.05535768042551
 21
0.0497760008493949
 31
0.0
  0
LINE
  5
4DEE
  8
2
  6
BYBLOCK
 62
     2
 10
10.05535768042551
 20
0.0497760008493949
 30
0.0
 11
9.721647310356445
 21
0.9974538704325362
 31
0.0
  0
LINE
  5
4DEF
  8
2
  6
BYBLOCK
 62
     2
 10
9.721647310356445
 20
0.9974538704325362
 30
0.0
 11
9.953982171527022
 21
1.065218204940624
 31
0.0
  0
LINE
  5
4DF0
  8
2
  6
BYBLOCK
 62
     2
 10
9.953982171527022
 20
1.065218204940624
 30
0.0
 11
9.789320968434552
 21
1.884667498442986
 31
0.0
  0
LINE
  5
4DF1
  8
2
  6
BYBLOCK
 62
     2
 10
9.789320968434552
 20
1.884667498442986
 30
0.0
 11
10.06440423411786
 21
1.953438314863814
 31
0.0
  0
LINE
  5
4DF2
  8
2
  6
BYBLOCK
 62
     2
 10
10.06440423411786
 20
1.953438314863814
 30
0.0
 11
10.13317505053869
 21
2.778688111913736
 31
0.0
  0
LINE
  5
4DF3
  8
2
  6
BYBLOCK
 62
     2
 10
10.13317505053869
 20
2.778688111913736
 30
0.0
 11
10.33948749980117
 21
2.847458928334564
 31
0.0
  0
LINE
  5
4DF4
  8
2
  6
BYBLOCK
 62
     2
 10
10.33948749980117
 20
2.847458928334564
 30
0.0
 11
10.27071668338034
 21
3.535167092542833
 31
0.0
  0
LINE
  5
4DF5
  8
2
  6
BYBLOCK
 62
     2
 10
10.27071668338034
 20
3.535167092542833
 30
0.0
 11
10.47702913264282
 21
3.581014303490049
 31
0.0
  0
LINE
  5
4DF6
  8
2
  6
BYBLOCK
 62
     2
 10
10.47702913264282
 20
3.581014303490049
 30
0.0
 11
10.47702913264282
 21
4.360416889592758
 31
0.0
  0
LINE
  5
4DF7
  8
2
  6
BYBLOCK
 62
     2
 10
10.47702913264282
 20
4.360416889592758
 30
0.0
 11
10.75211239832613
 21
4.497958522434413
 31
0.0
  0
LINE
  5
4DF8
  8
2
  6
BYBLOCK
 62
     2
 10
10.75211239832613
 20
4.497958522434413
 30
0.0
 11
10.6604179764317
 21
5.323208319484337
 31
0.0
  0
LINE
  5
4DF9
  8
2
  6
BYBLOCK
 62
     2
 10
10.6604179764317
 20
5.323208319484337
 30
0.0
 11
10.82088321474696
 21
5.369055530431555
 31
0.0
  0
LINE
  5
4DFA
  8
2
  6
BYBLOCK
 62
     2
 10
10.82088321474696
 20
5.369055530431555
 30
0.0
 11
10.75211239832613
 21
6.194305327481479
 31
0.0
  0
LINE
  5
4DFB
  8
2
  6
BYBLOCK
 62
     2
 10
10.75211239832613
 20
6.194305327481479
 30
0.0
 11
11.00427205853583
 21
6.240152538428697
 31
0.0
  0
LINE
  5
4DFC
  8
2
  6
BYBLOCK
 62
     2
 10
11.00427205853583
 20
6.240152538428697
 30
0.0
 11
10.935501242115
 21
6.973707913584185
 31
0.0
  0
LINE
  5
4DFD
  8
2
  6
BYBLOCK
 62
     2
 10
10.935501242115
 20
6.973707913584185
 30
0.0
 11
11.16473729685109
 21
7.019555124531403
 31
0.0
  0
LINE
  5
4DFE
  8
2
  6
BYBLOCK
 62
     2
 10
11.16473729685109
 20
7.019555124531403
 30
0.0
 11
11.08715889243303
 21
7.566798825793811
 31
0.0
  0
ARC
  5
4DFF
  8
2
  6
BYBLOCK
 62
     2
 10
8.872666856859523
 20
11.19765049541536
 30
0.0
 40
4.252888291786194
 50
301.3794245873629
 51
333.5348563717014
  0
ARC
  5
4E00
  8
2
  6
BYBLOCK
 62
     2
 10
13.72691994331336
 20
9.127374335748799
 30
0.0
 40
1.06156108323903
 50
170.5134406015698
 51
210.6819088358394
  0
ARC
  5
4E01
  8
2
  6
BYBLOCK
 62
     2
 10
11.01042707302147
 20
10.27030939937936
 30
0.0
 40
2.467931245334758
 50
316.9525479866836
 51
329.853066943595
  0
ARC
  5
4E02
  8
2
  6
BYBLOCK
 62
     2
 10
16.48553654351809
 20
8.605844029846622
 30
0.0
 40
3.367915861827294
 50
172.750080758333
 51
192.0719787348891
  0
ARC
  5
4E03
  8
2
  6
BYBLOCK
 62
     2
 10
11.96343005563275
 20
9.008734330393297
 30
0.0
 40
1.653979656923564
 50
317.9753382234095
 51
344.9446914006705
  0
ARC
  5
4E04
  8
2
  6
BYBLOCK
 62
     2
 10
10.09923051269738
 20
8.140294187389356
 30
0.0
 40
3.489111650782087
 50
351.3602837234215
 51
7.225077539489967
  0
ARC
  5
4E05
  8
2
  6
BYBLOCK
 62
     2
 10
11.28811266017826
 20
8.920156354838717
 30
0.0
 40
2.60976854051111
 50
330.0224412329668
 51
43.18151734892038
  0
ARC
  5
4E06
  8
2
  6
BYBLOCK
 62
     2
 10
11.6181929225886
 20
11.2150454880732
 30
0.0
 40
1.653239197693933
 50
342.0686978313776
 51
11.19838084176283
  0
ARC
  5
4E07
  8
2
  6
BYBLOCK
 62
     2
 10
6.860943566765458
 20
12.50703457586637
 30
0.0
 40
6.284677588488197
 50
210.6982746202912
 51
274.8147485109849
  0
ARC
  5
4E08
  8
2
  6
BYBLOCK
 62
     2
 10
2.652444280992258
 20
13.83962179470186
 30
0.0
 40
2.629738544047632
 50
87.0390135756691
 51
103.145216673329
  0
ARC
  5
4E09
  8
2
  6
BYBLOCK
 62
     2
 10
2.836656308386598
 20
17.02746152572699
 30
0.0
 40
1.002537487122731
 50
218.7131505472372
 51
256.7355608236075
  0
ARC
  5
4E0A
  8
2
  6
BYBLOCK
 62
     2
 10
5.48470486819253
 20
12.31442179928006
 30
0.0
 40
4.717027691089545
 50
127.6000740128458
 51
160.9443440664087
  0
ARC
  5
4E0B
  8
2
  6
BYBLOCK
 62
     2
 10
1.410681320086204
 20
12.18897405584496
 30
0.0
 40
1.709305072762243
 50
103.0003410025752
 51
134.6364665070597
  0
ARC
  5
4E0C
  8
2
  6
BYBLOCK
 62
     2
 10
0.3835998729304457
 20
11.73012216679394
 30
0.0
 40
1.684158315355436
 50
73.28591850235698
 51
95.92626048521865
  0
ARC
  5
4E0D
  8
2
  6
BYBLOCK
 62
     2
 10
6.144357312910008
 20
11.895550706354
 30
0.0
 40
5.471369188491614
 50
164.6584112362995
 51
193.4874777721826
  0
ARC
  5
4E0E
  8
2
  6
BYBLOCK
 62
     2
 10
1.781783176906167
 20
9.123298510791962
 30
0.0
 40
1.776523093341663
 50
122.6291369568331
 51
164.0586462112331
  0
ARC
  5
4E0F
  8
2
  6
BYBLOCK
 62
     2
 10
32.49409596649993
 20
-45.91685669762113
 30
0.0
 40
64.29975054193618
 50
119.4195437559809
 51
120.2788620023383
  0
ARC
  5
4E10
  8
2
  6
BYBLOCK
 62
     2
 10
2.14439319179971
 20
9.001198240086614
 30
0.0
 40
1.646765624206144
 50
138.5545293897728
 51
172.623404155923
  0
ARC
  5
4E11
  8
2
  6
BYBLOCK
 62
     2
 10
3.655871218439613
 20
5.063434417296264
 30
0.0
 40
5.206188828084804
 50
117.8658557786559
 51
127.1579726834467
  0
ARC
  5
4E12
  8
2
  6
BYBLOCK
 62
     2
 10
2.794757115661219
 20
8.715396402761414
 30
0.0
 40
1.837273239093727
 50
148.8443759919134
 51
174.9678109199602
  0
ARC
  5
4E13
  8
2
  6
BYBLOCK
 62
     2
 10
3.474327340100779
 20
6.446746972281657
 30
0.0
 40
3.493259865193919
 50
125.2752413685277
 51
135.9273479214808
  0
ARC
  5
4E14
  8
2
  6
BYBLOCK
 62
     2
 10
7.102616842893307
 20
11.41494587671898
 30
0.0
 40
6.346037041071424
 50
74.03902062048593
 51
124.1087193839328
  0
CIRCLE
  5
4E15
  8
1
  6
BYBLOCK
 62
     1
 10
5.85729338246593
 20
12.0253278831775
 30
0.0
 40
0.4708748833852674
  0
CIRCLE
  5
4E16
  8
1
  6
BYBLOCK
 62
     1
 10
7.064619371964493
 20
12.11290593422921
 30
0.0
 40
0.4393623093695815
  0
CIRCLE
  5
4E17
  8
1
  6
BYBLOCK
 62
     1
 10
6.607962391480582
 20
10.96813569548186
 30
0.0
 40
0.4257928757487886
  0
CIRCLE
  5
4E18
  8
1
  6
BYBLOCK
 62
     1
 10
10.08606213324846
 20
11.42479267596577
 30
0.0
 40
0.4507922093047956
  0
CIRCLE
  5
4E19
  8
1
  6
BYBLOCK
 62
     1
 10
10.18148822846004
 20
10.27717162426853
 30
0.0
 40
0.4589273804000378
  0
CIRCLE
  5
4E1A
  8
1
  6
BYBLOCK
 62
     1
 10
11.30589927289727
 20
10.76795729307796
 30
0.0
 40
0.4880952288649603
  0
LINE
  5
4E1B
  8
1
  6
BYBLOCK
 62
     1
 10
6.849625878213036
 20
9.449858993863499
 30
0.0
 11
6.587021941607619
 21
9.449858993863499
 31
0.0
  0
LINE
  5
4E1C
  8
1
  6
BYBLOCK
 62
     1
 10
7.661697502067625
 20
9.499057485734685
 30
0.0
 11
7.98145974430059
 21
9.164760596127495
 31
0.0
  0
LINE
  5
4E1D
  8
1
  6
BYBLOCK
 62
     1
 10
7.98145974430059
 20
9.164760596127495
 30
0.0
 11
7.836113270558334
 21
8.990344827636786
 31
0.0
  0
LINE
  5
4E1E
  8
1
  6
BYBLOCK
 62
     1
 10
7.836113270558334
 20
8.990344827636786
 30
0.0
 11
8.199479454913975
 21
8.452562874790436
 31
0.0
  0
LINE
  5
4E1F
  8
1
  6
BYBLOCK
 62
     1
 10
8.199479454913975
 20
8.452562874790436
 30
0.0
 11
8.025063686423266
 21
8.307216401048178
 31
0.0
  0
LINE
  5
4E20
  8
1
  6
BYBLOCK
 62
     1
 10
8.025063686423266
 20
8.307216401048178
 30
0.0
 11
8.41749916552736
 21
7.638622621833798
 31
0.0
  0
LINE
  5
4E21
  8
1
  6
BYBLOCK
 62
     1
 10
8.41749916552736
 20
7.638622621833798
 30
0.0
 11
8.155875512791299
 21
7.435137558594637
 31
0.0
  0
LINE
  5
4E22
  8
1
  6
BYBLOCK
 62
     1
 10
8.155875512791299
 20
7.435137558594637
 30
0.0
 11
8.463438471402432
 21
6.802037268094309
 31
0.0
  0
LINE
  5
4E23
  8
1
  6
BYBLOCK
 62
     1
 10
7.273832237344866
 20
7.046022958783129
 30
0.0
 11
6.991027997923647
 21
7.046022958783129
 31
0.0
  0
LINE
  5
4E24
  8
1
  6
BYBLOCK
 62
     1
 10
6.991027997923647
 20
7.046022958783129
 30
0.0
 11
7.092029512002654
 21
7.914635979862592
 31
0.0
  0
LINE
  5
4E25
  8
1
  6
BYBLOCK
 62
     1
 10
7.092029512002654
 20
7.914635979862592
 30
0.0
 11
6.829425575397236
 21
7.914635979862592
 31
0.0
  0
LINE
  5
4E26
  8
1
  6
BYBLOCK
 62
     1
 10
6.829425575397236
 20
7.914635979862592
 30
0.0
 11
6.991027997923647
 21
8.763048698126251
 31
0.0
  0
LINE
  5
4E27
  8
1
  6
BYBLOCK
 62
     1
 10
6.991027997923647
 20
8.763048698126251
 30
0.0
 11
6.708223758502427
 21
8.803449303757853
 31
0.0
  0
LINE
  5
4E28
  8
1
  6
BYBLOCK
 62
     1
 10
6.708223758502427
 20
8.803449303757853
 30
0.0
 11
6.849625878213036
 21
9.449858993863499
 31
0.0
  0
ARC
  5
4E29
  8
1
  6
BYBLOCK
 62
     1
 10
7.922214298211953
 20
10.51659778001829
 30
0.0
 40
3.753782545964896
 50
278.2898563980609
 51
302.622771128495
  0
LINE
  5
4E2A
  8
1
  6
BYBLOCK
 62
     1
 10
10.13258755568599
 20
7.914780921944086
 30
0.0
 11
9.945899337096851
 21
7.355018702123179
 31
0.0
  0
ARC
  5
4E2B
  8
1
  6
BYBLOCK
 62
     1
 10
6.182460568640641
 20
8.887341121235906
 30
0.0
 40
4.915368501206782
 50
348.3503819231125
 51
15.209227359728
  0
LINE
  5
4E2C
  8
1
  6
BYBLOCK
 62
     1
 10
10.10858471825231
 20
9.574923884488912
 30
0.0
 11
9.97270643456951
 21
8.859533001268755
 31
0.0
  0
LINE
  5
4E2D
  8
1
  6
BYBLOCK
 62
     1
 10
9.97270643456951
 20
8.859533001268755
 30
0.0
 11
10.19072614518289
 21
8.714186527526499
 31
0.0
  0
LINE
  5
4E2E
  8
1
  6
BYBLOCK
 62
     1
 10
10.19072614518289
 20
8.714186527526499
 30
0.0
 11
9.929102492446834
 21
8.060127395686342
 31
0.0
  0
LINE
  5
4E2F
  8
1
  6
BYBLOCK
 62
     1
 10
9.929102492446834
 20
8.060127395686342
 30
0.0
 11
10.13258755568599
 21
7.914780921944086
 31
0.0
  0
ARC
  5
4E30
  8
1
  6
BYBLOCK
 62
     1
 10
10.15389655340012
 20
10.26681002226578
 30
0.0
 40
0.6933682932268089
 50
128.0603625696244
 51
266.2530326215878
  0
ARC
  5
4E31
  8
1
  6
BYBLOCK
 62
     1
 10
9.572146769176801
 20
10.11118875565034
 30
0.0
 40
0.7183197019835497
 50
77.59627329750273
 51
151.2168818170728
  0
ARC
  5
4E32
  8
1
  6
BYBLOCK
 62
     1
 10
9.732877265146446
 20
11.24677601575125
 30
0.0
 40
1.117243195235726
 50
205.1528807853838
 51
224.9789242739029
  0
ARC
  5
4E33
  8
1
  6
BYBLOCK
 62
     1
 10
8.926751543123652
 20
10.80426150604067
 30
0.0
 40
0.6961142463651873
 50
201.6111203492122
 51
240.6054216022147
  0
ARC
  5
4E34
  8
1
  6
BYBLOCK
 62
     1
 10
7.491969075579837
 20
10.76092583539677
 30
0.0
 40
1.229654503295163
 50
332.7429615907723
 51
0.5117452212378805
  0
ARC
  5
4E35
  8
1
  6
BYBLOCK
 62
     1
 10
7.569754967444816
 20
10.64763810895129
 30
0.0
 40
0.7167915530277224
 50
286.5547017113133
 51
351.9999306351761
  0
LINE
  5
4E36
  8
1
  6
BYBLOCK
 62
     1
 10
7.773990832117924
 20
9.960558898035163
 30
0.0
 11
7.661697502067625
 21
9.499057485734685
 31
0.0
  0
ARC
  5
4E37
  8
1
  6
BYBLOCK
 62
     1
 10
6.71635360647174
 20
11.02757555848792
 30
0.0
 40
1.233273832767379
 50
301.5405301680669
 51
344.1753401255009
  0
ARC
  5
4E38
  8
1
  6
BYBLOCK
 62
     1
 10
7.771629750232827
 20
11.50167514695823
 30
0.0
 40
0.820967153657877
 50
279.2000205232807
 51
346.024028519917
  0
ARC
  5
4E39
  8
1
  6
BYBLOCK
 62
     1
 10
8.182332295783272
 20
11.71217611928128
 30
0.0
 40
0.8682009569038551
 50
308.7190458863835
 51
351.5071091784462
  0
ARC
  5
4E3A
  8
1
  6
BYBLOCK
 62
     1
 10
9.606957149190331
 20
11.63442612957269
 30
0.0
 40
0.5681905323610905
 50
185.0962381171277
 51
260.1665481611123
  0
ARC
  5
4E3B
  8
1
  6
BYBLOCK
 62
     1
 10
9.92022389764314
 20
11.43504336241915
 30
0.0
 40
0.5461517442939562
 50
138.7001327711059
 51
221.2998672288939
  0
ARC
  5
4E3C
  8
1
  6
BYBLOCK
 62
     1
 10
9.342988455385283
 20
9.814397586793522
 30
0.0
 40
1.988126326648565
 50
85.18356529397924
 51
175.3233884191656
  0
LINE
  5
4E3D
  8
1
  6
BYBLOCK
 62
     1
 10
6.587021941607619
 20
9.449858993863499
 30
0.0
 11
6.731745717230577
 21
10.28639486104521
 31
0.0
  0
ARC
  5
4E3E
  8
1
  6
BYBLOCK
 62
     1
 10
6.641278104346478
 20
11.00967783690875
 30
0.0
 40
0.7289188241189458
 50
158.8693165973687
 51
277.1294809559237
  0
ARC
  5
4E3F
  8
1
  6
BYBLOCK
 62
     1
 10
5.853239248019827
 20
10.87840024218775
 30
0.0
 40
0.4086173036385782
 50
74.65507659149402
 51
177.697126766928
  0
ARC
  5
4E40
  8
1
  6
BYBLOCK
 62
     1
 10
7.888757994697961
 20
12.20041440879647
 30
0.0
 40
2.77069786623525
 50
198.5709238022265
 51
208.1132113881373
  0
ARC
  5
4E41
  8
1
  6
BYBLOCK
 62
     1
 10
6.510096938157929
 20
10.79218852350189
 30
0.0
 40
1.354033905536093
 50
157.1490628568167
 51
196.371536550979
  0
ARC
  5
4E42
  8
1
  6
BYBLOCK
 62
     1
 10
4.285611431648391
 20
9.604847657881111
 30
0.0
 40
1.226950251265249
 50
41.04546338029423
 51
61.63492011152556
  0
ARC
  5
4E43
  8
1
  6
BYBLOCK
 62
     1
 10
6.545865226905871
 20
10.43185560137955
 30
0.0
 40
1.696262841326877
 50
171.4347984979634
 51
203.3372878045712
  0
ARC
  5
4E44
  8
1
  6
BYBLOCK
 62
     1
 10
2.864157776715983
 20
6.067926273070571
 30
0.0
 40
4.259450452434162
 50
60.08550420099955
 51
66.78439344484434
  0
ARC
  5
4E45
  8
1
  6
BYBLOCK
 62
     1
 10
5.787957319579979
 20
9.948896350772131
 30
0.0
 40
1.245210142736687
 50
178.4545067968701
 51
218.9737960551081
  0
ARC
  5
4E46
  8
1
  6
BYBLOCK
 62
     1
 10
5.014608376746182
 20
10.23578304608706
 30
0.0
 40
1.087652153765647
 50
223.8096268687552
 51
259.6868945863578
  0
ARC
  5
4E47
  8
1
  6
BYBLOCK
 62
     1
 10
5.234154511511367
 20
9.356957706982303
 30
0.0
 40
1.012301110952364
 50
172.8566200406718
 51
224.411207257564
  0
ARC
  5
4E48
  8
1
  6
BYBLOCK
 62
     1
 10
4.458138416445484
 20
9.215054649734045
 30
0.0
 40
0.56897225730596
 50
219.4856061848761
 51
275.3340685581104
  0
ARC
  5
4E49
  8
1
  6
BYBLOCK
 62
     1
 10
54.58520294187625
 20
24.43979314148026
 30
0.0
 40
52.91388863011515
 50
197.1314087535848
 51
197.9685050420032
  0
ARC
  5
4E4A
  8
1
  6
BYBLOCK
 62
     1
 10
4.417805359458512
 20
8.683379738035779
 30
0.0
 40
0.5909146534984852
 50
200.4670296949543
 51
253.7170234352748
  0
ARC
  5
4E4B
  8
1
  6
BYBLOCK
 62
     1
 10
-38.47125543999994
 20
16.59577920059076
 30
0.0
 40
43.10694541135574
 50
348.5160023174014
 51
349.1437217671917
  0
ARC
  5
4E4C
  8
1
  6
BYBLOCK
 62
     1
 10
6.855529455097679
 20
12.32266033199198
 30
0.0
 40
5.75476075319142
 50
209.5370321792983
 51
273.4767997679067
  0
LINE
  5
4E4D
  8
1
  6
BYBLOCK
 62
     1
 10
7.204523291804794
 20
6.578491581997532
 30
0.0
 11
7.273832237344866
 21
7.046022958783129
 31
0.0
  0
ARC
  5
4E4E
  8
1
  6
BYBLOCK
 62
     1
 10
5.771972203135753
 20
11.83847604527594
 30
0.0
 40
4.723224420302437
 50
165.896088319324
 51
191.9678525051725
  0
ARC
  5
4E4F
  8
1
  6
BYBLOCK
 62
     1
 10
5.570404716230279
 20
12.35936856125641
 30
0.0
 40
4.434987141145437
 50
125.7827217344427
 51
158.7574155563042
  0
ARC
  5
4E50
  8
1
  6
BYBLOCK
 62
     1
 10
7.111537323300702
 20
11.60353728005989
 30
0.0
 40
5.914618576715509
 50
76.84088160271578
 51
123.9605059856331
  0
ARC
  5
4E51
  8
1
  6
BYBLOCK
 62
     1
 10
1.267211811700962
 20
12.60590450311188
 30
0.0
 40
4.657172036662353
 50
22.68779032557159
 51
56.94400682698086
  0
ARC
  5
4E52
  8
1
  6
BYBLOCK
 62
     1
 10
8.891765497161183
 20
14.04410343970977
 30
0.0
 40
3.346966087949795
 50
97.44582418455671
 51
173.8577489841672
  0
ARC
  5
4E53
  8
1
  6
BYBLOCK
 62
     1
 10
9.120045734744654
 20
10.88633406924552
 30
0.0
 40
3.531379987057296
 50
302.099236132771
 51
336.4290905655344
  0
ARC
  5
4E54
  8
1
  6
BYBLOCK
 62
     1
 10
9.915108617068752
 20
12.7495187707352
 30
0.0
 40
3.099629332446662
 50
4.592775440838428
 51
31.58820329654576
  0
ARC
  5
4E55
  8
1
  6
BYBLOCK
 62
     1
 10
14.21030858426536
 20
1.884165243409059
 30
0.0
 40
11.17874323765705
 50
96.19085681706957
 51
103.7839863329575
  0
ARC
  5
4E56
  8
1
  6
BYBLOCK
 62
     1
 10
12.8719935033449
 20
11.87807849344839
 30
0.0
 40
1.581334490452515
 50
137.6822205982879
 51
146.9292984683336
  0
ARC
  5
4E57
  8
1
  6
BYBLOCK
 62
     1
 10
11.53569635658014
 20
12.9066001813505
 30
0.0
 40
0.1708798549722908
 50
12.19586605836908
 51
81.62243880762458
  0
ARC
  5
4E58
  8
1
  6
BYBLOCK
 62
     1
 10
11.73049702797296
 20
13.98690330749136
 30
0.0
 40
0.5938700550170363
 50
222.024111590743
 51
264.5614403383873
  0
ARC
  5
4E59
  8
1
  6
BYBLOCK
 62
     1
 10
8.291507781064464
 20
13.12394599939601
 30
0.0
 40
2.549129332899225
 50
354.8604526860036
 51
52.75397050142427
  0
ARC
  5
4E5A
  8
1
  6
BYBLOCK
 62
     1
 10
12.16924080947633
 20
12.23751574818415
 30
0.0
 40
1.259547760826632
 50
113.1426580814294
 51
147.1846816211686
  0
ARC
  5
4E5B
  8
1
  6
BYBLOCK
 62
     1
 10
11.34555466918539
 20
13.49604822575461
 30
0.0
 40
0.6219894973262419
 50
247.8147056782599
 51
267.6831142749479
  0
ARC
  5
4E5C
  8
1
  6
BYBLOCK
 62
     1
 10
11.42463116340533
 20
12.47714450988532
 30
0.0
 40
0.4108611033583901
 50
104.6945124912387
 51
197.2038888064839
  0
ARC
  5
4E5D
  8
1
  6
BYBLOCK
 62
     1
 10
9.525890618946797
 20
14.85612750159244
 30
0.0
 40
0.428219770022339
 50
336.9533410962674
 51
43.92026246398129
  0
ARC
  5
4E5E
  8
1
  6
BYBLOCK
 62
     1
 10
9.238157397804145
 20
13.84322843078108
 30
0.0
 40
1.08594694962103
 50
15.59724874938777
 51
51.11080275364592
  0
ARC
  5
4E5F
  8
1
  6
BYBLOCK
 62
     1
 10
10.22977606094989
 20
14.7629534530859
 30
0.0
 40
0.6300900438752611
 50
236.0523471546088
 51
274.9473193122861
  0
ARC
  5
4E60
  8
1
  6
BYBLOCK
 62
     1
 10
9.145876924782764
 20
13.07470257006025
 30
0.0
 40
1.376374540844474
 50
336.5702345769694
 51
57.86897830835131
  0
ARC
  5
4E61
  8
1
  6
BYBLOCK
 62
     1
 10
9.285394287255418
 20
13.27323211533203
 30
0.0
 40
1.280867205507154
 50
293.8295480696331
 51
315.1862571241526
  0
ARC
  5
4E62
  8
1
  6
BYBLOCK
 62
     1
 10
11.44493266255888
 20
11.1986269942765
 30
0.0
 40
0.8025720302871776
 50
87.08780354945539
 51
145.5004112443369
  0
ARC
  5
4E63
  8
1
  6
BYBLOCK
 62
     1
 10
10.63007374983693
 20
10.264068088807
 30
0.0
 40
1.153810966237786
 50
319.3786793219035
 51
351.1527156199912
  0
ARC
  5
4E64
  8
1
  6
BYBLOCK
 62
     1
 10
10.62521383897666
 20
9.328857789592037
 30
0.0
 40
0.8996559844951874
 50
11.80246138289138
 51
70.49057770990441
  0
ARC
  5
4E65
  8
1
  6
BYBLOCK
 62
     1
 10
9.996993213438861
 20
11.22953231040338
 30
0.0
 40
0.8933669269376691
 50
28.30998064468553
 51
102.5490556036423
  0
ARC
  5
4E66
  8
1
  6
BYBLOCK
 62
     1
 10
9.630067600614348
 20
9.367500593495469
 30
0.0
 40
2.257675606821982
 50
355.1763258058109
 51
18.57331025159768
  0
ARC
  5
4E67
  8
1
  6
BYBLOCK
 62
     1
 10
12.72971544025376
 20
8.342289595660745
 30
0.0
 40
1.19175476557981
 50
108.235463869246
 51
135.4964915179618
  0
ARC
  5
4E68
  8
1
  6
BYBLOCK
 62
     1
 10
11.04522440003642
 20
8.893641157728709
 30
0.0
 40
2.605123983604363
 50
359.3585478786052
 51
81.84415925238631
  0
ARC
  5
4E69
  8
1
  6
BYBLOCK
 62
     1
 10
11.29227971201166
 20
10.71152081488495
 30
0.0
 40
0.7706972867394245
 50
329.4282091442394
 51
80.85246332317301
  0
ARC
  5
4E6A
  8
1
  6
BYBLOCK
 62
     1
 10
13.85710669937378
 20
9.23387686285413
 30
0.0
 40
1.357733466008756
 50
142.4115926147741
 51
163.6840495227679
  0
ARC
  5
4E6B
  8
1
  6
BYBLOCK
 62
     1
 10
10.24762920028805
 20
9.606793958356102
 30
0.0
 40
2.306439592118909
 50
0.2115584273944968
 51
29.31367551119437
  0
ARC
  5
4E6C
  8
1
  6
BYBLOCK
 62
     1
 10
11.70469762371452
 20
10.82056200050877
 30
0.0
 40
0.5604525869277355
 50
296.6227508348265
 51
351.3225023949661
  0
ARC
  5
4E6D
  8
1
  6
BYBLOCK
 62
     1
 10
14.37440001270198
 20
10.14416624298017
 30
0.0
 40
1.595292677096945
 50
182.9496996961624
 51
211.7349496762083
  0
ARC
  5
4E6E
  8
1
  6
BYBLOCK
 62
     1
 10
14.79609221433204
 20
8.628081574270322
 30
0.0
 40
1.90296181825606
 50
147.1350648943626
 51
159.1606746704572
  0
ARC
  5
4E6F
  8
1
  6
BYBLOCK
 62
     1
 10
14.90489596635393
 20
10.10418298940875
 30
0.0
 40
1.76385151052939
 50
194.5606049702604
 51
224.6553664100036
  0
ARC
  5
4E70
  8
1
  6
BYBLOCK
 62
     1
 10
13.23921024240184
 20
10.55120349621427
 30
0.0
 40
1.687898254984753
 50
34.7485503730416
 51
67.90130349926649
  0
ARC
  5
4E71
  8
1
  6
BYBLOCK
 62
     1
 10
12.93466868541373
 20
10.94226101132357
 30
0.0
 40
1.785204469565967
 50
18.65406674726352
 51
86.30982386076714
  0
ARC
  5
4E72
  8
1
  6
BYBLOCK
 62
     1
 10
14.66581813079285
 20
11.56590423022021
 30
0.0
 40
0.963470289626444
 50
145.2482031549776
 51
180.6169872080935
  0
ARC
  5
4E73
  8
1
  6
BYBLOCK
 62
     1
 10
12.41413445108586
 20
11.17566807548262
 30
0.0
 40
1.343105448307318
 50
16.428769494829
 51
58.13456491715591
  0
ARC
  5
4E74
  8
1
  6
BYBLOCK
 62
     1
 10
13.87609639688445
 20
11.69067270751501
 30
0.0
 40
0.9789476509178299
 50
140.2724895533076
 51
181.3021668123212
  0
ARC
  5
4E75
  8
1
  6
BYBLOCK
 62
     1
 10
11.26477864831305
 20
10.90939612979929
 30
0.0
 40
1.8004399144869
 50
24.93439358465089
 51
53.64988567115462
  0
ARC
  5
4E76
  8
1
  6
BYBLOCK
 62
     1
 10
11.81492594011037
 20
11.7234226282926
 30
0.0
 40
0.4300809165083706
 50
29.07528529802061
 51
139.9496800243076
  0
ARC
  5
4E77
  8
1
  6
BYBLOCK
 62
     1
 10
12.75217923444879
 20
11.9837695466966
 30
0.0
 40
0.5637136014222531
 50
138.2019400925908
 51
185.2259903828507
  0
ARC
  5
4E78
  8
1
  6
BYBLOCK
 62
     1
 10
13.90136082247719
 20
2.344147085638109
 30
0.0
 40
10.41450930221964
 50
94.69141555337733
 51
105.9918750355805
  0
ARC
  5
4E79
  8
1
  6
BYBLOCK
 62
     1
 10
12.33427017837864
 20
12.01254142042507
 30
0.0
 40
1.314834855283109
 50
94.55005139715121
 51
126.0450881473062
  0
ARC
  5
4E7A
  8
1
  6
BYBLOCK
 62
     1
 10
11.61544143837935
 20
12.86243037148844
 30
0.0
 40
0.7680996389276739
 50
36.86451832550239
 51
91.01349019497754
  0
ARC
  5
4E7B
  8
1
  6
BYBLOCK
 62
     1
 10
13.22965026797231
 20
10.46033091442274
 30
0.0
 40
3.563581972178014
 50
102.6370242554467
 51
117.1799163252055
  0
ARC
  5
4E7C
  8
1
  6
BYBLOCK
 62
     1
 10
12.3429958502612
 20
14.10065887893168
 30
0.0
 40
0.1950616703394599
 50
303.2798435356414
 51
25.67193447084956
  0
ARC
  5
4E7D
  8
1
  6
BYBLOCK
 62
     1
 10
12.1888014364136
 20
13.79117461119175
 30
0.0
 40
0.5139336684716855
 50
50.05073977524268
 51
93.07936257891333
  0
ARC
  5
4E7E
  8
1
  6
BYBLOCK
 62
     1
 10
12.5687673191601
 20
13.13228488070417
 30
0.0
 40
1.240923510378043
 50
90.61347767244448
 51
109.1743636670262
  0
ARC
  5
4E7F
  8
1
  6
BYBLOCK
 62
     1
 10
12.42730170024734
 20
15.14281196634363
 30
0.0
 40
0.5038399134209927
 50
217.5763369827538
 51
271.0207757097498
  0
ARC
  5
4E80
  8
1
  6
BYBLOCK
 62
     1
 10
12.66776307550331
 20
13.23254488889413
 30
0.0
 40
1.425428994650388
 50
99.34605812510405
 51
131.3075258076123
  0
ARC
  5
4E81
  8
1
  6
BYBLOCK
 62
     1
 10
12.19307472744286
 20
14.76616539252455
 30
0.0
 40
0.6569830405364722
 50
224.7923411218042
 51
262.9139764070345
  0
ARC
  5
4E82
  8
1
  6
BYBLOCK
 62
     1
 10
12.46426336601625
 20
12.65488510227155
 30
0.0
 40
1.501222686844774
 50
103.5698841965444
 51
141.5037652169602
  0
ARC
  5
4E83
  8
1
  6
BYBLOCK
 62
     1
 10
14.17059536996893
 20
12.1732269331016
 30
0.0
 40
3.417424847735612
 50
128.8266014711683
 51
167.7969651004194
  0
ARC
  5
4E84
  8
1
  6
BYBLOCK
 62
     1
 10
2.240069132526336
 20
13.35012186062924
 30
0.0
 40
3.170188491687418
 50
22.52309371284132
 51
66.45037998814443
  0
ARC
  5
4E85
  8
1
  6
BYBLOCK
 62
     1
 10
4.842518501949255
 20
15.98624460966891
 30
0.0
 40
1.45864486079059
 50
241.849727435651
 51
282.9117281528198
  0
ARC
  5
4E86
  8
1
  6
BYBLOCK
 62
     1
 10
8.337552829161906
 20
11.30532777595742
 30
0.0
 40
2.404878867884081
 50
30.54220755727229
 51
122.333300913829
  0
ARC
  5
4E87
  8
1
  6
BYBLOCK
 62
     1
 10
7.352087716187558
 20
12.71102906310953
 30
0.0
 40
0.6947793361084019
 50
57.04557217362986
 51
115.6516352669722
  0
ARC
  5
4E88
  8
1
  6
BYBLOCK
 62
     1
 10
8.532831864317712
 20
11.9689023032682
 30
0.0
 40
1.5493330955009
 50
92.55529363219789
 51
121.2089669237703
  0
ARC
  5
4E89
  8
1
  6
BYBLOCK
 62
     1
 10
8.634274396400931
 20
13.31948329759216
 30
0.0
 40
0.2607077237141009
 50
130.8480456313562
 51
203.0606802427465
  0
ARC
  5
4E8A
  8
1
  6
BYBLOCK
 62
     1
 10
8.896232884599842
 20
12.26974857066819
 30
0.0
 40
1.072291403064964
 50
60.07815157562606
 51
117.9045998030537
  0
ARC
  5
4E8B
  8
1
  6
BYBLOCK
 62
     1
 10
9.64811642485563
 20
12.40721268497977
 30
0.0
 40
0.8210928595336825
 50
105.3246501647459
 51
143.7720839472763
  0
ARC
  5
4E8C
  8
1
  6
BYBLOCK
 62
     1
 10
9.368902019122791
 20
12.05180231325892
 30
0.0
 40
0.9238668957090381
 50
58.28620844540234
 51
114.5011743094045
  0
ARC
  5
4E8D
  8
1
  6
BYBLOCK
 62
     1
 10
9.188423178500857
 20
13.32407259900021
 30
0.0
 40
0.8247857952850377
 50
282.9105785282603
 51
323.866448623963
  0
ARC
  5
4E8E
  8
1
  6
BYBLOCK
 62
     1
 10
9.568561319487808
 20
11.26645208056385
 30
0.0
 40
1.268891871273032
 50
60.46626746189125
 51
98.87922475772018
  0
ARC
  5
4E8F
  8
1
  6
BYBLOCK
 62
     1
 10
9.00105782898528
 20
11.37625676261832
 30
0.0
 40
0.4388540004501318
 50
189.5563504123848
 51
231.0865851520541
  0
ARC
  5
4E90
  8
1
  6
BYBLOCK
 62
     1
 10
7.010655339664409
 20
12.11108309005709
 30
0.0
 40
0.7011550284567604
 50
278.9438009066544
 51
50.94041527110704
  0
ARC
  5
4E91
  8
1
  6
BYBLOCK
 62
     1
 10
6.625673302138056
 20
10.98418085274542
 30
0.0
 40
0.6577356180628108
 50
339.0540395346089
 51
41.31921998528054
  0
ARC
  5
4E92
  8
1
  6
BYBLOCK
 62
     1
 10
9.266513634211835
 20
9.797249593410605
 30
0.0
 40
2.238951609383023
 50
94.65615419984205
 51
154.842418080066
  0
ARC
  5
4E93
  8
1
  6
BYBLOCK
 62
     1
 10
9.406082140866932
 20
11.96854202946206
 30
0.0
 40
0.3269208479325773
 50
80.38766355728288
 51
169.3763472349982
  0
ARC
  5
4E94
  8
1
  6
BYBLOCK
 62
     1
 10
9.022512220122978
 20
11.07403636096653
 30
0.0
 40
1.293319380368863
 50
70.1970248360774
 51
105.2154341806968
  0
ARC
  5
4E95
  8
1
  6
BYBLOCK
 62
     1
 10
9.334305719535378
 20
11.92405267357928
 30
0.0
 40
0.7631974481821342
 50
104.9521131429146
 51
148.570652940415
  0
ARC
  5
4E96
  8
1
  6
BYBLOCK
 62
     1
 10
8.784522414531613
 20
10.17908643915157
 30
0.0
 40
2.507278466530212
 50
81.90944397476166
 51
99.05878167346822
  0
ARC
  5
4E97
  8
1
  6
BYBLOCK
 62
     1
 10
9.176457946198008
 20
12.35562225050767
 30
0.0
 40
0.8417721935892806
 50
119.1170729093195
 51
159.1598735637399
  0
ARC
  5
4E98
  8
1
  6
BYBLOCK
 62
     1
 10
9.825136654747304
 20
9.385574332547851
 30
0.0
 40
3.853604534316654
 50
105.9394407717034
 51
121.2900308840565
  0
ARC
  5
4E99
  8
1
  6
BYBLOCK
 62
     1
 10
8.327885611519458
 20
12.68045681569626
 30
0.0
 40
0.5042003834027573
 50
124.8170797854137
 51
180.2031572569632
  0
ARC
  5
4E9A
  8
1
  6
BYBLOCK
 62
     1
 10
8.144081862100848
 20
12.34235223002169
 30
0.0
 40
0.7592096545569902
 50
97.87900472068485
 51
155.63822894937
  0
ARC
  5
4E9B
  8
1
  6
BYBLOCK
 62
     1
 10
3.074093326312991
 20
14.50308520913652
 30
0.0
 40
1.550441368901348
 50
34.5854934311709
 51
64.11306964651506
  0
ARC
  5
4E9C
  8
1
  6
BYBLOCK
 62
     1
 10
3.096799174442968
 20
15.63263945459901
 30
0.0
 40
0.345899668530069
 50
41.70088839046751
 51
110.2266246736794
  0
ARC
  5
4E9D
  8
1
  6
BYBLOCK
 62
     1
 10
4.625381066842353
 20
13.60789011634753
 30
0.0
 40
1.189485293714655
 50
86.08525448012469
 51
113.3280503385548
  0
ARC
  5
4E9E
  8
1
  6
BYBLOCK
 62
     1
 10
3.189666626414779
 20
12.67530783954588
 30
0.0
 40
2.606233856170055
 50
54.40609813461396
 51
80.40879139273154
  0
ARC
  5
4E9F
  8
1
  6
BYBLOCK
 62
     1
 10
3.651798949545711
 20
17.07954496581002
 30
0.0
 40
1.834646187932768
 50
269.1290190941427
 51
292.3869150826374
  0
ARC
  5
4EA0
  8
1
  6
BYBLOCK
 62
     1
 10
3.940882908214792
 20
16.28986264547221
 30
0.0
 40
0.4354836246683067
 50
184.422889716715
 51
244.1508642377033
  0
ARC
  5
4EA1
  8
1
  6
BYBLOCK
 62
     1
 10
2.310963113300312
 20
12.10725425429057
 30
0.0
 40
2.779320047218394
 50
42.79066512298567
 51
70.18016828053155
  0
ARC
  5
4EA2
  8
1
  6
BYBLOCK
 62
     1
 10
3.768871799896223
 20
14.33432528035711
 30
0.0
 40
0.6450015090744943
 50
92.06389257372955
 51
143.0622470116699
  0
ARC
  5
4EA3
  8
1
  6
BYBLOCK
 62
     1
 10
4.620547345012962
 20
10.17587246643266
 30
0.0
 40
1.330306998097965
 50
121.5266113060125
 51
160.600639431011
  0
ARC
  5
4EA4
  8
1
  6
BYBLOCK
 62
     1
 10
4.648482174286727
 20
11.10675349488341
 30
0.0
 40
1.372770301679332
 50
183.7701868523714
 51
200.8687036609017
  0
ARC
  5
4EA5
  8
1
  6
BYBLOCK
 62
     1
 10
7.41831138525734
 20
9.496783127866937
 30
0.0
 40
3.935832352864651
 50
152.5709677096731
 51
202.1407444003859
  0
ARC
  5
4EA6
  8
1
  6
BYBLOCK
 62
     1
 10
2.73742184169468
 20
13.33407334405416
 30
0.0
 40
2.34921912772305
 50
68.59350060352797
 51
84.85370531183997
  0
ARC
  5
4EA7
  8
1
  6
BYBLOCK
 62
     1
 10
3.343064093408118
 20
15.35590255789834
 30
0.0
 40
0.5069857400952501
 50
88.64446670173905
 51
141.1650709144513
  0
ARC
  5
4EA8
  8
1
  6
BYBLOCK
 62
     1
 10
3.741880578376936
 20
16.53450047454289
 30
0.0
 40
1.555596654742648
 50
235.5075099046663
 51
270.138568910139
  0
ARC
  5
4EA9
  8
1
  6
BYBLOCK
 62
     1
 10
3.805059240015401
 20
13.81130732308398
 30
0.0
 40
1.722796031683671
 50
97.00863651012507
 51
123.2306297715116
  0
ARC
  5
4EAA
  8
1
  6
BYBLOCK
 62
     1
 10
2.934989837066078
 20
9.836188218251861
 30
0.0
 40
4.393410096719596
 50
71.20405464734179
 51
109.9389653881857
  0
ARC
  5
4EAB
  8
1
  6
BYBLOCK
 62
     1
 10
1.79183859330744
 20
12.35949527739043
 30
0.0
 40
0.8704484456404399
 50
82.60719819489677
 51
133.6393474938132
  0
ARC
  5
4EAC
  8
1
  6
BYBLOCK
 62
     1
 10
2.587439724098985
 20
12.11088383089207
 30
0.0
 40
1.112127931477074
 50
88.66077510608257
 51
142.621236542528
  0
ARC
  5
4EAD
  8
1
  6
BYBLOCK
 62
     1
 10
2.865558213033849
 20
12.89520396207054
 30
0.0
 40
0.4133115696079372
 50
127.5905612683616
 51
203.340528570558
  0
ARC
  5
4EAE
  8
1
  6
BYBLOCK
 62
     1
 10
3.694908772309179
 20
10.69227406438506
 30
0.0
 40
2.370556688687211
 50
82.95642339157099
 51
120.6597675281852
  0
ARC
  5
4EAF
  8
1
  6
BYBLOCK
 62
     1
 10
2.317320299246279
 20
12.7689944727191
 30
0.0
 40
0.6138581602728722
 50
132.3436786206488
 51
178.4091918070238
  0
ARC
  5
4EB0
  8
1
  6
BYBLOCK
 62
     1
 10
7.878198859311636
 20
5.06753072385225
 30
0.0
 40
8.87645323847106
 50
116.010209110895
 51
139.2727229600821
  0
ARC
  5
4EB1
  8
1
  6
BYBLOCK
 62
     1
 10
2.393684841152239
 20
9.622101120652314
 30
0.0
 40
0.5618346718238539
 50
137.8710508679447
 51
194.0564621962022
  0
ARC
  5
4EB2
  8
1
  6
BYBLOCK
 62
     1
 10
3.025330512297946
 20
10.22453542731918
 30
0.0
 40
1.072313481370153
 50
192.1425178950423
 51
227.4502688987683
  0
ARC
  5
4EB3
  8
1
  6
BYBLOCK
 62
     1
 10
5.098029190780395
 20
9.4525657183896
 30
0.0
 40
2.797886965100678
 50
158.853804215413
 51
180.3684801536479
  0
ARC
  5
4EB4
  8
1
  6
BYBLOCK
 62
     1
 10
1.296476175925998
 20
9.436054149491675
 30
0.0
 40
1.572699977029146
 50
13.62313489866128
 51
40.71398882392763
  0
ARC
  5
4EB5
  8
1
  6
BYBLOCK
 62
     1
 10
8.164774631465157
 20
8.494120236864312
 30
0.0
 40
5.498747994706861
 50
152.6956749131518
 51
166.1922346476818
  0
ARC
  5
4EB6
  8
1
  6
BYBLOCK
 62
     1
 10
7.693395123714849
 20
10.77494948005906
 30
0.0
 40
4.39800033043668
 50
279.7036851096149
 51
300.5432170458707
  0
LINE
  5
4EB7
  8
1
  6
BYBLOCK
 62
     1
 10
8.434690292649522
 20
6.439872966428043
 30
0.0
 11
8.574369878333274
 21
5.873374850850953
 31
0.0
  0
LINE
  5
4EB8
  8
1
  6
BYBLOCK
 62
     1
 10
9.743473757487333
 20
6.240152538428697
 30
0.0
 11
9.928406678328834
 21
6.987188894005195
 31
0.0
  0
LINE
  5
4EB9
  8
1
  6
BYBLOCK
 62
     1
 10
8.574369878333274
 20
5.873374850850953
 30
0.0
 11
8.390981034544403
 21
5.758756823482909
 31
0.0
  0
LINE
  5
4EBA
  8
1
  6
BYBLOCK
 62
     1
 10
8.390981034544403
 20
5.758756823482909
 30
0.0
 11
8.666064300227712
 21
4.933507026432983
 31
0.0
  0
LINE
  5
4EBB
  8
1
  6
BYBLOCK
 62
     1
 10
8.666064300227712
 20
4.933507026432983
 30
0.0
 11
8.45975185096523
 21
4.773041788117721
 31
0.0
  0
LINE
  5
4EBC
  8
1
  6
BYBLOCK
 62
     1
 10
8.45975185096523
 20
4.773041788117721
 30
0.0
 11
8.643140694754102
 21
4.108257229383058
 31
0.0
  0
LINE
  5
4EBD
  8
1
  6
BYBLOCK
 62
     1
 10
8.643140694754102
 20
4.108257229383058
 30
0.0
 11
8.45975185096523
 21
4.016562807488625
 31
0.0
  0
LINE
  5
4EBE
  8
1
  6
BYBLOCK
 62
     1
 10
8.45975185096523
 20
4.016562807488625
 30
0.0
 11
8.620217089280493
 21
3.305931037806744
 31
0.0
  0
LINE
  5
4EBF
  8
1
  6
BYBLOCK
 62
     1
 10
8.620217089280493
 20
3.305931037806744
 30
0.0
 11
8.413904640018011
 21
3.191313010438699
 31
0.0
  0
LINE
  5
4EC0
  8
1
  6
BYBLOCK
 62
     1
 10
9.147460015173499
 20
3.374701854227573
 30
0.0
 11
9.032841987805455
 21
3.558090698016442
 31
0.0
  0
LINE
  5
4EC1
  8
1
  6
BYBLOCK
 62
     1
 10
9.032841987805455
 20
3.558090698016442
 30
0.0
 11
9.422543280856807
 21
4.199951651277496
 31
0.0
  0
LINE
  5
4EC2
  8
1
  6
BYBLOCK
 62
     1
 10
9.422543280856807
 20
4.199951651277496
 30
0.0
 11
9.285001648015154
 21
4.475034916960804
 31
0.0
  0
LINE
  5
4EC3
  8
1
  6
BYBLOCK
 62
     1
 10
9.285001648015154
 20
4.475034916960804
 30
0.0
 11
9.697626546540114
 21
5.300284714010728
 31
0.0
  0
LINE
  5
4EC4
  8
1
  6
BYBLOCK
 62
     1
 10
9.697626546540114
 20
5.300284714010728
 30
0.0
 11
9.560084913698463
 21
5.369055530431555
 31
0.0
  0
LINE
  5
4EC5
  8
1
  6
BYBLOCK
 62
     1
 10
9.560084913698463
 20
5.369055530431555
 30
0.0
 11
9.881015390328988
 21
6.102610905587043
 31
0.0
  0
LINE
  5
4EC6
  8
1
  6
BYBLOCK
 62
     1
 10
9.881015390328988
 20
6.102610905587043
 30
0.0
 11
9.743473757487333
 21
6.240152538428697
 31
0.0
  0
LINE
  5
4EC7
  8
1
  6
BYBLOCK
 62
     1
 10
8.734835116648538
 20
2.686993690019299
 30
0.0
 11
9.147460015173499
 21
3.374701854227573
 31
0.0
  0
LINE
  5
4EC8
  8
1
  6
BYBLOCK
 62
     1
 10
8.413904640018011
 20
3.191313010438699
 30
0.0
 11
8.521250527641808
 21
2.478588610394957
 31
0.0
  0
LINE
  5
4EC9
  8
1
  6
BYBLOCK
 62
     1
 10
8.521250527641808
 20
2.478588610394957
 30
0.0
 11
8.346999381763876
 21
2.420504895102312
 31
0.0
  0
LINE
  5
4ECA
  8
1
  6
BYBLOCK
 62
     1
 10
8.346999381763876
 20
2.420504895102312
 30
0.0
 11
8.43412495470284
 21
1.77190340766779
 31
0.0
  0
LINE
  5
4ECB
  8
1
  6
BYBLOCK
 62
     1
 10
8.43412495470284
 20
1.77190340766779
 30
0.0
 11
8.288915666471231
 21
1.733180930806026
 31
0.0
  0
LINE
  5
4ECC
  8
1
  6
BYBLOCK
 62
     1
 10
8.288915666471231
 20
1.733180930806026
 30
0.0
 11
8.366360620194756
 21
1.17170501631047
 31
0.0
  0
LINE
  5
4ECD
  8
1
  6
BYBLOCK
 62
     1
 10
8.366360620194756
 20
1.17170501631047
 30
0.0
 11
8.627737339011654
 21
1.791264646098672
 31
0.0
  0
LINE
  5
4ECE
  8
1
  6
BYBLOCK
 62
     1
 10
8.627737339011654
 20
1.791264646098672
 30
0.0
 11
8.530931146857247
 21
2.004238268838364
 31
0.0
  0
LINE
  5
4ECF
  8
1
  6
BYBLOCK
 62
     1
 10
8.530931146857247
 20
2.004238268838364
 30
0.0
 11
8.849453144016582
 21
2.572375662651254
 31
0.0
  0
LINE
  5
4ED0
  8
1
  6
BYBLOCK
 62
     1
 10
8.849453144016582
 20
2.572375662651254
 30
0.0
 11
8.734835116648538
 21
2.686993690019299
 31
0.0
  0
ARC
  5
4ED1
  8
1
  6
BYBLOCK
 62
     1
 10
9.795349496077806
 20
7.857536292420389
 30
0.0
 40
8.911186960152538
 50
88.67115567347483
 51
95.22131285982768
  0
ARC
  5
4ED2
  8
1
  6
BYBLOCK
 62
     1
 10
7.832900451362781
 20
12.09505275937215
 30
0.0
 40
5.150322025995188
 50
36.38209926700599
 51
65.09221091524196
  0
ARC
  5
4ED3
  8
1
  6
BYBLOCK
 62
     1
 10
13.10175925832832
 20
13.04081029704168
 30
0.0
 40
2.389307946405358
 50
118.0198212216362
 51
153.667367787347
  0
ARC
  5
4ED4
  8
1
  6
BYBLOCK
 62
     1
 10
9.017339421993807
 20
13.63187818395562
 30
0.0
 40
1.998791621534138
 50
13.56417908901944
 51
85.61532575792425
  0
ARC
  5
4ED5
  8
1
  6
BYBLOCK
 62
     1
 10
9.628129466378438
 20
14.25185722160233
 30
0.0
 40
0.2065641407081941
 50
84.61875244951408
 51
240.8983287526098
  0
ARC
  5
4ED6
  8
1
  6
BYBLOCK
 62
     1
 10
9.648697276336332
 20
14.75266119033832
 30
0.0
 40
0.2951526376845967
 50
117.6586594557688
 51
269.7678841581359
  0
ARC
  5
4ED7
  8
1
  6
BYBLOCK
 62
     1
 10
8.657782894611087
 20
14.42276832946322
 30
0.0
 40
1.038657027923568
 50
34.70213855861865
 51
67.15887454020438
  0
ARC
  5
4ED8
  8
1
  6
BYBLOCK
 62
     1
 10
9.16102924217711
 20
15.48212194820188
 30
0.0
 40
0.1429891642814073
 50
86.34214705439543
 51
225.5892766267201
  0
ARC
  5
4ED9
  8
1
  6
BYBLOCK
 62
     1
 10
8.985004860658437
 20
12.86937760416659
 30
0.0
 40
1.318812277065725
 50
12.87641616992914
 51
65.70239755507154
  0
ARC
  5
4EDA
  8
1
  6
BYBLOCK
 62
     1
 10
8.401436310571949
 20
11.50397912861958
 30
0.0
 40
2.499445639710361
 50
41.59530464367526
 51
128.6418392700558
  0
ARC
  5
4EDB
  8
1
  6
BYBLOCK
 62
     1
 10
7.523036765533528
 20
13.29897185084762
 30
0.0
 40
1.683753172546699
 50
115.982830193834
 51
146.9088133351018
  0
ARC
  5
4EDC
  8
1
  6
BYBLOCK
 62
     1
 10
8.707982371541531
 20
16.1714708928513
 30
0.0
 40
0.6247550659331388
 50
15.03796657675513
 51
63.73976627603301
  0
ARC
  5
4EDD
  8
1
  6
BYBLOCK
 62
     1
 10
9.012448446798228
 20
16.63724419627845
 30
0.0
 40
0.4260937874397092
 50
241.4249726025371
 51
314.5453801449804
  0
ARC
  5
4EDE
  8
1
  6
BYBLOCK
 62
     1
 10
8.121041381176045
 20
15.71215614559755
 30
0.0
 40
0.8810696468380209
 50
14.75960317503361
 51
38.70114726628354
  0
ARC
  5
4EDF
  8
1
  6
BYBLOCK
 62
     1
 10
8.763872316212124
 20
17.41266610332722
 30
0.0
 40
1.490791630320101
 50
251.4397600216984
 51
278.0655251321454
  0
ARC
  5
4EE0
  8
1
  6
BYBLOCK
 62
     1
 10
8.073285054722829
 20
15.57644231678718
 30
0.0
 40
0.4749602523259107
 50
358.2100275191867
 51
62.94060865251544
  0
ARC
  5
4EE1
  8
1
  6
BYBLOCK
 62
     1
 10
8.299318470999294
 20
15.80990368906458
 30
0.0
 40
0.3514266861013288
 50
255.6337766797703
 51
315.0458747714445
  0
ARC
  5
4EE2
  8
1
  6
BYBLOCK
 62
     1
 10
8.209828258108127
 20
15.31038746743195
 30
0.0
 40
0.1590953374435906
 50
258.7217124068361
 51
89.17359594347099
  0
ARC
  5
4EE3
  8
1
  6
BYBLOCK
 62
     1
 10
7.775137146509496
 20
13.53846442258597
 30
0.0
 40
1.665534918529695
 50
75.9770689297843
 51
116.288898934586
  0
ARC
  5
4EE4
  8
1
  6
BYBLOCK
 62
     1
 10
7.229949288842269
 20
13.80786919791789
 30
0.0
 40
1.238909993396734
 50
65.11729477897934
 51
98.93750326860308
  0
ARC
  5
4EE5
  8
1
  6
BYBLOCK
 62
     1
 10
6.245385051737936
 20
16.93860398766044
 30
0.0
 40
2.508975554541934
 50
282.9815721605781
 51
306.88317680221
  0
ARC
  5
4EE6
  8
1
  6
BYBLOCK
 62
     1
 10
7.035719637169049
 20
13.06599450298443
 30
0.0
 40
1.445646944139031
 50
73.02349839406419
 51
99.02308129567329
  0
ARC
  5
4EE7
  8
1
  6
BYBLOCK
 62
     1
 10
9.041531331026391
 20
15.42544462626085
 30
0.0
 40
1.552283918050239
 50
88.43940833105195
 51
107.447535290129
  0
ARC
  5
4EE8
  8
1
  6
BYBLOCK
 62
     1
 10
9.226861385411178
 20
17.08748540214859
 30
0.0
 40
0.6755044755299385
 50
195.5575531767423
 51
232.9771177099453
  0
ARC
  5
4EE9
  8
1
  6
BYBLOCK
 62
     1
 10
8.338467200112223
 20
14.85544924957101
 30
0.0
 40
1.759908104808856
 50
74.1166888680427
 51
101.5611521555044
  0
ARC
  5
4EEA
  8
1
  6
BYBLOCK
 62
     1
 10
8.83970627689037
 20
17.22530135047327
 30
0.0
 40
1.070557148296087
 50
217.0920498303473
 51
244.7629585544329
  0
ARC
  5
4EEB
  8
1
  6
BYBLOCK
 62
     1
 10
7.971940639912985
 20
13.95439086189973
 30
0.0
 40
2.338986169172946
 50
79.87168149673062
 51
98.46073300103932
  0
ARC
  5
4EEC
  8
1
  6
BYBLOCK
 62
     1
 10
8.554502115745477
 20
16.76554412432546
 30
0.0
 40
1.05185612445429
 50
208.2350521829097
 51
246.0489893804084
  0
ARC
  5
4EED
  8
1
  6
BYBLOCK
 62
     1
 10
7.539108481851193
 20
14.09161467508404
 30
0.0
 40
1.810898732307385
 50
71.03961445013451
 51
116.3894484992997
  0
ARC
  5
4EEE
  8
1
  6
BYBLOCK
 62
     1
 10
7.629757768141332
 20
17.73902026954608
 30
0.0
 40
2.214381076207324
 50
246.1452178590778
 51
269.1297973094934
  0
ARC
  5
4EEF
  8
1
  6
BYBLOCK
 62
     1
 10
9.099605689092348
 20
17.09030904607794
 30
0.0
 40
0.1142539260302184
 50
110.1794769359681
 51
262.0515301966028
  0
ARC
  5
4EF0
  8
1
  6
BYBLOCK
 62
     1
 10
9.090074938267568
 20
13.9130089778777
 30
0.0
 40
3.284676636777145
 50
90.52125847206509
 51
194.1986607539853
  0
ARC
  5
4EF1
  8
1
  6
BYBLOCK
 62
     1
 10
7.927397491899354
 20
13.07829611709138
 30
0.0
 40
2.468923660073774
 50
97.71097309774451
 51
130.8321815978386
  0
ARC
  5
4EF2
  8
1
  6
BYBLOCK
 62
     1
 10
7.089534641421588
 20
13.35993237830665
 30
0.0
 40
0.9856396672948925
 50
120.8123177489604
 51
164.8922306865879
  0
ARC
  5
4EF3
  8
1
  6
BYBLOCK
 62
     1
 10
7.062704536439649
 20
12.96744568692549
 30
0.0
 40
0.77192483540344
 50
126.4266166615361
 51
215.2821166816084
  0
ARC
  5
4EF4
  8
1
  6
BYBLOCK
 62
     1
 10
6.424819732101256
 20
14.48792889806643
 30
0.0
 40
0.9171203578490053
 50
251.77305620608
 51
281.2882299183839
  0
ARC
  5
4EF5
  8
1
  6
BYBLOCK
 62
     1
 10
5.613559469202767
 20
16.27007232926268
 30
0.0
 40
2.592080975709814
 50
293.3501580934487
 51
315.3568955668875
  0
ARC
  5
4EF6
  8
1
  6
BYBLOCK
 62
     1
 10
6.368624946625351
 20
15.0164165901156
 30
0.0
 40
0.8382840823324584
 50
252.2013178130224
 51
284.9344898186484
  0
ARC
  5
4EF7
  8
1
  6
BYBLOCK
 62
     1
 10
6.719818234882396
 20
15.48148044641806
 30
0.0
 40
0.6721454174856661
 50
232.7638938681803
 51
275.5977182368193
  0
ARC
  5
4EF8
  8
1
  6
BYBLOCK
 62
     1
 10
6.674623373683482
 20
14.2086137590111
 30
0.0
 40
1.343134226406405
 50
180.1102368171045
 51
235.07851311708
  0
ARC
  5
4EF9
  8
1
  6
BYBLOCK
 62
     1
 10
5.027037549132929
 20
15.57894079716067
 30
0.0
 40
1.40626366984399
 50
246.8450583385598
 51
282.5034604119048
  0
ARC
  5
4EFA
  8
1
  6
BYBLOCK
 62
     1
 10
5.957189927218852
 20
15.34354362980288
 30
0.0
 40
1.821575170686325
 50
215.4919118676907
 51
241.1187159158436
  0
ARC
  5
4EFB
  8
1
  6
BYBLOCK
 62
     1
 10
4.512364165149117
 20
15.25223995938299
 30
0.0
 40
1.606355054109998
 50
248.7092506409606
 51
290.5934816883107
  0
ARC
  5
4EFC
  8
1
  6
BYBLOCK
 62
     1
 10
29.64407762718327
 20
-4.237507136926165
 30
0.0
 40
28.86284002824445
 50
141.1056320054677
 51
142.1912648513984
  0
ARC
  5
4EFD
  8
1
  6
BYBLOCK
 62
     1
 10
5.923143916541372
 20
11.9440829894271
 30
0.0
 40
0.7700752006521714
 50
48.58366328840769
 51
178.641178967867
  0
ARC
  5
4EFE
  8
1
  6
BYBLOCK
 62
     1
 10
4.14467865451531
 20
13.91744212293661
 30
0.0
 40
0.5775800875603617
 50
212.9932517528544
 51
297.5598207366568
  0
ARC
  5
4EFF
  8
1
  6
BYBLOCK
 62
     1
 10
4.515849808640075
 20
13.25331456181181
 30
0.0
 40
0.1842111346380083
 50
124.3496479876618
 51
222.812778551861
  0
ARC
  5
4F00
  8
1
  6
BYBLOCK
 62
     1
 10
4.746768256294605
 20
12.16229931941079
 30
0.0
 40
1.032865305758477
 50
71.53459572735795
 51
110.756929948992
  0
ARC
  5
4F01
  8
1
  6
BYBLOCK
 62
     1
 10
3.661282217414119
 20
11.86246290238118
 30
0.0
 40
0.4851307419107808
 50
193.9170551603656
 51
240.0257487348925
  0
ARC
  5
4F02
  8
1
  6
BYBLOCK
 62
     1
 10
7.160032854996119
 20
9.778753428880002
 30
0.0
 40
4.094282380859356
 50
140.3548419588841
 51
156.0280252772081
  0
ARC
  5
4F03
  8
1
  6
BYBLOCK
 62
     1
 10
0.0357032035873981
 20
11.72007779338932
 30
0.0
 40
4.027963788722238
 50
3.668612253572522
 51
9.588697845727314
  0
ARC
  5
4F04
  8
1
  6
BYBLOCK
 62
     1
 10
4.817239337482491
 20
11.65690314265219
 30
0.0
 40
0.8266561186506579
 50
82.51862421703139
 51
157.1575676692578
  0
ARC
  5
4F05
  8
1
  6
BYBLOCK
 62
     1
 10
7.10896442674644
 20
10.25987895407953
 30
0.0
 40
3.111874271269614
 50
134.5761945102297
 51
180.411479363888
  0
ARC
  5
4F06
  8
1
  6
BYBLOCK
 62
     1
 10
4.874150499220249
 20
10.38621283547192
 30
0.0
 40
0.889494500043362
 50
189.6223601145009
 51
214.5261380422675
  0
ARC
  5
4F07
  8
1
  6
BYBLOCK
 62
     1
 10
10.06175988801431
 20
9.394147288795695
 30
0.0
 40
5.94050627257777
 50
166.8266898823261
 51
175.2887766934525
  0
ARC
  5
4F08
  8
1
  6
BYBLOCK
 62
     1
 10
5.097555924196735
 20
11.05964208605109
 30
0.0
 40
0.8772132767119361
 50
200.811511877735
 51
237.5358040631533
  0
ARC
  5
4F09
  8
1
  6
BYBLOCK
 62
     1
 10
6.528954184377164
 20
10.89258585529049
 30
0.0
 40
1.986709178569714
 50
163.3962258362739
 51
196.7653652615819
  0
ARC
  5
4F0A
  8
1
  6
BYBLOCK
 62
     1
 10
14.16605926474282
 20
20.00406183117133
 30
0.0
 40
12.80727303125505
 50
221.843868390341
 51
223.6987449586691
  0
ARC
  5
4F0B
  8
1
  6
BYBLOCK
 62
     1
 10
5.562921118601627
 20
11.39612406589034
 30
0.0
 40
0.6988611371807975
 50
125.8841114624961
 51
200.1007576807597
  0
ARC
  5
4F0C
  8
1
  6
BYBLOCK
 62
     1
 10
7.411869156821362
 20
6.077846163707398
 30
0.0
 40
7.440977684273128
 50
108.3125595674878
 51
144.2493385403284
  0
ARC
  5
4F0D
  8
1
  6
BYBLOCK
 62
     1
 10
2.923305708596952
 20
10.28610683454891
 30
0.0
 40
3.612261424517854
 50
73.83301797742804
 51
115.8278219391518
  0
ARC
  5
4F0E
  8
1
  6
BYBLOCK
 62
     1
 10
1.923514152168997
 20
16.88475026386648
 30
0.0
 40
3.396072777880642
 50
260.2699810692773
 51
288.3335354788408
  0
ARC
  5
4F0F
  8
1
  6
BYBLOCK
 62
     1
 10
4.501423494318095
 20
10.85199008823051
 30
0.0
 40
2.876671204486002
 50
107.0025835092909
 51
124.4173240523315
  0
ARC
  5
4F10
  8
1
  6
BYBLOCK
 62
     1
 10
3.52529658030798
 20
13.2852853167619
 30
0.0
 40
0.652598160761204
 50
144.843723390694
 51
185.2934422530306
  0
ARC
  5
4F11
  8
1
  6
BYBLOCK
 62
     1
 10
-0.0785606836094947
 20
14.5127094305583
 30
0.0
 40
4.337505216729312
 50
289.5516768485387
 51
308.4693485934049
  0
ARC
  5
4F12
  8
1
  6
BYBLOCK
 62
     1
 10
-1.940586583428887
 20
8.978853635600652
 30
0.0
 40
5.036601544861854
 50
20.41725135774676
 51
25.11660011484248
  0
ARC
  5
4F13
  8
1
  6
BYBLOCK
 62
     1
 10
9.993453789326409
 20
8.390005805331066
 30
0.0
 40
7.585701541607676
 50
153.7440633159332
 51
161.9858872284922
  0
ARC
  5
4F14
  8
1
  6
BYBLOCK
 62
     1
 10
6.902287862400011
 20
13.04084820855018
 30
0.0
 40
0.8887342299795075
 50
71.79199001535781
 51
107.1023608928377
  0
ENDSEC
  0
EOF
