  0
SECTION
  2
HEADER
  9
$ACADVER
  1
AC1021
  9
$ACADMAINTVER
 70
     1
  9
$DWGCODEPAGE
  3
ANSI_1254
  9
$LASTSAVEDBY
  1
ACİL
  9
$INSBASE
 10
0.0
 20
0.0
 30
0.0
  9
$EXTMIN
 10
3604.48603661529
 20
-531.1531732667381
 30
0.0
  9
$EXTMAX
 10
3854.48603661529
 20
638.8468267332618
 30
0.0
  9
$LIMMIN
 10
0.0
 20
0.0
  9
$LIMMAX
 10
12.0
 20
9.0
  9
$ORTHOMODE
 70
     0
  9
$REGENMODE
 70
     1
  9
$FILLMODE
 70
     1
  9
$QTEXTMODE
 70
     0
  9
$MIRRTEXT
 70
     1
  9
$LTSCALE
 40
1.0
  9
$ATTMODE
 70
     1
  9
$TEXTSIZE
 40
0.2
  9
$TRACEWID
 40
0.05
  9
$TEXTSTYLE
  7
STANDARD
  9
$CLAYER
  8
5MM
  9
$CELTYPE
  6
ByLayer
  9
$CECOLOR
 62
     1
  9
$CELTSCALE
 40
1.0
  9
$DISPSILH
 70
     0
  9
$DIMSCALE
 40
1.0
  9
$DIMASZ
 40
0.18
  9
$DIMEXO
 40
0.0625
  9
$DIMDLI
 40
0.38
  9
$DIMRND
 40
0.0
  9
$DIMDLE
 40
0.0
  9
$DIMEXE
 40
0.18
  9
$DIMTP
 40
0.0
  9
$DIMTM
 40
0.0
  9
$DIMTXT
 40
0.18
  9
$DIMCEN
 40
0.09
  9
$DIMTSZ
 40
0.0
  9
$DIMTOL
 70
     0
  9
$DIMLIM
 70
     0
  9
$DIMTIH
 70
     1
  9
$DIMTOH
 70
     1
  9
$DIMSE1
 70
     0
  9
$DIMSE2
 70
     0
  9
$DIMTAD
 70
     0
  9
$DIMZIN
 70
     0
  9
$DIMBLK
  1

  9
$DIMASO
 70
     1
  9
$DIMSHO
 70
     1
  9
$DIMPOST
  1

  9
$DIMAPOST
  1

  9
$DIMALT
 70
     0
  9
$DIMALTD
 70
     2
  9
$DIMALTF
 40
25.4
  9
$DIMLFAC
 40
1.0
  9
$DIMTOFL
 70
     0
  9
$DIMTVP
 40
0.0
  9
$DIMTIX
 70
     0
  9
$DIMSOXD
 70
     0
  9
$DIMSAH
 70
     0
  9
$DIMBLK1
  1

  9
$DIMBLK2
  1

  9
$DIMSTYLE
  2
STANDARD
  9
$DIMCLRD
 70
     0
  9
$DIMCLRE
 70
     0
  9
$DIMCLRT
 70
     0
  9
$DIMTFAC
 40
1.0
  9
$DIMGAP
 40
0.09
  9
$DIMJUST
 70
     0
  9
$DIMSD1
 70
     0
  9
$DIMSD2
 70
     0
  9
$DIMTOLJ
 70
     1
  9
$DIMTZIN
 70
     0
  9
$DIMALTZ
 70
     0
  9
$DIMALTTZ
 70
     0
  9
$DIMUPT
 70
     0
  9
$DIMDEC
 70
     4
  9
$DIMTDEC
 70
     4
  9
$DIMALTU
 70
     2
  9
$DIMALTTD
 70
     2
  9
$DIMTXSTY
  7
STANDARD
  9
$DIMAUNIT
 70
     0
  9
$DIMADEC
 70
     0
  9
$DIMALTRND
 40
0.0
  9
$DIMAZIN
 70
     0
  9
$DIMDSEP
 70
    46
  9
$DIMATFIT
 70
     3
  9
$DIMFRAC
 70
     0
  9
$DIMLDRBLK
  1

  9
$DIMLUNIT
 70
     2
  9
$DIMLWD
 70
    -2
  9
$DIMLWE
 70
    -2
  9
$DIMTMOVE
 70
     0
  9
$DIMFXL
 40
1.0
  9
$DIMFXLON
 70
     0
  9
$DIMJOGANG
 40
0.7853981633974483
  9
$DIMTFILL
 70
     0
  9
$DIMTFILLCLR
 70
     0
  9
$DIMARCSYM
 70
     0
  9
$DIMLTYPE
  6

  9
$DIMLTEX1
  6

  9
$DIMLTEX2
  6

  9
$LUNITS
 70
     2
  9
$LUPREC
 70
     4
  9
$SKETCHINC
 40
0.1
  9
$FILLETRAD
 40
0.5
  9
$AUNITS
 70
     0
  9
$AUPREC
 70
     0
  9
$MENU
  1
.
  9
$ELEVATION
 40
0.0
  9
$PELEVATION
 40
0.0
  9
$THICKNESS
 40
0.0
  9
$LIMCHECK
 70
     0
  9
$CHAMFERA
 40
0.0
  9
$CHAMFERB
 40
0.0
  9
$CHAMFERC
 40
0.0
  9
$CHAMFERD
 40
0.0
  9
$SKPOLY
 70
     0
  9
$TDCREATE
 40
2454910.458333334
  9
$TDUCREATE
 40
2454910.375000000
  9
$TDUPDATE
 40
2458157.804285556
  9
$TDUUPDATE
 40
2458157.720952222
  9
$TDINDWG
 40
0.0160884144
  9
$TDUSRTIMER
 40
0.0160880208
  9
$USRTIMER
 70
     1
  9
$ANGBASE
 50
0.0
  9
$ANGDIR
 70
     0
  9
$PDMODE
 70
     0
  9
$PDSIZE
 40
0.0
  9
$PLINEWID
 40
0.0
  9
$SPLFRAME
 70
     0
  9
$SPLINETYPE
 70
     6
  9
$SPLINESEGS
 70
     8
  9
$HANDSEED
  5
4CD3
  9
$SURFTAB1
 70
     6
  9
$SURFTAB2
 70
     6
  9
$SURFTYPE
 70
     6
  9
$SURFU
 70
     6
  9
$SURFV
 70
     6
  9
$UCSBASE
  2

  9
$UCSNAME
  2

  9
$UCSORG
 10
0.0
 20
0.0
 30
0.0
  9
$UCSXDIR
 10
1.0
 20
0.0
 30
0.0
  9
$UCSYDIR
 10
0.0
 20
1.0
 30
0.0
  9
$UCSORTHOREF
  2

  9
$UCSORTHOVIEW
 70
     0
  9
$UCSORGTOP
 10
0.0
 20
0.0
 30
0.0
  9
$UCSORGBOTTOM
 10
0.0
 20
0.0
 30
0.0
  9
$UCSORGLEFT
 10
0.0
 20
0.0
 30
0.0
  9
$UCSORGRIGHT
 10
0.0
 20
0.0
 30
0.0
  9
$UCSORGFRONT
 10
0.0
 20
0.0
 30
0.0
  9
$UCSORGBACK
 10
0.0
 20
0.0
 30
0.0
  9
$PUCSBASE
  2

  9
$PUCSNAME
  2

  9
$PUCSORG
 10
0.0
 20
0.0
 30
0.0
  9
$PUCSXDIR
 10
1.0
 20
0.0
 30
0.0
  9
$PUCSYDIR
 10
0.0
 20
1.0
 30
0.0
  9
$PUCSORTHOREF
  2

  9
$PUCSORTHOVIEW
 70
     0
  9
$PUCSORGTOP
 10
0.0
 20
0.0
 30
0.0
  9
$PUCSORGBOTTOM
 10
0.0
 20
0.0
 30
0.0
  9
$PUCSORGLEFT
 10
0.0
 20
0.0
 30
0.0
  9
$PUCSORGRIGHT
 10
0.0
 20
0.0
 30
0.0
  9
$PUCSORGFRONT
 10
0.0
 20
0.0
 30
0.0
  9
$PUCSORGBACK
 10
0.0
 20
0.0
 30
0.0
  9
$USERI1
 70
     0
  9
$USERI2
 70
     0
  9
$USERI3
 70
     0
  9
$USERI4
 70
     0
  9
$USERI5
 70
     0
  9
$USERR1
 40
0.0
  9
$USERR2
 40
0.0
  9
$USERR3
 40
0.0
  9
$USERR4
 40
0.0
  9
$USERR5
 40
0.0
  9
$WORLDVIEW
 70
     1
  9
$SHADEDGE
 70
     3
  9
$SHADEDIF
 70
    70
  9
$TILEMODE
 70
     1
  9
$MAXACTVP
 70
    64
  9
$PINSBASE
 10
0.0
 20
0.0
 30
0.0
  9
$PLIMCHECK
 70
     0
  9
$PEXTMIN
 10
1.000000000000000E+20
 20
1.000000000000000E+20
 30
1.000000000000000E+20
  9
$PEXTMAX
 10
-1.000000000000000E+20
 20
-1.000000000000000E+20
 30
-1.000000000000000E+20
  9
$PLIMMIN
 10
0.0
 20
0.0
  9
$PLIMMAX
 10
12.0
 20
9.0
  9
$UNITMODE
 70
     0
  9
$VISRETAIN
 70
     1
  9
$PLINEGEN
 70
     0
  9
$PSLTSCALE
 70
     1
  9
$TREEDEPTH
 70
  3020
  9
$CMLSTYLE
  2
Standard
  9
$CMLJUST
 70
     0
  9
$CMLSCALE
 40
1.0
  9
$PROXYGRAPHICS
 70
     1
  9
$MEASUREMENT
 70
     0
  9
$CELWEIGHT
370
    -1
  9
$ENDCAPS
280
     0
  9
$JOINSTYLE
280
     0
  9
$LWDISPLAY
290
     0
  9
$INSUNITS
 70
     0
  9
$HYPERLINKBASE
  1

  9
$STYLESHEET
  1

  9
$XEDIT
290
     1
  9
$CEPSNTYPE
380
     0
  9
$PSTYLEMODE
290
     1
  9
$FINGERPRINTGUID
  2
{7724768C-142B-497A-B6B7-D4095B3C0D04}
  9
$VERSIONGUID
  2
{E813AD90-6F87-43AF-B6B6-65D7A01F40F2}
  9
$EXTNAMES
290
     1
  9
$PSVPSCALE
 40
0.0
  9
$OLESTARTUP
290
     0
  9
$SORTENTS
280
   127
  9
$INDEXCTL
280
     0
  9
$HIDETEXT
280
     0
  9
$XCLIPFRAME
290
     0
  9
$HALOGAP
280
     0
  9
$OBSCOLOR
 70
   257
  9
$OBSLTYPE
280
     0
  9
$INTERSECTIONDISPLAY
280
     0
  9
$INTERSECTIONCOLOR
 70
   257
  9
$DIMASSOC
280
     1
  9
$PROJECTNAME
  1

  9
$CAMERADISPLAY
290
     0
  9
$LENSLENGTH
 40
50.0
  9
$CAMERAHEIGHT
 40
0.0
  9
$STEPSPERSEC
 40
2.0
  9
$STEPSIZE
 40
6.0
  9
$3DDWFPREC
 40
2.0
  9
$PSOLWIDTH
 40
0.25
  9
$PSOLHEIGHT
 40
4.0
  9
$LOFTANG1
 40
1.570796326794896
  9
$LOFTANG2
 40
1.570796326794896
  9
$LOFTMAG1
 40
0.0
  9
$LOFTMAG2
 40
0.0
  9
$LOFTPARAM
 70
     7
  9
$LOFTNORMALS
280
     1
  9
$LATITUDE
 40
37.795
  9
$LONGITUDE
 40
-122.394
  9
$NORTHDIRECTION
 40
0.0
  9
$TIMEZONE
 70
 -8000
  9
$LIGHTGLYPHDISPLAY
280
     1
  9
$TILEMODELIGHTSYNCH
280
     1
  9
$CMATERIAL
347
4B47
  9
$SOLIDHIST
280
     1
  9
$SHOWHIST
280
     1
  9
$DWFFRAME
280
     2
  9
$DGNFRAME
280
     0
  9
$REALWORLDSCALE
290
     1
  9
$INTERFERECOLOR
 62
     1
  9
$INTERFEREOBJVS
345
4B54
  9
$INTERFEREVPVS
346
4B51
  9
$CSHADOW
280
     0
  9
$SHADOWPLANELOCATION
 40
0.0
  0
ENDSEC
  0
SECTION
  2
CLASSES
  0
CLASS
  1
ACDBDICTIONARYWDFLT
  2
AcDbDictionaryWithDefault
  3
ObjectDBX Classes
 90
        0
 91
        1
280
     0
281
     0
  0
CLASS
  1
MATERIAL
  2
AcDbMaterial
  3
ObjectDBX Classes
 90
     1024
 91
        3
280
     0
281
     0
  0
CLASS
  1
VISUALSTYLE
  2
AcDbVisualStyle
  3
ObjectDBX Classes
 90
     4095
 91
       16
280
     0
281
     0
  0
CLASS
  1
TABLESTYLE
  2
AcDbTableStyle
  3
ObjectDBX Classes
 90
     4095
 91
        1
280
     0
281
     0
  0
CLASS
  1
SORTENTSTABLE
  2
AcDbSortentsTable
  3
ObjectDBX Classes
 90
        0
 91
        1
280
     0
281
     0
  0
CLASS
  1
DICTIONARYVAR
  2
AcDbDictionaryVar
  3
ObjectDBX Classes
 90
        0
 91
        1
280
     0
281
     0
  0
ENDSEC
  0
SECTION
  2
TABLES
  0
TABLE
  2
VPORT
  5
4B3E
330
0
100
AcDbSymbolTable
 70
     1
  0
VPORT
  5
4B70
330
4B3E
100
AcDbSymbolTableRecord
100
AcDbViewportTableRecord
  2
*ACTIVE
 70
     0
 10
0.0
 20
0.0
 11
1.0
 21
1.0
 12
3888.800824324207
 22
-163.4475751245393
 13
0.0
 23
0.0
 14
0.5
 24
0.5
 15
0.5
 25
0.5
 16
0.0
 26
0.0
 36
1.0
 17
0.0
 27
0.0
 37
0.0
 40
1807.173395318721
 41
2.581488933601609
 42
50.0
 43
0.0
 44
0.0
 50
0.0
 51
0.0
 71
     0
 72
   100
 73
     1
 74
     3
 75
     0
 76
     0
 77
     0
 78
     0
281
     0
 65
     1
110
0.0
120
0.0
130
0.0
111
1.0
121
0.0
131
0.0
112
0.0
122
1.0
132
0.0
 79
     0
146
0.0
348
4B50
 60
     3
 61
     5
292
     1
282
     0
141
0.0
142
0.0
 63
   250
421
  3355443
  0
ENDTAB
  0
TABLE
  2
LTYPE
  5
4B3B
330
0
100
AcDbSymbolTable
 70
     2
  0
LTYPE
  5
4B5E
330
4B3B
100
AcDbSymbolTableRecord
100
AcDbLinetypeTableRecord
  2
ByBlock
 70
     0
  3

 72
    65
 73
     0
 40
0.0
  0
LTYPE
  5
4B5F
330
4B3B
100
AcDbSymbolTableRecord
100
AcDbLinetypeTableRecord
  2
ByLayer
 70
     0
  3

 72
    65
 73
     0
 40
0.0
  0
LTYPE
  5
4B60
330
4B3B
100
AcDbSymbolTableRecord
100
AcDbLinetypeTableRecord
  2
CONTINUOUS
 70
     0
  3
Solid line
 72
    65
 73
     0
 40
0.0
  0
LTYPE
  5
4B71
330
4B3B
100
AcDbSymbolTableRecord
100
AcDbLinetypeTableRecord
  2
CONTINUOUS2
 70
     0
  3
Solid Line
 72
    65
 73
     0
 40
0.0
  0
ENDTAB
  0
TABLE
  2
LAYER
  5
4B38
330
0
100
AcDbSymbolTable
 70
     4
  0
LAYER
  5
4B5B
330
4B38
100
AcDbSymbolTableRecord
100
AcDbLayerTableRecord
  2
0
 70
     0
 62
     7
  6
CONTINUOUS
370
    -3
390
4B45
347
4B49
  0
LAYER
  5
4B72
330
4B38
100
AcDbSymbolTableRecord
100
AcDbLayerTableRecord
  2
5MM
 70
     0
 62
    18
  6
CONTINUOUS
370
    -3
390
4B45
347
4B49
  0
LAYER
  5
4B73
330
4B38
100
AcDbSymbolTableRecord
100
AcDbLayerTableRecord
  2
2MM
 70
     0
 62
    18
  6
CONTINUOUS
370
    -3
390
4B45
347
4B49
  0
LAYER
  5
4B74
330
4B38
100
AcDbSymbolTableRecord
100
AcDbLayerTableRecord
  2
KESIM
 70
     0
 62
    18
  6
CONTINUOUS
370
    -3
390
4B45
347
4B49
  0
ENDTAB
  0
TABLE
  2
STYLE
  5
4B39
330
0
100
AcDbSymbolTable
 70
     1
  0
STYLE
  5
4B5C
330
4B39
100
AcDbSymbolTableRecord
100
AcDbTextStyleTableRecord
  2
STANDARD
 70
     0
 40
0.0
 41
1.0
 50
0.0
 71
     0
 42
0.2
  3
txt
  4

  0
ENDTAB
  0
TABLE
  2
VIEW
  5
4B3C
330
0
100
AcDbSymbolTable
 70
     0
  0
ENDTAB
  0
TABLE
  2
UCS
  5
4B3D
330
0
100
AcDbSymbolTable
 70
     0
  0
ENDTAB
  0
TABLE
  2
APPID
  5
4B3F
330
0
100
AcDbSymbolTable
 70
     2
  0
APPID
  5
4B5D
330
4B3F
100
AcDbSymbolTableRecord
100
AcDbRegAppTableRecord
  2
ACAD
 70
     0
  0
APPID
  5
4BE0
330
4B3F
100
AcDbSymbolTableRecord
100
AcDbRegAppTableRecord
  2
ACAD_EXEMPT_FROM_CAD_STANDARDS
 70
     0
  0
ENDTAB
  0
TABLE
  2
DIMSTYLE
  5
4B40
330
0
100
AcDbSymbolTable
 70
     1
100
AcDbDimStyleTable
 71
     1
340
4B75
  0
DIMSTYLE
105
4B75
330
4B40
100
AcDbSymbolTableRecord
100
AcDbDimStyleTableRecord
  2
STANDARD
 70
     0
279
     2
340
4B5C
  0
ENDTAB
  0
TABLE
  2
BLOCK_RECORD
  5
4B37
330
0
100
AcDbSymbolTable
 70
     2
  0
BLOCK_RECORD
  5
4B6C
102
{ACAD_XDICTIONARY
360
4B7E
102
}
330
4B37
100
AcDbSymbolTableRecord
100
AcDbBlockTableRecord
  2
*Model_Space
340
4B6F
 70
     0
280
     1
281
     0
  0
BLOCK_RECORD
  5
4B68
330
4B37
100
AcDbSymbolTableRecord
100
AcDbBlockTableRecord
  2
*Paper_Space
340
4B6B
 70
     0
280
     1
281
     0
  0
BLOCK_RECORD
  5
4B77
330
4B37
100
AcDbSymbolTableRecord
100
AcDbBlockTableRecord
  2
$MODEL_SPACE
340
0
 70
     0
280
     1
281
     0
  0
BLOCK_RECORD
  5
4B79
330
4B37
100
AcDbSymbolTableRecord
100
AcDbBlockTableRecord
  2
$PAPER_SPACE
340
0
 70
     0
280
     1
281
     0
  0
ENDTAB
  0
ENDSEC
  0
SECTION
  2
BLOCKS
  0
BLOCK
  5
4B6D
330
4B6C
100
AcDbEntity
  8
0
100
AcDbBlockBegin
  2
*Model_Space
 70
     0
 10
0.0
 20
0.0
 30
0.0
  3
*Model_Space
  1

  0
ENDBLK
  5
4B6E
330
4B6C
100
AcDbEntity
  8
0
100
AcDbBlockEnd
  0
BLOCK
  5
4B69
330
4B68
100
AcDbEntity
 67
     1
  8
0
100
AcDbBlockBegin
  2
*Paper_Space
 70
     0
 10
0.0
 20
0.0
 30
0.0
  3
*Paper_Space
  1

  0
ENDBLK
  5
4B6A
330
4B68
100
AcDbEntity
 67
     1
  8
0
100
AcDbBlockEnd
  0
BLOCK
  5
4B78
330
4B77
100
AcDbEntity
  8
0
100
AcDbBlockBegin
  2
$MODEL_SPACE
 70
     0
 10
0.0
 20
0.0
 30
0.0
  3
$MODEL_SPACE
  1

  0
ENDBLK
  5
21
330
4B77
100
AcDbEntity
  8
0
100
AcDbBlockEnd
  0
BLOCK
  5
4B7A
330
4B79
100
AcDbEntity
  8
0
100
AcDbBlockBegin
  2
$PAPER_SPACE
 70
     0
 10
0.0
 20
0.0
 30
0.0
  3
$PAPER_SPACE
  1

  0
ENDBLK
  5
1D
330
4B79
100
AcDbEntity
  8
0
100
AcDbBlockEnd
  0
ENDSEC
  0
SECTION
  2
ENTITIES
  0
LWPOLYLINE
  5
4BF3
330
4B6C
100
AcDbEntity
  8
5MM
 62
     0
100
AcDbPolyline
 90
      401
 70
     0
 43
0.0
 10
3682.503121329206
 20
399.71689450936
 10
3681.692630271656
 20
401.4184525261215
 10
3680.820233385084
 20
403.2993856398812
 10
3679.968442449145
 20
405.1863657741511
 10
3679.137273404696
 20
407.0792579488386
 10
3678.326742192593
 20
408.977927183851
 10
3677.536864753692
 20
410.8822384990959
 10
3676.767657028849
 20
412.7920569144812
 10
3676.01913495892
 20
414.7072474499142
 10
3675.291314484762
 20
416.6276751253024
 10
3674.584211547231
 20
418.5532049605533
 10
3673.897842087182
 20
420.4837019755748
 10
3673.232222045475
 20
422.4190311902743
 10
3672.587367362961
 20
424.3590576245593
 10
3671.9632939805
 20
426.3036462983367
 10
3671.360017838946
 20
428.2526622315154
 10
3670.777554879157
 20
430.2059704440019
 10
3670.215921041989
 20
432.1634359557041
 10
3669.675132268297
 20
434.1249237865296
 10
3669.155204498938
 20
436.0902989563859
 10
3668.656153674767
 20
438.0594264851804
 10
3668.177995736643
 20
440.0321713928211
 10
3667.720746625419
 20
442.0083986992153
 10
3667.284422281954
 20
443.9879734242708
 10
3666.869038647102
 20
445.9707605878939
 10
3666.47461166172
 20
447.9566252099941
 10
3666.101157266665
 20
449.9454323104778
 10
3665.748691402793
 20
451.9370469092526
 10
3665.417230010958
 20
453.9313340262265
 10
3665.10678903202
 20
455.9281586813064
 10
3664.817384406832
 20
457.9273858944005
 10
3664.549032076251
 20
459.9288806854159
 10
3664.301747981135
 20
461.9325080742605
 10
3664.075548062339
 20
463.9381330808413
 10
3663.870448260718
 20
465.9456207250668
 10
3663.686464517129
 20
467.9548360268438
 10
3663.52361277243
 20
469.9656440060801
 10
3663.381908967475
 20
471.9779096826833
 10
3663.26136904312
 20
473.9914980765605
 10
3663.162008940223
 20
476.00627420762
 10
3663.08384459964
 20
478.0221030957688
 10
3663.026891962226
 20
480.0388497609146
 10
3662.991166968838
 20
482.0563792229652
 10
3662.976685560332
 20
484.0745565018278
 10
3662.983463677563
 20
486.0932466174103
 10
3663.01151726139
 20
488.1123145896197
 10
3663.060862252667
 20
490.1316254383643
 10
3663.131514592251
 20
492.151044183551
 10
3663.223490220998
 20
494.1704358450878
 10
3663.336805079764
 20
496.1896654428823
 10
3663.471475109407
 20
498.2085979968413
 10
3663.62751625078
 20
500.2270985268737
 10
3663.804944444743
 20
502.2450320528853
 10
3664.003775632148
 20
504.2622635947853
 10
3664.224025753855
 20
506.27865817248
 10
3664.465710750718
 20
508.2940808058777
 10
3664.728846563593
 20
510.3083965148863
 10
3665.013449133339
 20
512.3214703194125
 10
3665.319534400808
 20
514.3331672393639
 10
3665.64711830686
 20
516.3433522946489
 10
3665.996216792349
 20
518.3518905051739
 10
3666.366845798132
 20
520.3586468908472
 10
3666.759021265066
 20
522.3634864715766
 10
3667.172759134005
 20
524.366274267269
 10
3667.608075345807
 20
526.3668752978321
 10
3667.7677856027
 20
527.1522391570573
 10
3667.951673767389
 20
527.9269956257555
 10
3668.15930024004
 20
528.6909294016274
 10
3668.390225420818
 20
529.4438251823729
 10
3668.644009709884
 20
530.1854676656934
 10
3668.920213507406
 20
530.9156415492879
 10
3669.218397213546
 20
531.6341315308577
 10
3669.53812122847
 20
532.3407223081025
 10
3669.87894595234
 20
533.035198578723
 10
3670.240431785322
 20
533.7173450404199
 10
3670.622139127579
 20
534.3869463908928
 10
3671.023628379277
 20
535.0437873278423
 10
3671.444459940579
 20
535.6876525489686
 10
3671.88419421165
 20
536.3183267519723
 10
3672.342391592654
 20
536.9355946345538
 10
3672.818612483754
 20
537.5392408944128
 10
3673.312417285116
 20
538.1290502292505
 10
3673.823366396904
 20
538.7048073367668
 10
3674.351020219282
 20
539.2662969146623
 10
3674.894939152415
 20
539.8133036606368
 10
3675.454683596465
 20
540.3456122723913
 10
3676.029813951598
 20
540.8630074476254
 10
3676.619890617979
 20
541.3652738840397
 10
3677.224473995771
 20
541.8521962793348
 10
3677.843124485138
 20
542.3235593312109
 10
3678.475402486246
 20
542.7791477373683
 10
3679.120868399258
 20
543.2187461955073
 10
3679.779082624337
 20
543.6421394033283
 10
3680.44960556165
 20
544.0491120585314
 10
3681.13199761136
 20
544.4394488588177
 10
3681.825819173631
 20
544.8129345018864
 10
3682.530630648628
 20
545.1693536854389
 10
3683.245992436514
 20
545.5084911071749
 10
3683.971464937455
 20
545.830131464795
 10
3684.706608551613
 20
546.1340594559993
 10
3685.450983679156
 20
546.420059778488
 10
3686.204150720244
 20
546.687917129962
 10
3686.965670075044
 20
546.9374162081211
 10
3687.735102143719
 20
547.1683417106661
 10
3688.512007326433
 20
547.3804783352967
 10
3689.295946023353
 20
547.5736107797136
 10
3690.08647863464
 20
547.7475237416178
 10
3690.88316556046
 20
547.9020019187087
 10
3691.685567200977
 20
548.0368300086865
 10
3692.493243956354
 20
548.1517927092524
 10
3693.305756226758
 20
548.2466747181064
 10
3694.122664412351
 20
548.3212607329483
 10
3694.943528913297
 20
548.3753354514791
 10
3695.767910129762
 20
548.4086835713992
 10
3696.59536846191
 20
548.4210897904079
 10
3697.425464309904
 20
548.4123388062071
 10
3698.25775807391
 20
548.3822153164959
 10
3699.09181015409
 20
548.330504018975
 10
3699.927180950612
 20
548.256989611345
 10
3700.763430863634
 20
548.1614567913058
 10
3701.600120293328
 20
548.0436902565577
 10
3702.436809639852
 20
547.9034747048017
 10
3703.273059303374
 20
547.7405948337375
 10
3704.108429684055
 20
547.5548353410657
 10
3704.942481182064
 20
547.3459809244866
 10
3705.774774197561
 20
547.1138162817007
 10
3706.604869130712
 20
546.858126110408
 10
3707.432326381681
 20
546.5786951083088
 10
3708.256706350631
 20
546.2753079731039
 10
3709.161011352601
 20
545.4976952046459
 10
3710.042942914206
 20
544.7030433843309
 10
3710.902285391194
 20
543.8917554427364
 10
3711.738823139311
 20
543.0642343104413
 10
3712.552340514302
 20
542.2208829180232
 10
3713.342621871912
 20
541.3621041960599
 10
3714.109451567889
 20
540.4883010751304
 10
3714.852613957979
 20
539.5998764858124
 10
3715.571893397925
 20
538.6972333586839
 10
3716.267074243476
 20
537.7807746243226
 10
3716.937940850375
 20
536.8509032133072
 10
3717.584277574371
 20
535.9080220562155
 10
3718.205868771207
 20
534.9525340836263
 10
3718.802498796631
 20
533.9848422261166
 10
3719.373952006387
 20
533.0053494142654
 10
3719.920012756223
 20
532.0144585786504
 10
3720.440465401883
 20
531.0125726498498
 10
3720.935094299114
 20
530.0000945584416
 10
3721.403683803661
 20
528.977427235004
 10
3721.846018271271
 20
527.9449736101154
 10
3722.261882057689
 20
526.9031366143533
 10
3722.651059518661
 20
525.8523191782964
 10
3723.013335009933
 20
524.7929242325226
 10
3723.348492887251
 20
523.7253547076099
 10
3723.656317506361
 20
522.6500135341365
 10
3723.936593223008
 20
521.5673036426806
 10
3724.189104392939
 20
520.4776279638202
 10
3724.413635371898
 20
519.3813894281329
 10
3724.609970515633
 20
518.2789909661978
 10
3724.77789417989
 20
517.1708355085924
 10
3724.917190720413
 20
516.0573259858948
 10
3725.027644492949
 20
514.9388653286835
 10
3725.004982740991
 20
513.6438936088389
 10
3724.955030949744
 20
512.3503477985479
 10
3724.877849545633
 20
511.0585692600822
 10
3724.773498955083
 20
509.7688993557155
 10
3724.642039604517
 20
508.4816794477204
 10
3724.483531920359
 20
507.1972508983698
 10
3724.298036329036
 20
505.9159550699363
 10
3724.085613256968
 20
504.6381333246928
 10
3723.846323130583
 20
503.3641270249122
 10
3723.580226376304
 20
502.0942775328667
 10
3723.287383420554
 20
500.8289262108299
 10
3722.967854689758
 20
499.5684144210738
 10
3722.621700610341
 20
498.3130835258722
 10
3722.248981608728
 20
497.0632748874969
 10
3721.84975811134
 20
495.8193298682219
 10
3721.424090544604
 20
494.5815898303184
 10
3721.935854972449
 20
494.8989702772589
 10
3722.453418367363
 20
495.2035554259608
 10
3722.976534858526
 20
495.4953756092897
 10
3723.504958575118
 20
495.7744611601106
 10
3724.038443646318
 20
496.0408424112898
 10
3724.576744201305
 20
496.2945496956918
 10
3725.119614369256
 20
496.5356133461831
 10
3725.666808279353
 20
496.7640636956294
 10
3726.218080060772
 20
496.9799310768946
 10
3726.773183842695
 20
497.1832458228464
 10
3727.331873754299
 20
497.3740382663487
 10
3727.893903924763
 20
497.5523387402671
 10
3728.459028483268
 20
497.7181775774684
 10
3729.027001558991
 20
497.8715851108165
 10
3729.597577281112
 20
498.0125916731784
 10
3730.17050977881
 20
498.1412275974188
 10
3730.745553181262
 20
498.257523216403
 10
3731.322461617651
 20
498.3615088629972
 10
3731.900989217152
 20
498.4532148700666
 10
3732.480890108946
 20
498.5326715704765
 10
3733.061918422212
 20
498.5999092970927
 10
3733.64382828613
 20
498.6549583827808
 10
3734.226373829877
 20
498.6978491604063
 10
3734.809309182633
 20
498.7286119628342
 10
3735.392388473577
 20
498.7472771229304
 10
3735.975365831888
 20
498.7538749735608
 10
3736.557995386745
 20
498.7484358475905
 10
3737.140031267327
 20
498.7309900778852
 10
3737.721227602813
 20
498.7015679973101
 10
3738.301338522382
 20
498.6601999387309
 10
3738.880118155212
 20
498.6069162350133
 10
3739.457320630484
 20
498.5417472190223
 10
3740.032700077376
 20
498.4647232236243
 10
3740.606010625068
 20
498.3758745816843
 10
3741.177006402737
 20
498.2752316260675
 10
3741.745441539563
 20
498.1628246896401
 10
3742.311070164726
 20
498.038684105267
 10
3742.873646407404
 20
497.902840205814
 10
3743.432924396777
 20
497.7553233241468
 10
3743.988658262022
 20
497.5961637931305
 10
3744.54060213232
 20
497.4253919456312
 10
3745.088510136849
 20
497.2430381145142
 10
3745.632136404788
 20
497.0491326326447
 10
3746.171235065317
 20
496.8437058328882
 10
3746.705560247614
 20
496.6267880481105
 10
3747.234866080858
 20
496.3984096111773
 10
3747.75890669423
 20
496.1586008549538
 10
3748.277436216906
 20
495.9073921123058
 10
3748.790208778066
 20
495.6448137160984
 10
3749.29697850689
 20
495.3708959991972
 10
3749.797499532557
 20
495.0856692944682
 10
3750.291525984246
 20
494.7891639347768
 10
3750.778811991135
 20
494.4814102529882
 10
3751.259111682403
 20
494.1624385819678
 10
3751.73217918723
 20
493.8322792545814
 10
3752.197768634795
 20
493.4909626036947
 10
3752.655634154276
 20
493.1385189621728
 10
3753.105529874852
 20
492.7749786628814
 10
3753.547209925705
 20
492.4003720386862
 10
3753.980428436009
 20
492.0147294224526
 10
3754.404939534948
 20
491.6180811470463
 10
3754.820497351697
 20
491.2104575453323
 10
3755.226856015438
 20
490.7918889501768
 10
3755.623769655348
 20
490.3624056944444
 10
3756.225993485256
 20
489.9311033796532
 10
3756.801211256441
 20
489.4862051536791
 10
3757.349596507061
 20
489.0283113730977
 10
3757.871322775282
 20
488.5580223944844
 10
3758.366563599267
 20
488.0759385744134
 10
3758.835492517178
 20
487.5826602694604
 10
3759.27828306718
 20
487.0787878362003
 10
3759.695108787433
 20
486.5649216312081
 10
3760.086143216102
 20
486.0416620110592
 10
3760.451559891349
 20
485.5096093323282
 10
3760.79153235134
 20
484.9693639515906
 10
3761.106234134233
 20
484.4215262254212
 10
3761.395838778194
 20
483.8666965103948
 10
3761.660519821385
 20
483.3054751630872
 10
3761.900450801971
 20
482.7384625400728
 10
3762.115805258113
 20
482.1662589979271
 10
3762.306756727975
 20
481.5894648932249
 10
3762.473478749719
 20
481.0086805825413
 10
3762.616144861509
 20
480.4245064224518
 10
3762.734928601507
 20
479.8375427695307
 10
3762.830003507877
 20
479.2483899803539
 10
3762.901543118781
 20
478.6576484114959
 10
3762.949720972383
 20
478.0659184195318
 10
3762.974710606845
 20
477.473800361037
 10
3762.976685560332
 20
476.8818945925868
 10
3762.955819371004
 20
476.2908014707553
 10
3762.912285577026
 20
475.7011213521182
 10
3762.846257716561
 20
475.1134545932504
 10
3762.757909327771
 20
474.5284015507272
 10
3762.647413948819
 20
473.9465625811237
 10
3762.51494511787
 20
473.3685380410145
 10
3762.360676373085
 20
472.7949282869754
 10
3762.184781252628
 20
472.2263336755808
 10
3761.987433294661
 20
471.6633545634064
 10
3761.768806037347
 20
471.1065913070264
 10
3761.529073018851
 20
470.5566442630168
 10
3761.268407777334
 20
470.0141137879518
 10
3760.986983850959
 20
469.4796002384072
 10
3760.68497477789
 20
468.9537039709579
 10
3760.36255409629
 20
468.4370253421787
 10
3760.019895344322
 20
467.9301647086448
 10
3759.657172060148
 20
467.4337224269318
 10
3759.274557781931
 20
466.9482988536137
 10
3758.872226047835
 20
466.4744943452664
 10
3758.450350396022
 20
466.0129092584647
 10
3758.009104364656
 20
465.5641439497833
 10
3757.5486614919
 20
465.1287987757986
 10
3757.069195315917
 20
464.7074740930843
 10
3756.570879374868
 20
464.3007702582157
 10
3756.05388720692
 20
463.9092876277682
 10
3755.518392350231
 20
463.5336265583163
 10
3754.964568342968
 20
463.1743874064362
 10
3754.392588723293
 20
462.8321705287024
 10
3753.802627029368
 20
462.5075762816893
 10
3753.194856799356
 20
462.2012050219727
 10
3752.569451571421
 20
461.9136571061276
 10
3751.926584883726
 20
461.645532890729
 10
3751.266430274434
 20
461.3974327323518
 10
3750.589161281707
 20
461.1699569875716
 10
3749.894951443709
 20
460.9637060129629
 10
3749.183974298602
 20
460.7792801651008
 10
3748.45640338455
 20
460.6172798005608
 10
3747.712412239715
 20
460.4783052759178
 10
3746.952174402262
 20
460.3629569477468
 10
3746.317919422388
 20
460.0830205349043
 10
3745.688796463877
 20
459.795935704292
 10
3745.064863968909
 20
459.5017649189923
 10
3744.446180379665
 20
459.2005706420883
 10
3743.832804138327
 20
458.8924153366632
 10
3743.224793687079
 20
458.5773614657989
 10
3742.622207468099
 20
458.2554714925792
 10
3742.025103923572
 20
457.9268078800863
 10
3741.433541495677
 20
457.5914330914037
 10
3740.847578626597
 20
457.2494095896138
 10
3740.267273758513
 20
456.9007998377996
 10
3739.692685333608
 20
456.5456662990437
 10
3739.123871794062
 20
456.1840714364298
 10
3738.560891582057
 20
455.81607771304
 10
3738.003803139776
 20
455.4417475919574
 10
3737.4526649094
 20
455.0611435362649
 10
3736.907535333109
 20
454.6743280090455
 10
3736.368472853087
 20
454.2813634733817
 10
3735.835535911515
 20
453.8823123923565
 10
3735.308782950574
 20
453.4772372290533
 10
3734.788272412446
 20
453.0662004465539
 10
3734.274062739313
 20
452.6492645079423
 10
3733.766212373357
 20
452.2264918763003
 10
3733.264779756757
 20
451.7979450147119
 10
3732.769823331699
 20
451.3636863862593
 10
3732.281401540361
 20
450.9237784540253
 10
3731.799572824927
 20
450.478283681093
 10
3731.324395627576
 20
450.0272645305454
 10
3730.855928390493
 20
449.5707834654648
 10
3730.394229555859
 20
449.1089029489343
 10
3729.939357565853
 20
448.6416854440372
 10
3729.491370862658
 20
448.1691934138567
 10
3729.050327888457
 20
447.6914893214742
 10
3728.616287085432
 20
447.2086356299736
 10
3728.189306895761
 20
446.7206948024378
 10
3727.769445761629
 20
446.2277293019492
 10
3727.356762125217
 20
445.7298015915913
 10
3726.951314428706
 20
445.2269741344463
 10
3726.553161114278
 20
444.7193093935973
 10
3726.162360624114
 20
444.2068698321278
 10
3725.778971400398
 20
443.6897179131197
 10
3725.40305188531
 20
443.1679160996564
 10
3725.034660521031
 20
442.6415268548208
 10
3724.673855749743
 20
442.1106126416948
 10
3724.320696013629
 20
441.5752359233631
 10
3723.975239754869
 20
441.0354591629069
 10
3723.637545415645
 20
440.4913448234099
 10
3723.307671438141
 20
439.9429553679549
 10
3722.985676264534
 20
439.3903532596249
 10
3722.67161833701
 20
438.8336009615024
 10
3722.365556097749
 20
438.2727609366704
 10
3722.067547988932
 20
437.7078956482119
 10
3721.777652452742
 20
437.139067559209
 10
3721.495927931361
 20
436.5663391327458
 10
3721.222432866968
 20
435.9897728319046
 10
3720.957225701746
 20
435.409431119768
 10
3720.700364877878
 20
434.8253764594192
 10
3720.451908837545
 20
434.2376713139414
 10
3720.211916022928
 20
433.6463781464165
 10
3719.98044487621
 20
433.0515594199283
 10
3719.757553839571
 20
432.4532775975592
 10
3719.543301355191
 20
431.8515951423921
 10
3719.337745865257
 20
431.2465745175101
 10
3719.140945811947
 20
430.6382781859959
 10
3718.739495793704
 20
429.5225016492799
 10
3718.359047125636
 20
428.4021025859267
 10
3717.999614871187
 20
427.2773165673062
 10
3717.661214093798
 20
426.1483791647872
 10
3717.343859856913
 20
425.0155259497394
 10
3717.047567223977
 20
423.8789924935315
 10
3716.772351258431
 20
422.7390143675327
 10
3716.518227023721
 20
421.5958271431124
 10
3716.285209583289
 20
420.4496663916398
 10
3716.073314000578
 20
419.3007676844838
 10
3715.882555339032
 20
418.1493665930137
 10
3715.712948662095
 20
416.9956986885989
 10
3715.564509033209
 20
415.8399995426083
 10
3715.437251515818
 20
414.6825047264107
 10
3715.331191173367
 20
413.5234498113765
 10
3715.246343069296
 20
412.3630703688738
 10
3715.182722267051
 20
411.2016019702722
 10
3715.140343830076
 20
410.0392801869405
 10
3715.119222821812
 20
408.8763405902488
 10
3715.119374305704
 20
407.7130187515648
 10
3715.140813345195
 20
406.5495502422591
 10
3715.183555003728
 20
405.3861706336999
 10
3715.247614344747
 20
404.2231154972569
 10
3715.333006431695
 20
403.0606204042993
 10
3715.439746328016
 20
401.8989209261962
 10
3715.567849097153
 20
400.7382526343163
 10
3715.717329802548
 20
399.5788511000295
 10
3715.888203507648
 20
398.4209518947049
 10
3716.080485275893
 20
397.2647905897109
 10
3716.294190170727
 20
396.1106027564174
 10
3716.529333255595
 20
394.9586239661928
 10
3716.883869747812
 20
393.3703245500902
  0
LWPOLYLINE
  5
4BF4
330
4B6C
100
AcDbEntity
  8
5MM
 62
     0
100
AcDbPolyline
 90
      440
 70
     0
 43
0.0
 10
3697.305961078012
 20
232.8309345465068
 10
3695.034397462651
 20
236.1994926681013
 10
3694.34550605661
 20
237.2349894442041
 10
3692.989686280952
 20
239.3150931265744
 10
3691.66318906348
 20
241.4071396726874
 10
3690.366060615742
 20
243.5108843107709
 10
3689.098347149285
 20
245.6260822690532
 10
3687.860094875659
 20
247.752488775762
 10
3686.651350006409
 20
249.8898590591258
 10
3685.472158753082
 20
252.0379483473723
 10
3684.322567327229
 20
254.19651186873
 10
3683.202621940395
 20
256.3653048514266
 10
3682.112368804127
 20
258.54408252369
 10
3681.051854129975
 20
260.7326001137488
 10
3680.021124129485
 20
262.9306128498301
 10
3679.020225014205
 20
265.1378759601632
 10
3678.049202995683
 20
267.3541446729756
 10
3677.108104285466
 20
269.5791742164949
 10
3676.196975095101
 20
271.8127198189498
 10
3675.315861636137
 20
274.0545367085676
 10
3674.464810120122
 20
276.3043801135773
 10
3673.6438667586
 20
278.5620052622064
 10
3672.853077763123
 20
280.8271673826823
 10
3672.092489345236
 20
283.0996217032344
 10
3671.362147716487
 20
285.3791234520902
 10
3670.662099088424
 20
287.6654278574774
 10
3669.992389672595
 20
289.9582901476243
 10
3669.353065680547
 20
292.2574655507593
 10
3668.744173323827
 20
294.5627092951101
 10
3668.165758813984
 20
296.8737766089045
 10
3667.617868362564
 20
299.1904227203711
 10
3667.100548181116
 20
301.5124028577373
 10
3666.613844481187
 20
303.8394722492319
 10
3666.157803474325
 20
306.1713861230825
 10
3665.732471372076
 20
308.5078997075174
 10
3665.337894385991
 20
310.8487682307639
 10
3664.974118727613
 20
313.193746921051
 10
3664.641190608494
 20
315.5425910066063
 10
3664.339156240178
 20
317.8950557156578
 10
3664.068061834214
 20
320.250896276434
 10
3663.827953602151
 20
322.6098679171623
 10
3663.618877755535
 20
324.9717258660713
 10
3663.440880505913
 20
327.3362253513889
 10
3663.294008064834
 20
329.7031216013428
 10
3663.178306643845
 20
332.0721698441614
 10
3663.093822454494
 20
334.4431253080727
 10
3663.040601708329
 20
336.8157432213048
 10
3663.018690616896
 20
339.1897788120861
 10
3663.028135391743
 20
341.5649873086433
 10
3663.068982244419
 20
343.9411239392058
 10
3663.141277386471
 20
346.3179439320017
 10
3663.245067029445
 20
348.6952025152581
 10
3663.380397384891
 20
351.0726549172035
 10
3663.547314664355
 20
353.4500563660659
 10
3663.745865079385
 20
355.8271620900739
 10
3663.857017153845
 20
357.0155275640784
 10
3663.976094841528
 20
358.2037273174549
 10
3664.103103918876
 20
359.3917307537315
 10
3664.238050162333
 20
360.579507276437
 10
3664.380939348342
 20
361.7670262891
 10
3664.531777253347
 20
362.9542571952484
 10
3664.69056965379
 20
364.1411693984111
 10
3664.857322326116
 20
365.3277323021172
 10
3665.032041046769
 20
366.5139153098944
 10
3665.21473159219
 20
367.6996878252712
 10
3665.405399738825
 20
368.8850192517771
 10
3665.604051263116
 20
370.0698789929387
 10
3665.810691941506
 20
371.2542364522864
 10
3666.025327550441
 20
372.4380610333478
 10
3666.247963866361
 20
373.6213221396514
 10
3666.478606665712
 20
374.8039891747264
 10
3666.717261724937
 20
375.9860315421007
 10
3666.963934820478
 20
377.1674186453028
 10
3667.21863172878
 20
378.3481198878614
 10
3667.481358226286
 20
379.528104673305
 10
3667.752120089439
 20
380.7073424051613
 10
3668.030923094683
 20
381.8858024869602
 10
3668.115125279122
 20
382.3257188240357
 10
3668.20801125689
 20
382.7630135364989
 10
3668.309504109444
 20
383.1976097932111
 10
3668.419526918239
 20
383.6294307630342
 10
3668.538002764732
 20
384.0583996148291
 10
3668.66485473038
 20
384.4844395174573
 10
3668.800005896639
 20
384.9074736397803
 10
3668.943379344967
 20
385.3274251506598
 10
3669.094898156819
 20
385.7442172189566
 10
3669.254485413653
 20
386.1577730135324
 10
3669.422064196923
 20
386.5680157032484
 10
3669.597557588089
 20
386.9748684569664
 10
3669.780888668605
 20
387.3782544435477
 10
3669.971980519929
 20
387.7780968318532
 10
3670.170756223516
 20
388.1743187907448
 10
3670.377138860825
 20
388.5668434890839
 10
3670.591051513309
 20
388.9555940957318
 10
3670.812417262429
 20
389.3404937795499
 10
3671.041159189638
 20
389.7214657093993
 10
3671.277200376394
 20
390.0984330541419
 10
3671.520463904154
 20
390.4713189826381
 10
3671.770872854374
 20
390.8400466637511
 10
3672.028350308509
 20
391.2045392663408
 10
3672.292819348019
 20
391.5647199592688
 10
3672.564203054358
 20
391.9205119113974
 10
3672.842424508983
 20
392.2718382915867
 10
3673.127406793351
 20
392.6186222686989
 10
3673.419072988919
 20
392.9607870115955
 10
3673.717346177142
 20
393.298255689138
 10
3674.022149439478
 20
393.6309514701866
 10
3674.333405857384
 20
393.9587975236038
 10
3674.651038512315
 20
394.281717018251
 10
3674.974970485728
 20
394.5996331229892
 10
3675.30512485908
 20
394.9124690066801
 10
3675.641424713828
 20
395.2201478381846
 10
3675.983793131428
 20
395.5225927863647
 10
3676.332153193336
 20
395.8197270200818
 10
3676.686427981009
 20
396.1114737081964
 10
3677.046540575904
 20
396.3977560195711
 10
3677.412414059477
 20
396.6784971230666
 10
3677.783971513186
 20
396.9536201875444
 10
3678.161136018486
 20
397.2230483818655
 10
3678.543830656833
 20
397.4867048748923
 10
3678.931978509685
 20
397.7445128354854
 10
3679.325502658499
 20
397.9963954325065
 10
3679.72432618473
 20
398.2422758348172
 10
3680.128372169835
 20
398.4820772112781
 10
3680.537563695271
 20
398.7157227307516
 10
3680.951823842494
 20
398.9431355620981
 10
3681.371075692962
 20
399.1642388741799
 10
3681.795242328131
 20
399.3789558358578
 10
3682.224246829456
 20
399.5872096159936
 10
3682.658012278395
 20
399.7889233834486
 10
3683.096461756405
 20
399.9840203070844
 10
3683.539518344941
 20
400.1724235557618
 10
3683.98710512546
 20
400.3540562983422
 10
3684.43914517942
 20
400.5288417036876
 10
3684.895561588276
 20
400.6967029406588
 10
3685.356277433486
 20
400.8575631781183
 10
3685.821215796505
 20
401.0113455849258
 10
3686.29029975879
 20
401.1579733299442
 10
3686.763452401799
 20
401.2973695820342
 10
3687.240596806987
 20
401.4294575100574
 10
3687.72165605581
 20
401.5541602828749
 10
3688.212840729573
 20
401.6588420360386
 10
3688.704780292904
 20
401.7558052917257
 10
3689.197375098397
 20
401.8450768407063
 10
3689.690525498652
 20
401.9266834737518
 10
3690.184131846265
 20
402.0006519816331
 10
3690.678094493833
 20
402.0670091551206
 10
3691.172313793955
 20
402.1257817849856
 10
3691.666690099226
 20
402.1769966619983
 10
3692.655515135607
 20
402.2568603205514
 10
3693.643772423755
 20
402.3068144569458
 10
3694.630664784447
 20
402.3270733973488
 10
3695.61539503846
 20
402.3178514679258
 10
3696.597166006573
 20
402.2793629948439
 10
3697.575180509563
 20
402.2118223042694
 10
3698.548641368209
 20
402.1154437223688
 10
3699.516751403287
 20
401.9904415753085
 10
3700.478713435575
 20
401.8370301892542
 10
3701.433730285852
 20
401.6554238903734
 10
3702.381004774895
 20
401.4458370048319
 10
3703.319739723482
 20
401.2084838587964
 10
3704.24913795239
 20
400.9435787784327
 10
3705.168402282397
 20
400.6513360899083
 10
3706.076735534281
 20
400.3319701193889
 10
3706.973340528821
 20
399.9856951930408
 10
3707.857420086792
 20
399.6127256370306
 10
3708.728177028973
 20
399.213275777525
 10
3709.584814176143
 20
398.7875599406903
 10
3710.426534349078
 20
398.3357924526929
 10
3711.252540368557
 20
397.8581876396988
 10
3711.659401452243
 20
397.6097632132552
 10
3712.062035055357
 20
397.3549598278749
 10
3712.460341530495
 20
397.0938042743289
 10
3712.854221230255
 20
396.8263233433873
 10
3713.243574507234
 20
396.5525438258219
 10
3713.628301714031
 20
396.2724925124028
 10
3714.00830320324
 20
395.9861961939014
 10
3714.38347932746
 20
395.6936816610883
 10
3714.753730439289
 20
395.3949757047333
 10
3715.118956891322
 20
395.0901051156084
 10
3715.479059036157
 20
394.7790966844838
 10
3715.833937226393
 20
394.4619772021309
 10
3716.183491814626
 20
394.13877345932
 10
3716.527623153452
 20
393.8095122468224
 10
3716.99374981473
 20
393.2348622768478
 10
3717.448436076818
 20
392.6548225318544
 10
3717.891663445486
 20
392.0695231970885
 10
3718.323413426499
 20
391.4790944577968
 10
3718.743667525628
 20
390.8836664992264
 10
3719.152407248639
 20
390.2833695066235
 10
3719.549614101302
 20
389.678333665235
 10
3719.935269589384
 20
389.0686891603079
 10
3720.309355218654
 20
388.4545661770883
 10
3720.671852494878
 20
387.8360949008237
 10
3721.022742923827
 20
387.2134055167601
 10
3721.362008011268
 20
386.5866282101444
 10
3721.689629262968
 20
385.955893166224
 10
3722.005588184697
 20
385.3213305702444
 10
3722.309866282222
 20
384.6830706074534
 10
3722.602445061311
 20
384.0412434630972
 10
3722.883306027732
 20
383.3959793224224
 10
3723.152430687255
 20
382.747408370676
 10
3723.409800545646
 20
382.0956607931046
 10
3723.655397108674
 20
381.4408667749549
 10
3723.889201882105
 20
380.7831565014734
 10
3724.111196371712
 20
380.1226601579072
 10
3724.321362083259
 20
379.4595079295034
 10
3724.519680522515
 20
378.7938300015075
 10
3724.706133195249
 20
378.125756559167
 10
3724.880701607228
 20
377.4554177877286
 10
3725.043367264221
 20
376.7829438724386
 10
3725.194111671996
 20
376.1084649985446
 10
3725.332916336321
 20
375.4321113512924
 10
3725.459762762965
 20
374.7540131159289
 10
3725.574632457694
 20
374.0743004777014
 10
3725.677506926278
 20
373.3931036218558
 10
3725.768367674484
 20
372.7105527336393
 10
3725.847196208081
 20
372.0267779982981
 10
3725.913974032836
 20
371.3419096010799
 10
3725.968682654519
 20
370.6560777272303
 10
3726.011303578895
 20
369.969412561997
 10
3726.041818311735
 20
369.2820442906259
 10
3726.060208358808
 20
368.5941030983646
 10
3726.066455225879
 20
367.9057191704585
 10
3726.060540418718
 20
367.217022692156
 10
3726.042445443091
 20
366.5281438487024
 10
3726.01215180477
 20
365.8392128253448
 10
3725.96964100952
 20
365.1503598073299
 10
3725.914894563109
 20
364.4617149799048
 10
3725.847893971308
 20
363.7734085283161
 10
3725.768620739882
 20
363.0855706378099
 10
3725.6770563746
 20
362.398331493634
 10
3725.573182381232
 20
361.7118212810339
 10
3725.456980265543
 20
361.026170185257
 10
3725.328431533304
 20
360.3415083915499
 10
3725.187517690282
 20
359.6579660851596
 10
3725.034220242245
 20
358.9756734513322
 10
3724.86852069496
 20
358.2947606753154
 10
3724.690400554197
 20
357.6153579423543
 10
3724.499841325723
 20
356.9375954376973
 10
3724.296824515307
 20
356.2616033465903
 10
3724.081331628717
 20
355.5875118542798
 10
3723.85334417172
 20
354.9154511460129
 10
3723.612843650085
 20
354.2455514070362
 10
3723.359811569582
 20
353.5779428225962
 10
3723.094229435975
 20
352.9127555779404
 10
3722.816078755034
 20
352.2501198583146
 10
3722.525341032529
 20
351.5901658489662
 10
3723.529605924501
 20
351.8585491327261
 10
3724.538772994829
 20
352.1022533041429
 10
3725.552303885369
 20
352.3213352480738
 10
3726.569660237975
 20
352.5158518493764
 10
3727.590303694504
 20
352.6858599929079
 10
3728.613695896811
 20
352.8314165635255
 10
3729.639298486752
 20
352.9525784460876
 10
3730.666573106185
 20
353.0494025254509
 10
3731.694981396962
 20
353.1219456864726
 10
3732.723985000941
 20
353.1702648140106
 10
3733.753045559979
 20
353.1944167929221
 10
3734.781624715928
 20
353.1944585080647
 10
3735.809184110646
 20
353.1704468442956
 10
3736.83518538599
 20
353.1224386864729
 10
3737.859090183814
 20
353.0504909194529
 10
3738.880360145973
 20
352.954660428094
 10
3739.898456914326
 20
352.8350040972534
 10
3740.912842130725
 20
352.6915788117879
 10
3741.922977437029
 20
352.5244414565558
 10
3742.928324475091
 20
352.3336489164136
 10
3743.928344886768
 20
352.1192580762198
 10
3744.922500313917
 20
351.8813258208305
 10
3745.910252398391
 20
351.6199090351046
 10
3746.891062782049
 20
351.3350646038988
 10
3747.864393106744
 20
351.0268494120703
 10
3748.829705014334
 20
350.6953203444771
 10
3749.786460146673
 20
350.3405342859762
 10
3750.734120145617
 20
349.962548121425
 10
3751.672146653022
 20
349.5614187356808
 10
3752.600001310745
 20
349.1372030136017
 10
3753.517145760639
 20
348.6899578400447
 10
3754.423041644564
 20
348.2197400998674
 10
3755.062207345042
 20
347.7501371928951
 10
3755.675864121879
 20
347.2667932025273
 10
3756.264111738242
 20
346.7702558777147
 10
3756.827049957292
 20
346.2610729674083
 10
3757.364778542197
 20
345.7397922205588
 10
3757.877397256121
 20
345.2069613861174
 10
3758.365005862228
 20
344.6631282130353
 10
3758.827704123684
 20
344.1088404502631
 10
3759.265591803654
 20
343.5446458467517
 10
3759.678768665302
 20
342.9710921514528
 10
3760.067334471794
 20
342.3887271133167
 10
3760.431388986293
 20
341.7980984812944
 10
3760.771031971966
 20
341.1997540043369
 10
3761.086363191977
 20
340.5942414313954
 10
3761.37748240949
 20
339.9821085114206
 10
3761.64448938767
 20
339.3639029933637
 10
3761.887483889684
 20
338.7401726261755
 10
3762.106565678697
 20
338.1114651588071
 10
3762.30183451787
 20
337.478328340209
 10
3762.473390170371
 20
336.8413099193332
 10
3762.621332399365
 20
336.2009576451299
 10
3762.745760968016
 20
335.5578192665502
 10
3762.846775639488
 20
334.9124425325447
 10
3762.924476176947
 20
334.2653751920649
 10
3762.978962343558
 20
333.617164994062
 10
3763.010333902486
 20
332.9683596874859
 10
3763.018690616896
 20
332.3195070212886
 10
3763.004132249951
 20
331.6711547444208
 10
3762.966758564818
 20
331.0238506058333
 10
3762.906669324662
 20
330.3781423544774
 10
3762.823964292647
 20
329.7345777393033
 10
3762.718743231937
 20
329.0937045092628
 10
3762.591105905698
 20
328.4560704133063
 10
3762.441152077095
 20
327.8222232003853
 10
3762.268981509294
 20
327.1927106194504
 10
3762.074693965456
 20
326.5680804194527
 10
3761.85838920875
 20
325.9488803493431
 10
3761.620167002339
 20
325.3356581580726
 10
3761.360127109388
 20
324.7289615945923
 10
3761.078369293063
 20
324.1293384078527
 10
3760.774993316527
 20
323.5373363468054
 10
3760.450098942946
 20
322.9535031604011
 10
3760.103785935485
 20
322.3783865975907
 10
3759.736154057308
 20
321.8125344073253
 10
3759.347303071582
 20
321.256494338556
 10
3758.937332741469
 20
320.7108141402332
 10
3758.506342830137
 20
320.1760415613084
 10
3758.054433100748
 20
319.6527243507318
 10
3757.581703316468
 20
319.1414102574557
 10
3757.088253240461
 20
318.6426470304299
 10
3756.574182635894
 20
318.1569824186058
 10
3756.039591265932
 20
317.6849641709349
 10
3755.484578893737
 20
317.227140036367
 10
3754.909245282476
 20
316.784057763854
 10
3754.313690195314
 20
316.3562651023465
 10
3753.698013395414
 20
315.9443098007957
 10
3753.062314645943
 20
315.5487396081519
 10
3752.406693710065
 20
315.1701022733673
 10
3751.731250350946
 20
314.8089455453916
 10
3751.036084331749
 20
314.465817173177
 10
3750.32129541564
 20
314.1412649056732
 10
3749.586983365783
 20
313.8358364918315
 10
3748.833247945344
 20
313.5500796806036
 10
3748.060188917487
 20
313.2845422209398
 10
3747.217974362043
 20
313.0431737627092
 10
3746.38511438269
 20
312.7866765786432
 10
3745.561768369193
 20
312.5152596553038
 10
3744.748095711326
 20
312.2291319792531
 10
3743.944255798854
 20
311.9285025370527
 10
3743.150408021548
 20
311.6135803152647
 10
3742.366711769176
 20
311.2845743004513
 10
3741.593326431507
 20
310.9416934791738
 10
3740.83041139831
 20
310.5851468379946
 10
3740.078126059355
 20
310.2151433634755
 10
3739.33662980441
 20
309.8318920421783
 10
3738.606082023244
 20
309.4356018606651
 10
3737.886642105627
 20
309.026481805498
 10
3737.178469441327
 20
308.6047408632379
 10
3736.481723420114
 20
308.1705880204481
 10
3735.796563431755
 20
307.7242322636901
 10
3735.123148866021
 20
307.2658825795253
 10
3734.461639112679
 20
306.7957479545158
 10
3733.8121935615
 20
306.3140373752242
 10
3733.174971602251
 20
305.8209598282118
 10
3732.550132624703
 20
305.3167243000398
 10
3731.937836018624
 20
304.8015397772721
 10
3731.338241173784
 20
304.2756152464689
 10
3730.751507479948
 20
303.7391596941925
 10
3730.177794326891
 20
303.1923821070053
 10
3729.617261104378
 20
302.6354914714689
 10
3729.070067202179
 20
302.0686967741454
 10
3728.536372010063
 20
301.4922070015964
 10
3728.016334917798
 20
300.906231140384
 10
3727.510115315154
 20
300.3109781770699
 10
3727.0178725919
 20
299.7066570982164
 10
3726.539766137806
 20
299.0934768903853
 10
3726.075955342639
 20
298.4716465401385
 10
3725.626599596168
 20
297.8413750340378
 10
3725.191858288165
 20
297.2028713586453
 10
3724.771890808395
 20
296.5563445005236
 10
3724.366856546629
 20
295.9020034462326
 10
3723.976914892636
 20
295.2400571823363
 10
3723.602225236184
 20
294.5707146953956
 10
3723.242946967042
 20
293.8941849719723
 10
3722.899239474981
 20
293.2106769986292
 10
3722.571262149769
 20
292.5203997619277
 10
3722.259174381174
 20
291.8235622484294
 10
3721.963135558965
 20
291.1203734446965
 10
3721.683305072912
 20
290.4110423372914
 10
3721.419842312784
 20
289.6957779127748
 10
3721.17290666835
 20
288.9747891577101
 10
3720.942657529377
 20
288.2482850586583
 10
3720.729254285635
 20
287.5164746021815
 10
3720.532856326895
 20
286.7795667748413
 10
3720.353623042925
 20
286.0377705632005
 10
3720.191713823491
 20
285.2912949538205
 10
3720.047288058366
 20
284.5403489332626
 10
3719.920505137318
 20
283.7851414880901
 10
3719.811524450113
 20
283.025881604864
 10
3719.720505386525
 20
282.262778270146
 10
3719.647607336319
 20
281.4960404704991
 10
3719.592989689264
 20
280.7258771924838
 10
3719.556811835133
 20
279.9524974226631
 10
3719.53923316369
 20
279.1761101475985
 10
3719.540413064707
 20
278.3969243538518
 10
3719.560510927953
 20
277.6151490279857
 10
3719.599686143194
 20
276.8309931565611
 10
3719.658098100203
 20
276.0446657261403
 10
3719.665293630728
 20
274.8581043518193
 10
3719.70188651146
 20
273.6741967871169
 10
3719.767715262241
 20
272.4933426474663
 10
3719.862618402913
 20
271.3159415483007
 10
3719.986434453319
 20
270.1423931050534
 10
3720.139001933301
 20
268.9730969331577
 10
3720.320159362702
 20
267.8084526480469
 10
3720.529745261364
 20
266.6488598651541
 10
3720.767598149129
 20
265.4947181999129
 10
3721.03355654584
 20
264.3464272677558
 10
3721.327458971339
 20
263.2043866841161
 10
3721.649143945468
 20
262.068996064428
 10
3721.99844998807
 20
260.9406550241241
 10
3722.375215618987
 20
259.8197631786372
 10
3722.779279358061
 20
258.7067201434013
 10
3723.210479725135
 20
257.6019255338493
 10
3723.668655240051
 20
256.5057789654143
 10
3724.153644422653
 20
255.4186800535293
 10
3724.66528579278
 20
254.3410284136281
 10
3725.203417870277
 20
253.273223661144
 10
3725.767879174985
 20
252.2156654115099
 10
3726.358508226748
 20
251.1687532801588
 10
3726.975143545406
 20
250.1328868825244
 10
3727.617623650803
 20
249.1084658340398
 10
3728.285787062781
 20
248.095889750138
 10
3728.979472301182
 20
247.0955582462523
 10
3729.69851788585
 20
246.1078709378163
 10
3730.442762336624
 20
245.1332274402623
 10
3731.21204417335
 20
244.1720273690248
 10
3732.006201915869
 20
243.2246703395362
 10
3732.825074084022
 20
242.2915559672302
 10
3732.888058197257
 20
242.2229676008235
  0
LWPOLYLINE
  5
4BF6
330
4B6C
100
AcDbEntity
  8
5MM
 62
     0
100
AcDbPolyline
 90
      181
 70
     0
 43
0.0
 10
3740.193226609932
 20
310.2690330806894
 10
3740.415533706157
 20
310.6955149972419
 10
3740.618028553954
 20
311.1233942988146
 10
3740.800969772206
 20
311.5523681319785
 10
3740.964615979791
 20
311.9821336433058
 10
3741.10922579559
 20
312.4123879793684
 10
3741.235057838486
 20
312.8428282867391
 10
3741.342370727355
 20
313.2731517119883
 10
3741.431423081081
 20
313.7030554016885
 10
3741.502473518543
 20
314.1322365024119
 10
3741.555780658622
 20
314.56039216073
 10
3741.591603120197
 20
314.9872195232144
 10
3741.61019952215
 20
315.4124157364375
 10
3741.611828483361
 20
315.8356779469715
 10
3741.59674862271
 20
316.256703301387
 10
3741.56521855908
 20
316.6751889462573
 10
3741.517496911348
 20
317.0908320281535
 10
3741.453842298394
 20
317.5033296936475
 10
3741.374513339102
 20
317.9123790893117
 10
3741.27976865235
 20
318.3176773617172
 10
3741.16986685702
 20
318.7189216574366
 10
3741.04506657199
 20
319.1158091230414
 10
3740.905626416143
 20
319.5080369051037
 10
3740.751805008358
 20
319.8953021501949
 10
3740.583860967515
 20
320.2773020048869
 10
3740.402052912497
 20
320.6537336157526
 10
3740.206639462182
 20
321.0242941293628
 10
3739.99787923545
 20
321.3886806922901
 10
3739.776030851183
 20
321.7465904511058
 10
3739.541352928262
 20
322.0977205523819
 10
3739.294104085565
 20
322.4417681426903
 10
3739.034542941974
 20
322.7784303686034
 10
3738.76292811637
 20
323.1074043766923
 10
3738.479518227633
 20
323.4283873135289
 10
3738.184571894642
 20
323.7410763256863
 10
3737.87834773628
 20
324.045168559735
 10
3737.561104371425
 20
324.3403611622477
 10
3737.233100418959
 20
324.6263512797956
 10
3736.894594497761
 20
324.9028360589507
 10
3736.545845226713
 20
325.1695126462854
 10
3736.187111224695
 20
325.4260781883713
 10
3735.818651110587
 20
325.6722298317805
 10
3735.44072350327
 20
325.9076647230844
 10
3735.053587021623
 20
326.1320800088553
 10
3734.657500284529
 20
326.3451728356648
 10
3734.252721910866
 20
326.5466403500846
 10
3733.839510519516
 20
326.7361796986875
 10
3733.418124729359
 20
326.9134880280443
 10
3732.988823159275
 20
327.0782624847275
 10
3732.551864428145
 20
327.2302002153089
 10
3732.107507154848
 20
327.3689983663602
 10
3731.656009958266
 20
327.4943540844533
 10
3731.19763145728
 20
327.6059645161603
 10
3730.732630270769
 20
327.7035268080529
 10
3730.261265017614
 20
327.7867381067029
 10
3729.783794316695
 20
327.8552955586824
 10
3729.300476786892
 20
327.9088963105629
 10
3728.811571047089
 20
327.9472375089174
 10
3728.317335716161
 20
327.9700163003162
 10
3727.818029412992
 20
327.9769298313321
 10
3727.313910756461
 20
327.9676752485366
 10
3726.805238365449
 20
327.9419496985024
 10
3726.292270858838
 20
327.8994503278003
 10
3725.775266855506
 20
327.8398742830028
 10
3725.254484974334
 20
327.7629187106819
 10
3724.839229591848
 20
327.7174458771991
 10
3724.426728782411
 20
327.6643334892404
 10
3724.017075426587
 20
327.6036624478109
 10
3723.610362404935
 20
327.5355136539175
 10
3723.206682598018
 20
327.4599680085673
 10
3722.806128886399
 20
327.3771064127665
 10
3722.408794150637
 20
327.2870097675217
 10
3722.014771271296
 20
327.1897589738394
 10
3721.624153128938
 20
327.0854349327259
 10
3721.237032604123
 20
326.9741185451883
 10
3720.853502577415
 20
326.8558907122325
 10
3720.473655929374
 20
326.7308323348657
 10
3720.097585540563
 20
326.5990243140941
 10
3719.725384291544
 20
326.4605475509239
 10
3718.992960735126
 20
326.1639114014148
 10
3718.277128304616
 20
325.8415710943914
 10
3717.578630044509
 20
325.4941738379056
 10
3716.898208999297
 20
325.1223668400099
 10
3716.236608213478
 20
324.7267973087569
 10
3715.594570731545
 20
324.3081124521979
 10
3714.972839597993
 20
323.8669594783861
 10
3714.372157857315
 20
323.4039855953738
 10
3713.793268554008
 20
322.919838011213
 10
3713.236914732566
 20
322.4151639339561
 10
3712.703839437483
 20
321.8906105716554
 10
3712.194785713253
 20
321.3468251323633
 10
3711.949499141613
 20
321.0679226363621
 10
3711.710496604373
 20
320.7844548241326
 10
3711.477870982093
 20
320.4965025966809
 10
3711.251715155335
 20
320.2041468550143
 10
3711.032122004662
 20
319.9074685001393
 10
3710.819184410635
 20
319.6065484330618
 10
3710.612995253816
 20
319.3014675547893
 10
3710.413647414767
 20
318.9923067663274
 10
3710.22123377405
 20
318.6791469686833
 10
3710.035847212226
 20
318.3620690628633
 10
3709.857580609858
 20
318.0411539498738
 10
3709.686526847508
 20
317.7164825307216
 10
3709.522778805736
 20
317.388135706413
 10
3709.366429365104
 20
317.0561943779544
 10
3709.217571406176
 20
316.7207394463531
 10
3709.076297809513
 20
316.3818518126146
 10
3708.942701455675
 20
316.0396123777465
 10
3708.816875225226
 20
315.6941020427544
 10
3708.698911998727
 20
315.3454017086454
 10
3708.588904656739
 20
314.9935922764258
 10
3708.486946079825
 20
314.6387546471024
 10
3708.393129148548
 20
314.2809697216813
 10
3708.307546743467
 20
313.9203184011693
 10
3708.230291745145
 20
313.5568815865734
 10
3708.161457034144
 20
313.1907401788987
 10
3708.101135491027
 20
312.821975079154
 10
3707.937814276125
 20
311.7160511273226
 10
3707.786669610968
 20
310.6095918344333
 10
3707.647686573168
 20
309.5026732750369
 10
3707.520850240335
 20
308.3953715236838
 10
3707.406145690082
 20
307.2877626549258
 10
3707.303558000019
 20
306.1799227433129
 10
3707.213072247759
 20
305.0719278633957
 10
3707.134673510911
 20
303.9638540897255
 10
3707.068346867089
 20
302.8557774968529
 10
3707.014077393903
 20
301.7477741593285
 10
3706.971850168965
 20
300.6399201517033
 10
3706.941650269886
 20
299.5322915485289
 10
3706.923462774277
 20
298.4249644243551
 10
3706.917272759751
 20
297.3180148537325
 10
3706.923065303917
 20
296.2115189112129
 10
3706.940825484389
 20
295.1055526713459
 10
3706.970538378776
 20
294.0001922086837
 10
3707.012189064691
 20
292.8955135977764
 10
3707.065762619745
 20
291.7915929131743
 10
3707.131244121549
 20
290.6885062294289
 10
3707.208618647715
 20
289.5863296210908
 10
3707.297871275855
 20
288.4851391627109
 10
3707.398987083578
 20
287.3850109288397
 10
3707.511951148498
 20
286.2860209940284
 10
3707.636748548225
 20
285.1882454328279
 10
3707.773364360372
 20
284.0917603197884
 10
3707.921783662547
 20
282.9966417294611
 10
3708.081991532366
 20
281.9029657363965
 10
3708.253973047436
 20
280.8108084151458
 10
3708.437713285371
 20
279.7202458402601
 10
3708.633197323782
 20
278.6313540862894
 10
3708.840410240281
 20
277.544209227785
 10
3709.059337112478
 20
276.458887339297
 10
3709.289963017984
 20
275.3754644953774
 10
3709.532273034412
 20
274.2940167705764
 10
3709.786252239374
 20
273.2146202394444
 10
3710.051885710479
 20
272.137350976533
 10
3710.32915852534
 20
271.0622850563925
 10
3710.618055761569
 20
269.9894985535737
 10
3710.918562496776
 20
268.9190675426278
 10
3711.230663808572
 20
267.8510680981049
 10
3711.554344774569
 20
266.7855762945563
 10
3711.889590472381
 20
265.7226682065327
 10
3712.236385979615
 20
264.6624199085853
 10
3712.594716373885
 20
263.6049074752643
 10
3712.964566732802
 20
262.5502069811205
 10
3713.345922133978
 20
261.4983945007054
 10
3713.738767655023
 20
260.449546108569
 10
3714.14308837355
 20
259.4037378792628
 10
3714.558869367169
 20
258.361045887337
 10
3714.986095713491
 20
257.3215462073429
 10
3715.424752490129
 20
256.285314913831
 10
3715.874824774694
 20
255.2524280813518
 10
3716.336297644797
 20
254.2229617844569
 10
3716.80915617805
 20
253.1969920976967
 10
3717.293385452064
 20
252.1745950956218
 10
3717.788970544449
 20
251.1558468527835
 10
3718.29589653282
 20
250.1408234437318
 10
3718.814148494785
 20
249.1296009430183
 10
3719.343711507956
 20
248.1222554251938
 10
3719.884570649946
 20
247.1188629648088
 10
3720.436710998365
 20
246.1194996364137
 10
3721.000117630825
 20
245.1242415145598
 10
3721.474216526116
 20
244.306592686618
  0
LWPOLYLINE
  5
4BF7
330
4B6C
100
AcDbEntity
  8
5MM
 62
     0
100
AcDbPolyline
 90
      257
 70
     0
 43
0.0
 10
3712.957794009493
 20
243.9357123815913
 10
3712.236632604355
 20
245.2008591421843
 10
3711.530820735033
 20
246.4715098632756
 10
3710.840376617237
 20
247.7475542836536
 10
3710.165318466676
 20
249.0288821421068
 10
3709.50566449906
 20
250.3153831774229
 10
3708.861432930099
 20
251.6069471283906
 10
3708.232641975502
 20
252.9034637337985
 10
3707.61930985098
 20
254.204822732435
 10
3707.02145477224
 20
255.5109138630874
 10
3706.439094954993
 20
256.8216268645459
 10
3705.872248614949
 20
258.1368514755968
 10
3705.320933967818
 20
259.4564774350303
 10
3704.785169229307
 20
260.7803944816339
 10
3704.264972615129
 20
262.1084923541954
 10
3703.760362340992
 20
263.4406607915042
 10
3703.271356622604
 20
264.7767895323482
 10
3702.797973675677
 20
266.1167683155153
 10
3702.34023171592
 20
267.4604868797948
 10
3701.898148959042
 20
268.8078349639743
 10
3701.471743620753
 20
270.1587023068421
 10
3701.061033916763
 20
271.5129786471872
 10
3700.66603806278
 20
272.8705537237973
 10
3700.286774274515
 20
274.2313172754616
 10
3699.923260767678
 20
275.5951590409675
 10
3699.575515757976
 20
276.9619687591036
 10
3699.243557461122
 20
278.3316361686583
 10
3698.927404092824
 20
279.7040510084204
 10
3698.627073868791
 20
281.0791030171779
 10
3698.342585004733
 20
282.456681933719
 10
3698.073955716361
 20
283.8366774968323
 10
3697.821204219382
 20
285.2189794453057
 10
3697.584348729508
 20
286.6034775179286
 10
3697.363407462447
 20
287.9900614534881
 10
3697.158398633909
 20
289.378620990773
 10
3696.969340459604
 20
290.7690458685726
 10
3696.796251155241
 20
292.1612258256733
 10
3696.63914893653
 20
293.555050600865
 10
3696.498052019182
 20
294.9504099329363
 10
3696.372978618903
 20
296.347193560674
 10
3696.263946951406
 20
297.7452912228674
 10
3696.170975232398
 20
299.1445926583051
 10
3696.094081677591
 20
300.5449876057749
 10
3696.033284502693
 20
301.9463658040654
 10
3695.988601923414
 20
303.3486169919651
 10
3695.960052155463
 20
304.7516309082618
 10
3695.947653414552
 20
306.1552972917445
 10
3695.951423916387
 20
307.5595058812013
 10
3695.97138187668
 20
308.9641464154208
 10
3696.00754551114
 20
310.3691086331903
 10
3696.059933035477
 20
311.7742822732996
 10
3696.1285626654
 20
313.1795570745363
 10
3696.213452616618
 20
314.5848227756888
 10
3696.314621104842
 20
315.9899691155453
 10
3696.432086345781
 20
317.3948858328945
 10
3696.565866555144
 20
318.7994626665245
 10
3696.715979948641
 20
320.2035893552238
 10
3696.882444741982
 20
321.6071556377806
 10
3697.065279150876
 20
323.0100512529834
 10
3697.264501391034
 20
324.4121659396207
 10
3697.480129678163
 20
325.8133894364804
 10
3697.712182227975
 20
327.2136114823516
 10
3697.960677256179
 20
328.6127218160216
 10
3698.225632978483
 20
330.0106101762793
 10
3698.507067610598
 20
331.4071663019133
 10
3699.295623827029
 20
331.4843213811445
 10
3700.067549571786
 20
331.5874488684479
 10
3700.82264799464
 20
331.7158829547229
 10
3701.560722245356
 20
331.8689578308694
 10
3702.281575473699
 20
332.0460076877864
 10
3702.985010829439
 20
332.2463667163733
 10
3703.670831462342
 20
332.4693691075295
 10
3704.338840522176
 20
332.7143490521546
 10
3704.988841158707
 20
332.9806407411479
 10
3705.620636521702
 20
333.2675783654088
 10
3706.234029760928
 20
333.574496115836
 10
3706.828824026153
 20
333.9007281833301
 10
3707.404822467143
 20
334.2456087587897
 10
3707.961828233666
 20
334.6084720331142
 10
3708.499644475488
 20
334.9886521972034
 10
3709.018074342377
 20
335.385483441956
 10
3709.5169209841
 20
335.798299958272
 10
3709.995987550423
 20
336.2264359370505
 10
3710.455077191114
 20
336.6692255691911
 10
3710.89399305594
 20
337.1260030455934
 10
3711.312538294669
 20
337.5961025571564
 10
3711.710516057066
 20
338.0788582947789
 10
3712.087729492899
 20
338.5736044493615
 10
3712.443981751935
 20
339.0796752118025
 10
3712.779075983942
 20
339.5964047730022
 10
3713.092815338686
 20
340.1231273238594
 10
3713.385002965934
 20
340.6591770552739
 10
3713.655442015453
 20
341.2038881581445
 10
3713.903935637012
 20
341.7565948233713
 10
3714.130286980375
 20
342.3166312418528
 10
3714.334299195311
 20
342.8833316044893
 10
3714.515775431587
 20
343.4560301021794
 10
3714.67451883897
 20
344.0340609258234
 10
3714.810332567225
 20
344.6167582663201
 10
3714.923019766122
 20
345.2034563145684
 10
3715.012383585427
 20
345.7934892614688
 10
3715.078227174906
 20
346.3861912979198
 10
3715.120353684328
 20
346.9808966148212
 10
3715.138566263459
 20
347.576939403072
 10
3715.132668062065
 20
348.1736538535721
 10
3715.102462229916
 20
348.7703741572209
 10
3715.047751916776
 20
349.3664345049173
 10
3714.968340272413
 20
349.9611690875606
 10
3714.864030446594
 20
350.553912096051
 10
3714.734625589088
 20
351.1439977212874
 10
3714.579928849659
 20
351.7307601541688
 10
3714.399743378076
 20
352.3135335855952
 10
3714.193872324107
 20
352.8916522064659
 10
3713.962118837515
 20
353.4644502076799
 10
3713.704286068072
 20
354.0312617801369
 10
3713.420177165541
 20
354.591421114736
 10
3713.109595279692
 20
355.1442624023773
 10
3712.772343560291
 20
355.6891198339589
 10
3712.408225157104
 20
356.2253276003813
 10
3712.0170432199
 20
356.7522198925436
 10
3711.598600898444
 20
357.2691309013454
 10
3711.152701342505
 20
357.7753948176854
 10
3710.679147701848
 20
358.2703458324636
 10
3710.177743126242
 20
358.7533181365793
 10
3709.648290765453
 20
359.2236459209314
 10
3709.090593769249
 20
359.6806633764198
 10
3708.504455287396
 20
360.1237046939437
 10
3707.889678469662
 20
360.5521040644028
 10
3707.246066465813
 20
360.9651956786955
 10
3706.657746593168
 20
361.2855807765856
 10
3706.064020931594
 20
361.5855611739411
 10
3705.465318716107
 20
361.8653192713277
 10
3704.862069181727
 20
362.1250374693098
 10
3704.254701563467
 20
362.3648981684529
 10
3703.643645096344
 20
362.5850837693213
 10
3703.029329015373
 20
362.7857766724802
 10
3702.412182555572
 20
362.9671592784945
 10
3701.792634951955
 20
363.1294139879287
 10
3701.171115439539
 20
363.2727232013481
 10
3700.548053253341
 20
363.3972693193178
 10
3699.923877628376
 20
363.5032347424025
 10
3699.299017799661
 20
363.5908018711667
 10
3698.673903002211
 20
363.6601531061758
 10
3698.048962471043
 20
363.7114708479945
 10
3697.424625441173
 20
363.7449374971877
 10
3696.801321147616
 20
363.7607354543202
 10
3696.179478825391
 20
363.7590471199568
 10
3695.55952770951
 20
363.7400548946631
 10
3694.941897034991
 20
363.703941179003
 10
3694.327016036851
 20
363.6508883735419
 10
3693.715313950106
 20
363.5810788788443
 10
3693.107220009772
 20
363.4946950954758
 10
3692.503163450864
 20
363.3919194240007
 10
3691.903573508398
 20
363.2729342649843
 10
3691.308879417391
 20
363.1379220189909
 10
3690.719510412859
 20
362.9870650865863
 10
3690.135895729818
 20
362.8205458683349
 10
3689.558464603285
 20
362.638546764801
 10
3688.987646268275
 20
362.4412501765503
 10
3688.423869959804
 20
362.2288385041473
 10
3687.867564912888
 20
362.0014941481573
 10
3687.319160362545
 20
361.759399509145
 10
3686.779085543788
 20
361.5027369876754
 10
3686.247769691636
 20
361.2316889843123
 10
3685.725642041103
 20
360.9464378996221
 10
3685.213131827207
 20
360.6471661341688
 10
3684.710668284962
 20
360.334056088518
 10
3684.218680649387
 20
360.0072901632338
 10
3683.737598155494
 20
359.6670507588814
 10
3683.267850038303
 20
359.3135202760259
 10
3682.809865532828
 20
358.9468811152324
 10
3682.364073874085
 20
358.5673156770648
 10
3681.930904297092
 20
358.1750063620888
 10
3681.510786036863
 20
357.7701355708693
 10
3681.104148328415
 20
357.352885703971
 10
3680.711420406765
 20
356.9234391619588
 10
3680.333031506927
 20
356.4819783453974
 10
3679.969410863918
 20
356.0286856548519
 10
3679.620987712755
 20
355.5637434908872
 10
3679.288191288454
 20
355.0873342540679
 10
3678.97145082603
 20
354.5996403449596
 10
3678.671195560499
 20
354.1008441641263
 10
3678.387854726878
 20
353.5911281121338
 10
3678.121857560184
 20
353.0706745895463
 10
3677.873633295432
 20
352.5396659969292
 10
3677.643611167638
 20
351.9982847348466
 10
3677.432220411816
 20
351.4467132038638
 10
3677.239890262987
 20
350.8851338045464
 10
3677.067049956163
 20
350.3137289374584
 10
3676.914128726362
 20
349.7326810031645
 10
3676.781555808599
 20
349.1421724022308
 10
3676.669760437892
 20
348.542385535221
 10
3676.579171849255
 20
347.9335028027007
 10
3676.476897356393
 20
346.1911748804358
 10
3676.392189923929
 20
344.4492019068193
 10
3676.32502341729
 20
342.7076841789065
 10
3676.2753717019
 20
340.9667219937517
 10
3676.243208643191
 20
339.2264156484114
 10
3676.228508106585
 20
337.4868654399409
 10
3676.231243957511
 20
335.7481716653957
 10
3676.251390061395
 20
334.0104346218313
 10
3676.288920283664
 20
332.2737546063028
 10
3676.343808489745
 20
330.5382319158664
 10
3676.416028545064
 20
328.8039668475766
 10
3676.505554315048
 20
327.07105969849
 10
3676.612359665125
 20
325.3396107656612
 10
3676.736418460721
 20
323.6097203461458
 10
3676.877704567262
 20
321.8814887369995
 10
3677.036191850176
 20
320.1550162352782
 10
3677.211854174889
 20
318.4304031380364
 10
3677.404665406827
 20
316.7077497423302
 10
3677.614599411418
 20
314.9871563452149
 10
3677.841630054089
 20
313.2687232437463
 10
3678.085731200265
 20
311.5525507349794
 10
3678.346876715376
 20
309.8387391159698
 10
3678.625040464845
 20
308.1273886837732
 10
3678.920196314101
 20
306.4185997354448
 10
3679.232318128569
 20
304.7124725680404
 10
3679.561379773679
 20
303.0091074786154
 10
3679.907355114854
 20
301.3086047642248
 10
3680.270218017523
 20
299.6110647219243
 10
3680.649942347113
 20
297.9165876487704
 10
3681.046501969049
 20
296.2252738418168
 10
3681.45987074876
 20
294.5372235981206
 10
3681.89002255167
 20
292.852537214736
 10
3682.336931243209
 20
291.1713149887193
 10
3682.8005706888
 20
289.4936572171258
 10
3683.280914753873
 20
287.8196641970106
 10
3683.777937303854
 20
286.1494362254295
 10
3684.291612204169
 20
284.483073599438
 10
3684.821913320244
 20
282.820676616092
 10
3685.368814517508
 20
281.1623455724457
 10
3685.932289661387
 20
279.5081807655554
 10
3686.512312617306
 20
277.8582824924766
 10
3687.108857250694
 20
276.2127510502654
 10
3687.721897426977
 20
274.571686735976
 10
3688.351407011582
 20
272.9351898466649
 10
3688.997359869934
 20
271.303360679387
 10
3689.659729867463
 20
269.6762995311975
 10
3690.338490869592
 20
268.0541066991525
 10
3691.033616741751
 20
266.4368824803073
 10
3691.745081349366
 20
264.8247271717175
 10
3692.472858557862
 20
263.2177410704386
 10
3693.216922232667
 20
261.6160244735256
 10
3693.977246239209
 20
260.0196776780343
 10
3694.753804442913
 20
258.4288009810202
 10
3695.546570709205
 20
256.8434946795389
 10
3696.355518903514
 20
255.2638590706453
 10
3697.180622891266
 20
253.6899944513956
 10
3698.021856537887
 20
252.1220011188451
 10
3698.879193708805
 20
250.5599793700493
 10
3699.752608269446
 20
249.0040295020633
 10
3700.642074085236
 20
247.4542518119424
 10
3701.547565021603
 20
245.910746596743
 10
3702.469054943974
 20
244.3736141535199
 10
3703.406517717775
 20
242.8429547793281
 10
3705.137646517235
 20
240.0756347480768
  0
LWPOLYLINE
  5
4BF8
330
4B6C
100
AcDbEntity
  8
5MM
 62
     0
100
AcDbPolyline
 90
      142
 70
     0
 43
0.0
 10
3742.335489869526
 20
458.0986277270922
 10
3742.510293819214
 20
458.5643016544803
 10
3742.662172619728
 20
459.0283275323798
 10
3742.791528899394
 20
459.4904009938949
 10
3742.898765286537
 20
459.9502176721298
 10
3742.98428440948
 20
460.4074732001889
 10
3743.048488896548
 20
460.8618632111765
 10
3743.091781376064
 20
461.3130833381971
 10
3743.114564476354
 20
461.7608292143548
 10
3743.117240825741
 20
462.2047964727534
 10
3743.100213052549
 20
462.6446807464979
 10
3743.063883785104
 20
463.0801776686925
 10
3743.008655651729
 20
463.510982872441
 10
3742.934931280748
 20
463.9367919908482
 10
3742.843113300487
 20
464.3573006570181
 10
3742.73360433927
 20
464.7722045040553
 10
3742.606807025418
 20
465.1811991650639
 10
3742.463123987259
 20
465.5839802731483
 10
3742.302957853116
 20
465.9802434614127
 10
3742.126711251313
 20
466.3696843629614
 10
3741.934786810175
 20
466.7519986108982
 10
3741.727587158026
 20
467.1268818383278
 10
3741.50551492319
 20
467.4940296783553
 10
3741.268972733993
 20
467.8531377640843
 10
3741.018363218756
 20
468.2039017286187
 10
3740.754089005805
 20
468.5460172050628
 10
3740.476552723466
 20
468.8791798265217
 10
3740.186157000061
 20
469.2030852260993
 10
3739.883304463915
 20
469.5174290368995
 10
3739.568397743352
 20
469.8219068920272
 10
3739.241839466697
 20
470.116214424586
 10
3738.904032262274
 20
470.4000472676809
 10
3738.555378758407
 20
470.6731010544158
 10
3738.196281583421
 20
470.9350714178952
 10
3737.827143365639
 20
471.1856539912234
 10
3737.448366733385
 20
471.4245444075039
 10
3737.060354314986
 20
471.6514382998422
 10
3736.663508738765
 20
471.8660313013418
 10
3736.258232633046
 20
472.0680190451076
 10
3735.844928626152
 20
472.2570971642433
 10
3735.423999346409
 20
472.4329612918532
 10
3734.995847422141
 20
472.5953070610423
 10
3734.560875481672
 20
472.7438301049143
 10
3734.119486153327
 20
472.8782260565733
 10
3733.67208206543
 20
472.998190549124
 10
3733.219065846304
 20
473.1034192156709
 10
3732.760840124274
 20
473.1936076893176
 10
3732.297807527665
 20
473.2684516031692
 10
3731.830370684801
 20
473.3276465903293
 10
3731.358932224007
 20
473.3708882839023
 10
3730.883894773605
 20
473.3978723169931
 10
3730.405660961922
 20
473.408294322705
 10
3729.924633417281
 20
473.4018499341433
 10
3729.441214768006
 20
473.3782347844116
 10
3728.955807642421
 20
473.3371445066144
 10
3728.468814668852
 20
473.2782747338563
 10
3727.980638475622
 20
473.2013210992408
 10
3727.491681691055
 20
473.1059792358729
 10
3727.002346943476
 20
472.9919447768568
 10
3726.51303686121
 20
472.8589133552969
 10
3726.02415407258
 20
472.7065806042968
 10
3725.536101205911
 20
472.5346421569614
 10
3725.049280889526
 20
472.3427936463951
 10
3724.564095751751
 20
472.1307307057018
 10
3724.08094842091
 20
471.8981489679858
 10
3723.620134939261
 20
471.7314669850553
 10
3723.165507440504
 20
471.554568156395
 10
3722.717238790492
 20
471.3676064532746
 10
3722.275501855074
 20
471.1707358469647
 10
3721.840469500099
 20
470.9641103087346
 10
3721.41231459142
 20
470.7478838098543
 10
3720.991209994887
 20
470.5222103215933
 10
3720.577328576349
 20
470.2872438152223
 10
3720.170843201657
 20
470.04313826201
 10
3719.771926736662
 20
469.7900476332269
 10
3719.380752047214
 20
469.5281259001428
 10
3718.997491999163
 20
469.2575270340269
 10
3718.62231945836
 20
468.9784050061502
 10
3718.255407290656
 20
468.6909137877814
 10
3717.896928361901
 20
468.3952073501903
 10
3717.547055537944
 20
468.0914396646478
 10
3717.205961684638
 20
467.7797647024225
 10
3716.873819667831
 20
467.460336434785
 10
3716.550802353375
 20
467.133308833005
 10
3716.237082607121
 20
466.7988358683524
 10
3715.932833294917
 20
466.4570715120963
 10
3715.638227282616
 20
466.1081697355073
 10
3715.353437436066
 20
465.752284509855
 10
3715.078636621119
 20
465.3895698064094
 10
3714.813997703626
 20
465.0201795964398
 10
3714.559693549436
 20
464.6442678512165
 10
3714.315897024401
 20
464.2619885420091
 10
3714.082780994369
 20
463.8734956400874
 10
3713.860518325192
 20
463.4789431167213
 10
3713.649281882721
 20
463.0784849431809
 10
3713.449244532806
 20
462.6722750907356
 10
3713.260579141297
 20
462.2604675306551
 10
3712.973244099522
 20
461.2825435626454
 10
3712.693696800484
 20
460.3032140368429
 10
3712.421938765419
 20
459.3225159585828
 10
3712.157971515563
 20
458.3404863331996
 10
3711.901796572153
 20
457.3571621660284
 10
3711.653415456427
 20
456.3725804624031
 10
3711.412829689619
 20
455.3867782276596
 10
3711.180040792968
 20
454.399792467132
 10
3710.955050287708
 20
453.4116601861552
 10
3710.737859695079
 20
452.4224183900643
 10
3710.326884332653
 20
450.4407542738784
 10
3709.947126875583
 20
448.4550961612524
 10
3709.598599493759
 20
446.4657400948648
 10
3709.281314357077
 20
444.4729821173945
 10
3708.995283635426
 20
442.4771182715191
 10
3708.740519498702
 20
440.478444599917
 10
3708.517034116795
 20
438.4772571452665
 10
3708.324839659599
 20
436.4738519502464
 10
3708.163948297006
 20
434.4685250575342
 10
3708.034372198909
 20
432.4615725098093
 10
3707.9361235352
 20
430.4532903497488
 10
3707.869214475772
 20
428.4439746200322
 10
3707.833657190518
 20
426.4339213633369
 10
3707.829463849328
 20
424.4234266223414
 10
3707.856646622098
 20
422.4127864397241
 10
3707.915217678718
 20
420.4022968581633
 10
3708.005189189083
 20
418.3922539203376
 10
3708.126573323084
 20
416.382953668925
 10
3708.279382250613
 20
414.3746921466037
 10
3708.367574815043
 20
413.3710434221893
 10
3708.463628141565
 20
412.3677653960523
 10
3708.567543751414
 20
411.3648950735276
 10
3708.67932316583
 20
410.3624694599494
 10
3708.798967906047
 20
409.3605255606528
 10
3708.926479493301
 20
408.3591003809726
 10
3709.06185944883
 20
407.3582309262433
 10
3709.205109293871
 20
406.3579542018007
 10
3709.35623054966
 20
405.3583072129783
 10
3709.515224737434
 20
404.3593269651118
 10
3709.682093378428
 20
403.3610504635354
 10
3709.85683799388
 20
402.3635147135843
 10
3710.039460105027
 20
401.3667567205934
 10
3710.229961233103
 20
400.3708134898967
 10
3710.428342899348
 20
399.3757220268294
 10
3710.673749092684
 20
398.1928504539604
  0
LWPOLYLINE
  5
4BF9
330
4B6C
100
AcDbEntity
  8
5MM
 62
     0
100
AcDbPolyline
 90
      257
 70
     0
 43
0.0
 10
3705.181312753491
 20
400.6467968251373
 10
3704.603504875704
 20
401.9162582159314
 10
3704.094233612182
 20
403.0646956783214
 10
3703.596861410825
 20
404.2164887903228
 10
3703.111396908156
 20
405.3715637395404
 10
3702.637848740704
 20
406.5298467135782
 10
3702.176225544989
 20
407.6912639000414
 10
3701.726535957541
 20
408.8557414865338
 10
3701.288788614883
 20
410.0232056606604
 10
3700.862992153542
 20
411.1935826100263
 10
3700.44915521004
 20
412.3667985222359
 10
3700.047286420904
 20
413.542779584893
 10
3699.65739442266
 20
414.721451985603
 10
3699.279487851833
 20
415.9027419119698
 10
3698.913575344948
 20
417.0865755515988
 10
3698.55966553853
 20
418.2728790920937
 10
3698.217767069105
 20
419.4615787210599
 10
3697.887888573197
 20
420.6526006261014
 10
3697.570038687331
 20
421.8458709948228
 10
3697.264226048034
 20
423.0413160148293
 10
3696.970459291831
 20
424.2388618737249
 10
3696.688747055246
 20
425.4384347591142
 10
3696.419097974804
 20
426.6399608586019
 10
3696.161520687032
 20
427.8433663597926
 10
3695.916023828454
 20
429.0485774502914
 10
3695.682616035596
 20
430.2555203177015
 10
3695.461305944983
 20
431.4641211496287
 10
3695.25210219314
 20
432.6743061336774
 10
3695.055013416592
 20
433.8860014574519
 10
3694.870048251865
 20
435.0991333085568
 10
3694.697215335483
 20
436.3136278745969
 10
3694.536523303972
 20
437.5294113431765
 10
3694.387980793858
 20
438.7464099019007
 10
3694.251596441666
 20
439.9645497383731
 10
3694.12737888392
 20
441.1837570401992
 10
3694.015336757145
 20
442.4039579949834
 10
3693.915478697869
 20
443.62507879033
 10
3693.827813342615
 20
444.8470456138438
 10
3693.752349327909
 20
446.0697846531291
 10
3693.689095290276
 20
447.2932220957913
 10
3693.638059866241
 20
448.5172841294338
 10
3693.59925169233
 20
449.741896941662
 10
3693.572679405067
 20
450.9669867200804
 10
3693.558351640978
 20
452.192479652293
 10
3693.556277036588
 20
453.4183019259054
 10
3693.566464228425
 20
454.644379728521
 10
3693.58892185301
 20
455.8706392477454
 10
3693.623658546869
 20
457.0970066711825
 10
3693.670682946529
 20
458.3234081864374
 10
3693.730003688515
 20
459.5497699811142
 10
3693.801629409352
 20
460.7760182428177
 10
3693.885568745563
 20
462.0020791591527
 10
3693.981830333676
 20
463.2278789177233
 10
3694.090422810216
 20
464.4533437061345
 10
3694.211354811709
 20
465.6783997119908
 10
3694.344634974676
 20
466.9029731228967
 10
3694.490271935648
 20
468.1269901264565
 10
3694.648274331146
 20
469.3503769102753
 10
3694.818650797696
 20
470.5730596619576
 10
3695.001409971825
 20
471.7949645691078
 10
3695.196560490057
 20
473.0160178193304
 10
3695.404110988917
 20
474.2361456002303
 10
3695.624070104932
 20
475.4552740994117
 10
3695.856446474625
 20
476.6733295044794
 10
3696.101248734522
 20
477.8902380030379
 10
3696.885423996908
 20
477.9673928849892
 10
3697.653061180948
 20
478.0705201086038
 10
3698.403964530044
 20
478.1989538664833
 10
3699.137938287595
 20
478.3520283512295
 10
3699.854786697005
 20
478.5290777554443
 10
3700.554314001673
 20
478.7294362717292
 10
3701.236324445001
 20
478.952438092686
 10
3701.900622270389
 20
479.1974174109172
 10
3702.547011721238
 20
479.4637084190238
 10
3703.175297040949
 20
479.7506453096079
 10
3703.785282472924
 20
480.057562275271
 10
3704.376772260563
 20
480.3837935086155
 10
3704.949570647268
 20
480.7286732022434
 10
3705.503481876439
 20
481.0915355487554
 10
3706.038310191477
 20
481.4717147407543
 10
3706.553859835783
 20
481.8685449708413
 10
3707.049935052759
 20
482.2813604316183
 10
3707.526340085804
 20
482.7094953156875
 10
3707.982879178321
 20
483.1522838156502
 10
3708.41935657371
 20
483.6090601241089
 10
3708.835576515371
 20
484.0791584336648
 10
3709.231343246708
 20
484.5619129369196
 10
3709.606461011119
 20
485.0566578264754
 10
3709.960734052006
 20
485.5627272949343
 10
3710.29396661277
 20
486.0794555348978
 10
3710.605962936813
 20
486.6061767389673
 10
3710.896527267534
 20
487.1422250997454
 10
3711.165463848335
 20
487.6869348098336
 10
3711.412576922617
 20
488.2396400618334
 10
3711.637670733781
 20
488.7996750483466
 10
3711.840549525228
 20
489.3663739619756
 10
3712.021017540358
 20
489.9390709953215
 10
3712.178879022574
 20
490.5171003409862
 10
3712.313938215276
 20
491.0997961915726
 10
3712.425999361864
 20
491.6864927396813
 10
3712.51486670574
 20
492.276524177914
 10
3712.580344490305
 20
492.8692246988734
 10
3712.622236958959
 20
493.4639284951608
 10
3712.640348355104
 20
494.0599697593779
 10
3712.634482922141
 20
494.6566826841269
 10
3712.60444490347
 20
495.2534014620093
 10
3712.550038542494
 20
495.8494602856271
 10
3712.471068082611
 20
496.4441933475818
 10
3712.367337767225
 20
497.0369348404752
 10
3712.238651839734
 20
497.6270189569097
 10
3712.084814543543
 20
498.2137798894862
 10
3711.905630122048
 20
498.7965518308079
 10
3711.700902818654
 20
499.3746689734751
 10
3711.47043687676
 20
499.9474655100903
 10
3711.214036539767
 20
500.5142756332555
 10
3710.931506051077
 20
501.0744335355719
 10
3710.622649654091
 20
501.6272734096419
 10
3710.287271592207
 20
502.1721294480669
 10
3709.925176108831
 20
502.7083358434489
 10
3709.536167447361
 20
503.2352267883898
 10
3709.120049851197
 20
503.7521364754914
 10
3708.676627563742
 20
504.2583990973549
 10
3708.205704828396
 20
504.7533488465829
 10
3707.707085888561
 20
505.2363199157765
 10
3707.180574987637
 20
505.7066464975384
 10
3706.625976369025
 20
506.1636627844694
 10
3706.043094276127
 20
506.6067029691724
 10
3705.431732952342
 20
507.0351012442483
 10
3704.791696641072
 20
507.4481918022988
 10
3704.206645276457
 20
507.7685760809893
 10
3703.616218155665
 20
508.0685557113189
 10
3703.020842129027
 20
508.3483130933863
 10
3702.420944046873
 20
508.6080306272899
 10
3701.816950759534
 20
508.8478907131282
 10
3701.20928911734
 20
509.0680757509998
 10
3700.598385970619
 20
509.2687681410027
 10
3699.984668169705
 20
509.450150283236
 10
3699.368562564926
 20
509.6124045777982
 10
3698.750496006612
 20
509.7557134247876
 10
3698.130895345093
 20
509.8802592243028
 10
3697.510187430701
 20
509.9862243764423
 10
3696.888799113766
 20
510.0737912813043
 10
3696.267157244616
 20
510.1431423389877
 10
3695.645688673584
 20
510.1944599495909
 10
3695.024820250997
 20
510.2279265132129
 10
3694.404978827189
 20
510.243724429951
 10
3693.786591252487
 20
510.2420360999048
 10
3693.170084377223
 20
510.2230439231724
 10
3692.555885051726
 20
510.1869302998523
 10
3691.944420126328
 20
510.1338776300429
 10
3691.336116451357
 20
510.0640683138428
 10
3690.731400877145
 20
509.9776847513506
 10
3690.130700254022
 20
509.8749093426648
 10
3689.534441432317
 20
509.7559244878838
 10
3688.943051262361
 20
509.6209125871062
 10
3688.356956594486
 20
509.4700560404305
 10
3687.776584279018
 20
509.3035372479552
 10
3687.202361166291
 20
509.1215386097787
 10
3686.634714106634
 20
508.9242425259997
 10
3686.074069950377
 20
508.7118313967166
 10
3685.52085554785
 20
508.4844876220277
 10
3684.975497749384
 20
508.2423936020318
 10
3684.438423405308
 20
507.9857317368277
 10
3683.910059365955
 20
507.7146844265127
 10
3683.390832481651
 20
507.4294340711871
 10
3682.881169602729
 20
507.1301630709479
 10
3682.381497579519
 20
506.8170538258939
 10
3681.892243262351
 20
506.4902887361246
 10
3681.413833501555
 20
506.1500502017374
 10
3680.94669514746
 20
505.7965206228313
 10
3680.491255050399
 20
505.4298823995041
 10
3680.0479400607
 20
505.0503179318553
 10
3679.617177028696
 20
504.6580096199829
 10
3679.199392804713
 20
504.2531398639859
 10
3678.795014239084
 20
503.8358910639618
 10
3678.404468182139
 20
503.4064456200101
 10
3678.028181484208
 20
502.9649859322288
 10
3677.666580995619
 20
502.5116944007169
 10
3677.320093566706
 20
502.0467534255719
 10
3676.989146047798
 20
501.5703454068933
 10
3676.674165289224
 20
501.0826527447793
 10
3676.375578141315
 20
500.5838578393283
 10
3676.093811454401
 20
500.0741430906388
 10
3675.829292078813
 20
499.5536908988093
 10
3675.58244686488
 20
499.0226836639384
 10
3675.353702662933
 20
498.4813037861244
 10
3675.143486323302
 20
497.9297336654666
 10
3674.952224696318
 20
497.3681557020628
 10
3674.780344632309
 20
496.7967522960107
 10
3674.628272981607
 20
496.2157058474107
 10
3674.496436594543
 20
495.62519875636
 10
3674.385262321445
 20
495.0254134229578
 10
3674.295177012645
 20
494.4165322473017
 10
3674.207436840677
 20
492.932317098424
 10
3674.13237225499
 20
491.4482233308919
 10
3674.06997002207
 20
489.9643138282266
 10
3674.020216908405
 20
488.4806514739515
 10
3673.983099680481
 20
486.9972991515883
 10
3673.958605104785
 20
485.5143197446599
 10
3673.946719947802
 20
484.0317761366878
 10
3673.947430976019
 20
482.5497312111949
 10
3673.960724955924
 20
481.0682478517036
 10
3673.986588654003
 20
479.5873889417357
 10
3674.025008836741
 20
478.1072173648139
 10
3674.075972270627
 20
476.6277960044603
 10
3674.139465722146
 20
475.1491877441972
 10
3674.215475957786
 20
473.6714554675475
 10
3674.303989744031
 20
472.1946620580326
 10
3674.404993847371
 20
470.7188703991753
 10
3674.51847503429
 20
469.244143374498
 10
3674.644420071275
 20
467.770543867523
 10
3674.782815724813
 20
466.2981347617728
 10
3674.933648761391
 20
464.8269789407688
 10
3675.096905947495
 20
463.3571392880342
 10
3675.272574049611
 20
461.8886786870911
 10
3675.460639834227
 20
460.4216600214619
 10
3675.661090067829
 20
458.9561461746687
 10
3675.873911516902
 20
457.4922000302336
 10
3676.099090947936
 20
456.0298844716796
 10
3676.336615127413
 20
454.5692623825284
 10
3676.586470821824
 20
453.1103966463028
 10
3676.848644797654
 20
451.6533501465248
 10
3677.123123821388
 20
450.1981857667168
 10
3677.409894659515
 20
448.7449663904008
 10
3677.708944078521
 20
447.2937549010995
 10
3678.02025884489
 20
445.8446141823353
 10
3678.343825725112
 20
444.3976071176303
 10
3678.679631485672
 20
442.952796590507
 10
3679.027662893057
 20
441.5102454844874
 10
3679.387906713753
 20
440.0700166830938
 10
3679.760349714246
 20
438.6321730698494
 10
3680.144978661025
 20
437.1967775282752
 10
3680.541780320574
 20
435.7638929418944
 10
3680.950741459382
 20
434.3335821942286
 10
3681.371848843934
 20
432.9059081688008
 10
3681.805089240716
 20
431.4809337491334
 10
3682.250449416216
 20
430.0587218187479
 10
3682.707916136919
 20
428.6393352611675
 10
3683.177476169313
 20
427.2228369599138
 10
3683.659116279886
 20
425.8092897985092
 10
3684.15282323512
 20
424.398756660477
 10
3684.658583801506
 20
422.9913004293386
 10
3685.176384745528
 20
421.5869839886163
 10
3685.706212833674
 20
420.1858702218327
 10
3686.248054832429
 20
418.7880220125098
 10
3686.801897508283
 20
417.3935022441703
 10
3687.367727627718
 20
416.0023738003363
 10
3687.945531957223
 20
414.6146995645303
 10
3688.535297263285
 20
413.2305424202743
 10
3689.13701031239
 20
411.8499652510909
 10
3689.750657871023
 20
410.4730309405022
 10
3690.376226705674
 20
409.0998023720304
 10
3691.013703582828
 20
407.7303424291986
 10
3691.66307526897
 20
406.364713995528
 10
3692.324328530588
 20
405.0029799545418
 10
3692.997450134168
 20
403.645203189762
 10
3693.674333544243
 20
402.3074418160614
  0
LWPOLYLINE
  5
4BFA
330
4B6C
100
AcDbEntity
  8
5MM
 62
     0
100
AcDbPolyline
 90
      129
 70
     0
 43
0.0
 10
3730.104644884018
 20
116.9034723140187
 10
3730.913581851097
 20
118.1738074175714
 10
3731.697948782784
 20
119.4537393627478
 10
3732.457739141784
 20
120.7429742520824
 10
3733.192946390803
 20
122.0412181881087
 10
3733.903563992543
 20
123.3481772733608
 10
3734.58958540971
 20
124.6635576103731
 10
3735.251004105008
 20
125.9870653016799
 10
3735.887813541141
 20
127.3184064498155
 10
3736.500007180814
 20
128.6572871573136
 10
3737.08757848673
 20
130.0034135267079
 10
3737.650520921596
 20
131.3564916605339
 10
3738.188827948115
 20
132.7162276613247
 10
3738.702493028992
 20
134.0823276316147
 10
3739.191509626931
 20
135.4544976739378
 10
3739.655871204635
 20
136.8324438908289
 10
3740.095571224812
 20
138.2158723848215
 10
3740.510603150162
 20
139.6044892584499
 10
3740.900960443393
 20
140.9980006142483
 10
3741.266636567207
 20
142.3961125547506
 10
3741.607624984311
 20
143.7985311824915
 10
3741.923919157408
 20
145.2049626000047
 10
3742.215512549201
 20
146.6151129098247
 10
3742.482398622397
 20
148.0286882144847
 10
3742.724570839699
 20
149.4453946165198
 10
3742.942022663811
 20
150.8649382184643
 10
3743.13474755744
 20
152.2870251228514
 10
3743.302738983287
 20
153.7113614322163
 10
3743.44599040406
 20
155.1376532490924
 10
3743.564495282459
 20
156.5656066760138
 10
3743.658247081192
 20
157.9949278155154
 10
3743.727239262963
 20
159.4253227701309
 10
3743.771465290475
 20
160.8564976423938
 10
3743.790918626434
 20
162.2881585348394
 10
3743.785592733542
 20
163.7200115500011
 10
3743.755481074507
 20
165.1517627904135
 10
3743.700577112031
 20
166.5831183586103
 10
3743.620874308818
 20
168.0137843571253
 10
3743.516366127574
 20
169.4434668884944
 10
3743.387046031003
 20
170.8718720552498
 10
3743.232907481809
 20
172.2987059599263
 10
3743.053943942697
 20
173.7236747050583
 10
3742.850148876371
 20
175.1464843931797
 10
3742.621515745535
 20
176.5668411268246
 10
3742.368038012894
 20
177.9844510085278
 10
3742.089709141153
 20
179.3990201408228
 10
3741.786522593016
 20
180.8102546262434
 10
3741.458471831187
 20
182.2178605673247
 10
3741.105550318371
 20
183.6215440665999
 10
3740.727751517272
 20
185.0210112266038
 10
3740.325068890594
 20
186.4159681498703
 10
3739.897495901043
 20
187.8061209389338
 10
3739.445026011322
 20
189.1911756963283
 10
3738.967652684136
 20
190.5708385245879
 10
3738.465369382189
 20
191.9448155262463
 10
3737.938169568186
 20
193.3128128038387
 10
3737.386046704831
 20
194.6745364598979
 10
3736.808994254829
 20
196.0296925969595
 10
3736.207005680884
 20
197.3779873175563
 10
3735.5800744457
 20
198.7191267242235
 10
3734.928194011982
 20
200.0528169194948
 10
3734.251357842435
 20
201.3787640059044
 10
3733.549559399763
 20
202.6966740859859
 10
3732.822792146669
 20
204.0062532622743
 10
3732.07104954586
 20
205.3072076373035
 10
3731.538643283107
 20
205.8158452549455
 10
3730.994134657156
 20
206.296970294612
 10
3730.438192005779
 20
206.7508446462111
 10
3729.871483666741
 20
207.1777301996515
 10
3729.294677977814
 20
207.5778888448414
 10
3728.708443276765
 20
207.9515824716893
 10
3728.113447901363
 20
208.2990729701042
 10
3727.510360189378
 20
208.6206222299945
 10
3726.899848478578
 20
208.9164921412681
 10
3726.282581106732
 20
209.1869445938343
 10
3725.65922641161
 20
209.4322414776013
 10
3725.030452730978
 20
209.6526446824774
 10
3724.396928402608
 20
209.8484160983713
 10
3723.759321764268
 20
210.0198176151916
 10
3723.118301153725
 20
210.1671111228467
 10
3722.474534908751
 20
210.2905585112453
 10
3721.828691367113
 20
210.3904216702954
 10
3721.18143886658
 20
210.4669624899062
 10
3720.53344574492
 20
210.5204428599858
 10
3719.885380339903
 20
210.5511246704426
 10
3719.237910989299
 20
210.5592698111859
 10
3718.591706030875
 20
210.5451401721228
 10
3717.9474338024
 20
210.5089976431633
 10
3717.305762641645
 20
210.4511041142148
 10
3716.667360886376
 20
210.3717214751863
 10
3716.032896874363
 20
210.2711116159862
 10
3715.403038943377
 20
210.1495364265233
 10
3714.778455431183
 20
210.0072577967057
 10
3714.159814675552
 20
209.8445376164422
 10
3713.547785014253
 20
209.6616377756413
 10
3712.943034785054
 20
209.4588201642113
 10
3712.346232325726
 20
209.236346672061
 10
3711.758045974035
 20
208.9944791890983
 10
3711.179144067751
 20
208.7334796052327
 10
3710.610194944644
 20
208.453609810372
 10
3710.051866942482
 20
208.1551316944249
 10
3709.504828399034
 20
207.8383071472998
 10
3708.969747652068
 20
207.5033980589053
 10
3708.447293039354
 20
207.15066631915
 10
3707.93813289866
 20
206.7803738179424
 10
3707.442935567756
 20
206.3927824451909
 10
3706.96236938441
 20
205.9881540908039
 10
3706.497102686391
 20
205.5667506446904
 10
3706.047803811468
 20
205.1288339967583
 10
3705.61514109741
 20
204.6746660369165
 10
3705.199782881987
 20
204.2045086550734
 10
3704.802397502965
 20
203.7186237411376
 10
3704.423653298115
 20
203.2172731850175
 10
3704.064218605206
 20
202.7007188766219
 10
3703.724761762006
 20
202.1692227058589
 10
3703.405951106284
 20
201.6230465626369
 10
3703.108454975808
 20
201.0624523368648
 10
3702.832941708349
 20
200.4877019184511
 10
3702.580079641675
 20
199.899057197304
 10
3702.350537113554
 20
199.2967800633323
 10
3702.144982461756
 20
198.6811324064447
 10
3701.964084024049
 20
198.0523761165495
 10
3701.808510138203
 20
197.4107730835551
 10
3701.678929141986
 20
196.7565851973698
 10
3701.576009373167
 20
196.0900743479025
 10
3701.500419169515
 20
195.4115024250615
 10
3701.452826868799
 20
194.7211313187555
 10
3701.433900808788
 20
194.019222918893
 10
3701.44430932725
 20
193.3060391153827
  0
LWPOLYLINE
  5
4BFB
330
4B6C
100
AcDbEntity
  8
5MM
 62
     0
100
AcDbPolyline
 90
      257
 70
     0
 43
0.0
 10
3720.28591397102
 20
124.6926661505171
 10
3720.592728113866
 20
125.8587920175891
 10
3720.87440211001
 20
127.0266012146811
 10
3721.131054290224
 20
128.1957963538137
 10
3721.362802985279
 20
129.3660800470087
 10
3721.569766525948
 20
130.5371549062863
 10
3721.752063243002
 20
131.7087235436671
 10
3721.909811467214
 20
132.8804885711724
 10
3722.043129529356
 20
134.0521526008231
 10
3722.152135760199
 20
135.2234182446405
 10
3722.236948490516
 20
136.3939881146448
 10
3722.297686051078
 20
137.563564822857
 10
3722.334466772658
 20
138.7318509812984
 10
3722.347408986027
 20
139.8985492019894
 10
3722.336631021958
 20
141.0633620969514
 10
3722.302251211221
 20
142.2259922782051
 10
3722.24438788459
 20
143.3861423577712
 10
3722.163159372836
 20
144.5435149476709
 10
3722.058684006732
 20
145.6978126599248
 10
3721.931080117048
 20
146.8487381065544
 10
3721.780466034559
 20
147.9959938995795
 10
3721.606960090034
 20
149.1392826510218
 10
3721.410680614246
 20
150.2783069729024
 10
3721.191745937968
 20
151.4127694772415
 10
3720.950274391969
 20
152.5423727760603
 10
3720.686384307025
 20
153.6668194813799
 10
3720.400194013905
 20
154.785812205221
 10
3720.091821843383
 20
155.8990535596047
 10
3719.761386126228
 20
157.0062461565518
 10
3719.409005193216
 20
158.107092608083
 10
3719.034797375115
 20
159.2012955262195
 10
3718.6388810027
 20
160.2885575229817
 10
3718.221374406742
 20
161.3685812103911
 10
3717.782395918013
 20
162.4410692004683
 10
3717.322063867283
 20
163.505724105234
 10
3716.840496585327
 20
164.5622485367091
 10
3716.337812402916
 20
165.6103451069151
 10
3715.814129650821
 20
166.6497164278728
 10
3715.269566659814
 20
167.6800651116023
 10
3714.704241760669
 20
168.7010937701251
 10
3714.118273284156
 20
169.7125050154624
 10
3713.511779561046
 20
170.7140014596344
 10
3712.884878922114
 20
171.7052857146618
 10
3712.23768969813
 20
172.6860603925667
 10
3711.570330219867
 20
173.6560281053691
 10
3710.882918818096
 20
174.6148914650903
 10
3710.175573823589
 20
175.5623530837507
 10
3709.448413567118
 20
176.4981155733714
 10
3708.701556379457
 20
177.4218815459735
 10
3707.935120591374
 20
178.3333536135778
 10
3707.149224533645
 20
179.2322343882053
 10
3706.343986537039
 20
180.1182264818767
 10
3705.51952493233
 20
180.9910325066131
 10
3704.675958050289
 20
181.8503550744351
 10
3703.813404221687
 20
182.6958967973639
 10
3702.931981777298
 20
183.5273602874204
 10
3702.031809047893
 20
184.344448156625
 10
3701.113004364244
 20
185.1468630169995
 10
3700.175686057123
 20
185.9343074805638
 10
3699.219972457302
 20
186.7064841593394
 10
3698.245981895553
 20
187.4630956653471
 10
3697.253832702647
 20
188.2038446106074
 10
3696.243643209357
 20
188.9284336071423
 10
3695.215531746455
 20
189.6365652669711
 10
3694.169616644713
 20
190.3279422021167
 10
3693.694131676443
 20
190.5995949363089
 10
3693.215166260761
 20
190.8500873532559
 10
3692.733138867065
 20
191.0797018782423
 10
3692.248467964751
 20
191.2887209365535
 10
3691.761572023216
 20
191.4774269534738
 10
3691.272869511859
 20
191.6461023542891
 10
3690.782778900074
 20
191.7950295642835
 10
3690.291718657257
 20
191.9244910087433
 10
3689.800107252808
 20
192.0347691129523
 10
3689.308363156122
 20
192.1261463021959
 10
3688.816904836596
 20
192.1989050017595
 10
3688.326150763627
 20
192.2533276369274
 10
3687.836519406611
 20
192.2896966329855
 10
3687.348429234947
 20
192.3082944152183
 10
3686.862298718028
 20
192.3094034089107
 10
3686.378546325255
 20
192.2933060393487
 10
3685.897590526021
 20
192.2602847318164
 10
3685.419849789726
 20
192.2106219115991
 10
3684.945742585764
 20
192.1446000039818
 10
3684.475687383534
 20
192.0625014342494
 10
3684.010102652432
 20
191.9646086276875
 10
3683.549406861855
 20
191.8512040095804
 10
3683.094018481199
 20
191.7225700052134
 10
3682.644355979861
 20
191.5789890398719
 10
3682.200837827239
 20
191.4207435388403
 10
3681.763882492728
 20
191.2481159274043
 10
3681.333908445726
 20
191.0613886308487
 10
3680.91133415563
 20
190.8608440744583
 10
3680.496578091836
 20
190.6467646835184
 10
3680.09005872374
 20
190.4194328833134
 10
3679.692194520742
 20
190.1791310991294
 10
3679.303403952235
 20
189.9261417562509
 10
3678.924105487618
 20
189.6607472799629
 10
3678.554717596287
 20
189.3832300955504
 10
3678.195658747639
 20
189.0938726282985
 10
3677.847347411071
 20
188.7929573034922
 10
3677.510202055979
 20
188.4807665464168
 10
3677.184641151761
 20
188.1575827823567
 10
3676.871083167814
 20
187.8236884365979
 10
3676.569946573533
 20
187.4793659344243
 10
3676.281649838315
 20
187.1248977011221
 10
3676.00661143156
 20
186.7605661619753
 10
3675.745249822661
 20
186.3866537422699
 10
3675.497983481015
 20
186.0034428672903
 10
3675.265230876021
 20
185.6112159623214
 10
3675.047410477076
 20
185.2102554526488
 10
3674.844940753573
 20
184.8008437635571
 10
3674.658240174913
 20
184.3832633203314
 10
3674.487727210491
 20
183.9577965482573
 10
3674.333820329703
 20
183.5247258726189
 10
3674.196938001948
 20
183.0843337187018
 10
3674.07749869662
 20
182.6369025117908
 10
3673.975920883118
 20
182.1827146771715
 10
3673.892623030839
 20
181.7220526401279
 10
3673.828023609178
 20
181.2551988259463
 10
3673.782541087533
 20
180.7824356599108
 10
3673.7565939353
 20
180.3040455673065
 10
3673.750600621876
 20
179.8203109734187
 10
3673.764979616659
 20
179.3315143035327
 10
3673.800149389044
 20
178.8379379829328
 10
3673.856528408428
 20
178.3398644369048
 10
3673.93453514421
 20
177.837576090733
 10
3674.034588065784
 20
177.3313553697034
 10
3674.157105642549
 20
176.8214846991003
 10
3674.243065065566
 20
176.5280945526198
 10
3674.338396101167
 20
176.2406465681323
 10
3674.442876556444
 20
175.9592026598994
 10
3674.556284238486
 20
175.6838247421818
 10
3674.678396954384
 20
175.4145747292415
 10
3674.808992511229
 20
175.1515145353387
 10
3674.947848716112
 20
174.8947060747354
 10
3675.094743376122
 20
174.6442112616931
 10
3675.249454298351
 20
174.4000920104727
 10
3675.41175928989
 20
174.1624102353355
 10
3675.58143615783
 20
173.9312278505431
 10
3675.758262709261
 20
173.7066067703567
 10
3675.942016751273
 20
173.4886089090374
 10
3676.132476090958
 20
173.2772961808468
 10
3676.329418535406
 20
173.0727305000457
 10
3676.532621891708
 20
172.8749737808963
 10
3676.741863966955
 20
172.6840879376591
 10
3676.956922568236
 20
172.5001348845955
 10
3677.177575502644
 20
172.3231765359667
 10
3677.403600577268
 20
172.1532748060347
 10
3677.634775599199
 20
171.9904916090601
 10
3677.870878375529
 20
171.8348888593043
 10
3678.111686713347
 20
171.6865284710291
 10
3678.356978419746
 20
171.5454723584951
 10
3678.606531301813
 20
171.4117824359639
 10
3678.860123166642
 20
171.2855206176971
 10
3679.117531821322
 20
171.1667488179555
 10
3679.378535072944
 20
171.0555289510007
 10
3679.6429107286
 20
170.9519229310939
 10
3679.910436595379
 20
170.8559926724963
 10
3680.180890480373
 20
170.7678000894694
 10
3680.454050190671
 20
170.6874070962744
 10
3680.729693533365
 20
170.6148756071727
 10
3681.007598315547
 20
170.5502675364255
 10
3681.287542344304
 20
170.4936447982938
 10
3681.569303426729
 20
170.4450693070398
 10
3681.852659369913
 20
170.4046029769238
 10
3682.137387980946
 20
170.3723077222077
 10
3682.42326706692
 20
170.3482454571524
 10
3682.710074434924
 20
170.3324780960199
 10
3682.997587892049
 20
170.3250675530706
 10
3683.285585245386
 20
170.3260757425664
 10
3683.573844302026
 20
170.3355645787683
 10
3683.86214286906
 20
170.3535959759376
 10
3684.150258753577
 20
170.3802318483359
 10
3684.437969762669
 20
170.4155341102243
 10
3684.725053703427
 20
170.4595646758641
 10
3685.011288382941
 20
170.5123854595167
 10
3685.296451608302
 20
170.5740583754431
 10
3685.580321186601
 20
170.6446453379051
 10
3685.862674924927
 20
170.7242082611633
 10
3686.143290630373
 20
170.8128090594795
 10
3686.421946110029
 20
170.910509647115
 10
3686.698419170984
 20
171.0173719383312
 10
3686.972487620331
 20
171.1334578473891
 10
3687.24392926516
 20
171.2588292885498
 10
3687.512521912561
 20
171.3935481760751
 10
3687.778043369627
 20
171.5376764242264
 10
3688.040271443445
 20
171.6912759472644
 10
3688.298983941108
 20
171.8544086594506
 10
3688.553958669706
 20
172.0271364750467
 10
3688.804973436331
 20
172.2095213083133
 10
3689.051806048071
 20
172.4016250735123
 10
3689.29423431202
 20
172.6035096849051
 10
3690.004955362625
 20
172.2353151312508
 10
3690.705491424566
 20
171.8552431107239
 10
3691.395744939296
 20
171.4634793689804
 10
3692.075618348268
 20
171.0602096516764
 10
3692.745014092938
 20
170.6456197044678
 10
3693.40383461476
 20
170.2198952730111
 10
3694.051982355188
 20
169.7832221029614
 10
3694.689359755676
 20
169.3357859399755
 10
3695.315869257679
 20
168.8777725297092
 10
3695.931413302651
 20
168.4093676178185
 10
3696.535894332046
 20
167.9307569499591
 10
3697.129214787317
 20
167.4421262717874
 10
3697.711277109921
 20
166.9436613289597
 10
3698.28198374131
 20
166.4355478671315
 10
3698.84123712294
 20
165.9179716319588
 10
3699.388939696263
 20
165.3911183690979
 10
3699.924993902735
 20
164.8551738242051
 10
3700.44930218381
 20
164.3103237429358
 10
3700.961766980942
 20
163.7567538709463
 10
3701.462290735586
 20
163.1946499538927
 10
3701.950775889195
 20
162.624197737431
 10
3702.427124883224
 20
162.0455829672171
 10
3702.891240159126
 20
161.4589913889072
 10
3703.343024158357
 20
160.864608748157
 10
3703.782379322371
 20
160.2626207906235
 10
3704.209208092622
 20
159.6532132619611
 10
3704.623412910564
 20
159.0365719078266
 10
3705.024896217651
 20
158.4128824738766
 10
3705.413560455337
 20
157.7823307057667
 10
3705.789308065078
 20
157.1451023491527
 10
3706.152041488326
 20
156.5013831496907
 10
3706.501663166537
 20
155.8513588530367
 10
3706.838075541165
 20
155.1952152048471
 10
3707.161181053663
 20
154.5331379507779
 10
3707.470882145487
 20
153.8653128364843
 10
3707.76708125809
 20
153.1919256076235
 10
3708.049680832927
 20
152.5131620098508
 10
3708.318583311451
 20
151.8292077888219
 10
3708.573691135118
 20
151.1402486901935
 10
3708.814906745381
 20
150.4464704596214
 10
3709.042132583694
 20
149.7480588427619
 10
3709.255271091513
 20
149.0451995852706
 10
3709.454224710291
 20
148.3380784328035
 10
3709.638895881481
 20
147.6268811310173
 10
3709.809187046541
 20
146.9117934255673
 10
3709.965000646922
 20
146.1930010621095
 10
3710.106239124079
 20
145.4706897863003
 10
3710.232804919466
 20
144.7450453437955
 10
3710.344600474537
 20
144.0162534802515
 10
3710.441528230749
 20
143.2844999413238
 10
3710.523490629553
 20
142.5499704726691
 10
3710.590390112404
 20
141.8128508199423
 10
3710.642129120758
 20
141.0733267288007
 10
3710.678610096067
 20
140.3315839448994
 10
3710.699735479786
 20
139.5878082138946
 10
3710.70540771337
 20
138.842185281443
 10
3710.695529238273
 20
138.0949008931999
 10
3710.670002495948
 20
137.3461407948215
 10
3710.628729927851
 20
136.5960907319638
 10
3710.571613975435
 20
135.844936450283
 10
3710.498557080155
 20
135.0928636954351
 10
3710.409461683465
 20
134.3400582130761
 10
3710.30423022682
 20
133.5867057488618
 10
3710.182765151671
 20
132.8329920484483
  0
LWPOLYLINE
  5
4BFC
330
4B6C
100
AcDbEntity
  8
5MM
 62
     0
100
AcDbPolyline
 90
      401
 70
     0
 43
0.0
 10
3682.505025359962
 20
-191.3822342668698
 10
3681.694557785778
 20
-193.0837429822718
 10
3680.822160899206
 20
-194.9646760960318
 10
3679.970369963267
 20
-196.8516562303018
 10
3679.139200918818
 20
-198.7445484049888
 10
3678.328669706715
 20
-200.6432176400028
 10
3677.538792267814
 20
-202.5475289552478
 10
3676.76958454297
 20
-204.4573473706328
 10
3676.021062473041
 20
-206.3725379060659
 10
3675.293241998884
 20
-208.2929655814537
 10
3674.586139061353
 20
-210.2184954167046
 10
3673.899769601305
 20
-212.1489924317259
 10
3673.234149559596
 20
-214.0843216464259
 10
3672.589294877083
 20
-216.0243480807096
 10
3671.965221494622
 20
-217.9689367544877
 10
3671.361945353069
 20
-219.9179526876658
 10
3670.77948239328
 20
-221.8712609001527
 10
3670.217848556111
 20
-223.8287264118558
 10
3669.677059782419
 20
-225.7902142426808
 10
3669.15713201306
 20
-227.7555894125369
 10
3668.65808118889
 20
-229.7247169413317
 10
3668.179923250765
 20
-231.6974618489728
 10
3667.722674139542
 20
-233.6736891553669
 10
3667.286349796075
 20
-235.6532638804217
 10
3666.870966161224
 20
-237.6360510440447
 10
3666.476539175842
 20
-239.6219156661448
 10
3666.103084780787
 20
-241.6107227666287
 10
3665.750618916915
 20
-243.6023373654038
 10
3665.419157525081
 20
-245.5966244823767
 10
3665.108716546142
 20
-247.5934491374578
 10
3664.819311920954
 20
-249.5926763505506
 10
3664.550959590374
 20
-251.5941711415658
 10
3664.303675495257
 20
-253.5977985304107
 10
3664.077475576461
 20
-255.6034235369919
 10
3663.87237577484
 20
-257.6109111812168
 10
3663.688392031251
 20
-259.6201264829947
 10
3663.525540286552
 20
-261.6309344622298
 10
3663.383836481596
 20
-263.6432001388339
 10
3663.263296557242
 20
-265.6567885327108
 10
3663.163936454346
 20
-267.6715646637708
 10
3663.085772113762
 20
-269.6873935519197
 10
3663.028819476347
 20
-271.7041402170657
 10
3662.99309448296
 20
-273.7216696791147
 10
3662.978613074454
 20
-275.7398469579775
 10
3662.985391191685
 20
-277.7585370735608
 10
3663.013444775512
 20
-279.777605045771
 10
3663.062789766789
 20
-281.7969158945148
 10
3663.133442106373
 20
-283.8163346397018
 10
3663.22541773512
 20
-285.8357263012388
 10
3663.338732593887
 20
-287.854955899033
 10
3663.473402623529
 20
-289.8738884529917
 10
3663.629443764903
 20
-291.8923889830237
 10
3663.806871958865
 20
-293.9103225090369
 10
3664.00570314627
 20
-295.9275540509357
 10
3664.225953267977
 20
-297.9439486286308
 10
3664.46763826484
 20
-299.9593712620288
 10
3664.730774077715
 20
-301.9736869710357
 10
3665.01537664746
 20
-303.9867607755628
 10
3665.32146191493
 20
-305.9984576955149
 10
3665.649045820982
 20
-308.0086427507986
 10
3665.998144306471
 20
-310.0171809613239
 10
3666.368773312254
 20
-312.0239373469976
 10
3666.760948779188
 20
-314.0287769277268
 10
3667.174686648127
 20
-316.0315647234186
 10
3667.610002859929
 20
-318.0321657539816
 10
3667.769713116822
 20
-318.8175296132067
 10
3667.953601281511
 20
-319.5922860819057
 10
3668.161227754163
 20
-320.3562198577777
 10
3668.392152934939
 20
-321.1091156385239
 10
3668.645937224006
 20
-321.8507581218428
 10
3668.922141021528
 20
-322.5809320054389
 10
3669.220324727668
 20
-323.2994219870077
 10
3669.540048742591
 20
-324.0060127642526
 10
3669.880873466462
 20
-324.7004890348728
 10
3670.242359299443
 20
-325.38263549657
 10
3670.624066641701
 20
-326.0522368470438
 10
3671.025555893399
 20
-326.7090777839917
 10
3671.446387454701
 20
-327.3529430051187
 10
3671.886121725772
 20
-327.983617208123
 10
3672.344319106775
 20
-328.6008850907046
 10
3672.820539997875
 20
-329.2045313505628
 10
3673.314344799238
 20
-329.7943406854008
 10
3673.825293911026
 20
-330.3700977929177
 10
3674.352947733404
 20
-330.9315873708126
 10
3674.896866666536
 20
-331.4785941167868
 10
3675.456611110587
 20
-332.0109027285407
 10
3676.03174146572
 20
-332.5282979037756
 10
3676.621818132101
 20
-333.0305643401898
 10
3677.226401509893
 20
-333.5174867354858
 10
3677.84505199926
 20
-333.9888497873617
 10
3678.477330000368
 20
-334.4444381935186
 10
3679.122795913379
 20
-334.8840366516567
 10
3679.781010138459
 20
-335.3074298594788
 10
3680.451533075772
 20
-335.7144025146817
 10
3681.133925125481
 20
-336.1047393149677
 10
3681.827746687753
 20
-336.4782249580378
 10
3682.53255816275
 20
-336.8346441415888
 10
3683.247919950636
 20
-337.1737815633257
 10
3683.973392451576
 20
-337.4954219209449
 10
3684.708536065735
 20
-337.7993499121497
 10
3685.452911193277
 20
-338.0853502346369
 10
3686.206078234365
 20
-338.3532075861117
 10
3686.967597589165
 20
-338.6027066642707
 10
3687.737029657841
 20
-338.8336321668157
 10
3688.513934840556
 20
-339.0457687914468
 10
3689.297873537475
 20
-339.2389012358638
 10
3690.088406148762
 20
-339.4128141977676
 10
3690.885093074582
 20
-339.5672923748577
 10
3691.687494715098
 20
-339.7021204648368
 10
3692.495171470476
 20
-339.8170831654029
 10
3693.30768374088
 20
-339.9119651742569
 10
3694.124591926473
 20
-339.9865511890989
 10
3694.945456427419
 20
-340.0406259076287
 10
3695.769837643884
 20
-340.0739740275499
 10
3696.597295976032
 20
-340.086380246559
 10
3697.427391824027
 20
-340.0776292623577
 10
3698.259685588031
 20
-340.047505772646
 10
3699.093737668212
 20
-339.9957944751256
 10
3699.929108464733
 20
-339.9222800674956
 10
3700.765358377757
 20
-339.8267472474558
 10
3701.602047807449
 20
-339.7089807127079
 10
3702.438737153973
 20
-339.5687651609519
 10
3703.274986817496
 20
-339.4058852898877
 10
3704.110357198178
 20
-339.2201257972158
 10
3704.944408696185
 20
-339.011271380637
 10
3705.776701711683
 20
-338.7791067378498
 10
3706.606796644833
 20
-338.5234165665588
 10
3707.434253895802
 20
-338.2439855644586
 10
3708.258633864754
 20
-337.9405984292539
 10
3709.162938866722
 20
-337.1629856607969
 10
3710.044870428328
 20
-336.3683338404808
 10
3710.904212905316
 20
-335.5570458988868
 10
3711.740750653433
 20
-334.7295247665918
 10
3712.554268028423
 20
-333.8861733741739
 10
3713.344549386035
 20
-333.0273946522106
 10
3714.111379082011
 20
-332.1535915312809
 10
3714.854541472101
 20
-331.2651669419629
 10
3715.573820912047
 20
-330.3625238148336
 10
3716.269001757598
 20
-329.4460650804717
 10
3716.939868364497
 20
-328.5161936694578
 10
3717.586205088493
 20
-327.5733125123656
 10
3718.207796285329
 20
-326.6178245397757
 10
3718.804426310753
 20
-325.6501326822656
 10
3719.375879520509
 20
-324.6706398704157
 10
3719.921940270345
 20
-323.6797490347999
 10
3720.442392916005
 20
-322.6778631060006
 10
3720.937021813236
 20
-321.6653850145917
 10
3721.405611317783
 20
-320.6427176911548
 10
3721.847945785393
 20
-319.6102640662659
 10
3722.263809571811
 20
-318.5684270705026
 10
3722.652987032783
 20
-317.5176096344467
 10
3723.015262524055
 20
-316.4582146886728
 10
3723.350420401374
 20
-315.3906451637597
 10
3723.658245020482
 20
-314.3153039902856
 10
3723.93852073713
 20
-313.232594098831
 10
3724.191031907061
 20
-312.1429184199699
 10
3724.41556288602
 20
-311.0466798842838
 10
3724.611898029755
 20
-309.9442814223478
 10
3724.779821694011
 20
-308.8361259647418
 10
3724.919118234535
 20
-307.7226164420447
 10
3725.02957200707
 20
-306.6041557848337
 10
3725.006910255113
 20
-305.3091840649888
 10
3724.956958463866
 20
-304.0156382546979
 10
3724.879777059755
 20
-302.7238597162318
 10
3724.775426469204
 20
-301.434189811866
 10
3724.643967118639
 20
-300.146969903871
 10
3724.485459434482
 20
-298.8625413545197
 10
3724.299963843157
 20
-297.5812455260868
 10
3724.08754077109
 20
-296.3034237808438
 10
3723.848250644704
 20
-295.0294174810626
 10
3723.582153890426
 20
-293.7595679890176
 10
3723.289310934676
 20
-292.4942166669798
 10
3722.96978220388
 20
-291.2337048772238
 10
3722.623628124463
 20
-289.9783739820227
 10
3722.250909122849
 20
-288.7285653436477
 10
3721.851685625462
 20
-287.4846203243728
 10
3721.426018058726
 20
-286.2468802864689
 10
3721.93778248657
 20
-286.5642607334098
 10
3722.455345881485
 20
-286.8688458821109
 10
3722.978462372648
 20
-287.1606660654407
 10
3723.506886089241
 20
-287.4397516162619
 10
3724.04037116044
 20
-287.706132867439
 10
3724.578671715427
 20
-287.9598401518426
 10
3725.121541883378
 20
-288.2009038023337
 10
3725.668735793475
 20
-288.4293541517798
 10
3726.220007574895
 20
-288.6452215330457
 10
3726.775111356817
 20
-288.848536278997
 10
3727.333801268421
 20
-289.0393287224988
 10
3727.895831438886
 20
-289.2176291964179
 10
3728.46095599739
 20
-289.3834680336188
 10
3729.028929073113
 20
-289.5368755669679
 10
3729.599504795234
 20
-289.6778821293287
 10
3730.172437292931
 20
-289.8065180535687
 10
3730.747480695384
 20
-289.9228136725528
 10
3731.324389131772
 20
-290.0267993191476
 10
3731.902916731274
 20
-290.1185053262168
 10
3732.482817623068
 20
-290.197962026627
 10
3733.063845936334
 20
-290.2651997532437
 10
3733.645755800252
 20
-290.3202488389307
 10
3734.228301343999
 20
-290.3631396165567
 10
3734.811236696755
 20
-290.3939024189847
 10
3735.394315987699
 20
-290.4125675790808
 10
3735.97729334601
 20
-290.4191654297117
 10
3736.559922900867
 20
-290.4137263037408
 10
3737.141958781448
 20
-290.3962805340357
 10
3737.723155116934
 20
-290.3668584534607
 10
3738.303266036503
 20
-290.3254903948807
 10
3738.882045669334
 20
-290.2722066911638
 10
3739.459248144606
 20
-290.2070376751737
 10
3740.034627591498
 20
-290.1300136797747
 10
3740.60793813919
 20
-290.0411650378348
 10
3741.178933916859
 20
-289.9405220822178
 10
3741.747369053685
 20
-289.8281151457906
 10
3742.312997678848
 20
-289.7039745614165
 10
3742.875573921526
 20
-289.5681306619638
 10
3743.434851910898
 20
-289.4206137802978
 10
3743.990585776143
 20
-289.2614542492816
 10
3744.542529646441
 20
-289.0906824017807
 10
3745.090437650971
 20
-288.9083285706647
 10
3745.63406391891
 20
-288.7144230887959
 10
3746.173162579438
 20
-288.5089962890388
 10
3746.707487761736
 20
-288.2920785042618
 10
3747.236793594981
 20
-288.063700067328
 10
3747.760834208352
 20
-287.8238913111047
 10
3748.279363731028
 20
-287.5726825684567
 10
3748.792136292189
 20
-287.3101041722498
 10
3749.298906021013
 20
-287.0361864553488
 10
3749.799427046679
 20
-286.7509597506198
 10
3750.293453498368
 20
-286.4544543909278
 10
3750.780739505257
 20
-286.1467007091387
 10
3751.261039196525
 20
-285.8277290381177
 10
3751.734106701352
 20
-285.4975697107318
 10
3752.199696148917
 20
-285.156253059846
 10
3752.657561668397
 20
-284.8038094183237
 10
3753.107457388975
 20
-284.4402691190317
 10
3753.549137439826
 20
-284.0656624948376
 10
3753.982355950131
 20
-283.6800198786038
 10
3754.40686704907
 20
-283.2833716031976
 10
3754.822424865819
 20
-282.8757480014838
 10
3755.22878352956
 20
-282.4571794063279
 10
3755.62569716947
 20
-282.0276961505958
 10
3756.227920999378
 20
-281.5963938358048
 10
3756.803138770563
 20
-281.1514956098297
 10
3757.351524021183
 20
-280.6936018292488
 10
3757.873250289405
 20
-280.2233128506357
 10
3758.368491113389
 20
-279.7412290305649
 10
3758.837420031301
 20
-279.2479507256119
 10
3759.280210581302
 20
-278.7440782923518
 10
3759.697036301555
 20
-278.2302120873587
 10
3760.088070730224
 20
-277.7069524672106
 10
3760.453487405472
 20
-277.1748997884788
 10
3760.793459865461
 20
-276.6346544077417
 10
3761.108161648355
 20
-276.0868166815717
 10
3761.397766292316
 20
-275.5319869665457
 10
3761.662447335508
 20
-274.9707656192388
 10
3761.902378316094
 20
-274.4037529962238
 10
3762.117732772236
 20
-273.8315494540777
 10
3762.308684242097
 20
-273.2547553493748
 10
3762.475406263841
 20
-272.6739710386917
 10
3762.618072375631
 20
-272.0897968786025
 10
3762.736856115629
 20
-271.5028332256818
 10
3762.831931021998
 20
-270.9136804365048
 10
3762.903470632903
 20
-270.3229388676468
 10
3762.951648486505
 20
-269.7312088756828
 10
3762.976638120967
 20
-269.1390908171879
 10
3762.978613074454
 20
-268.5471850487379
 10
3762.957746885126
 20
-267.9560919269059
 10
3762.914213091148
 20
-267.3664118082679
 10
3762.848185230683
 20
-266.7787450494018
 10
3762.759836841893
 20
-266.1936920068779
 10
3762.649341462942
 20
-265.6118530372749
 10
3762.516872631992
 20
-265.0338284971647
 10
3762.362603887208
 20
-264.4602187431258
 10
3762.18670876675
 20
-263.8916241317318
 10
3761.989360808783
 20
-263.3286450195578
 10
3761.77073355147
 20
-262.7718817631767
 10
3761.531000532973
 20
-262.2219347191667
 10
3761.270335291456
 20
-261.6794042441029
 10
3760.988911365082
 20
-261.1448906945577
 10
3760.686902292013
 20
-260.6189944271089
 10
3760.364481610412
 20
-260.1023157983298
 10
3760.021822858443
 20
-259.5954551647958
 10
3759.65909957427
 20
-259.0990128830817
 10
3759.276485296053
 20
-258.6135893097628
 10
3758.874153561957
 20
-258.1397848014169
 10
3758.452277910145
 20
-257.6781997146147
 10
3758.011031878778
 20
-257.2294344059337
 10
3757.550589006022
 20
-256.7940892319489
 10
3757.071122830039
 20
-256.3727645492347
 10
3756.572806888991
 20
-255.9660607143658
 10
3756.055814721042
 20
-255.5745780839188
 10
3755.520319864353
 20
-255.1989170144668
 10
3754.96649585709
 20
-254.8396778625868
 10
3754.394516237415
 20
-254.4974609848516
 10
3753.80455454349
 20
-254.1728667378397
 10
3753.196784313478
 20
-253.8664954781227
 10
3752.571379085543
 20
-253.5789475622778
 10
3751.928512397848
 20
-253.3108233468786
 10
3751.268357788556
 20
-253.0627231885028
 10
3750.591088795829
 20
-252.8352474437217
 10
3749.896878957831
 20
-252.6289964691127
 10
3749.185901812724
 20
-252.4445706212507
 10
3748.458330898671
 20
-252.2825702567109
 10
3747.714339753837
 20
-252.1435957320689
 10
3746.954101916383
 20
-252.0282474038968
 10
3746.31984693651
 20
-251.7483109910559
 10
3745.690723977999
 20
-251.461226160443
 10
3745.066791483031
 20
-251.1670553751428
 10
3744.448107893787
 20
-250.8658610982388
 10
3743.83473165245
 20
-250.5577057928138
 10
3743.226721201201
 20
-250.2426519219498
 10
3742.624134982222
 20
-249.9207619487297
 10
3742.027031437693
 20
-249.5920983362369
 10
3741.435469009799
 20
-249.2567235475549
 10
3740.849506140719
 20
-248.9147000457649
 10
3740.269201272635
 20
-248.5660902939508
 10
3739.69461284773
 20
-248.2109567551948
 10
3739.125799308184
 20
-247.8493618925798
 10
3738.562819096179
 20
-247.4813681691899
 10
3738.005730653898
 20
-247.107038048109
 10
3737.454592423521
 20
-246.7264339924148
 10
3736.909462847231
 20
-246.3396184651958
 10
3736.370400367209
 20
-245.9466539295329
 10
3735.837463425637
 20
-245.5476028485068
 10
3735.310710464696
 20
-245.1425276852037
 10
3734.790199926568
 20
-244.7314909027048
 10
3734.275990253435
 20
-244.3145549640929
 10
3733.768139887478
 20
-243.8917823324518
 10
3733.26670727088
 20
-243.4632354708619
 10
3732.77175084582
 20
-243.0289768424097
 10
3732.283329054483
 20
-242.5890689101759
 10
3731.801500339048
 20
-242.1435741372427
 10
3731.326323141699
 20
-241.6925549866958
 10
3730.857855904615
 20
-241.2360739216147
 10
3730.39615706998
 20
-240.7741934050848
 10
3729.941285079975
 20
-240.3069759001878
 10
3729.49329837678
 20
-239.8344838700068
 10
3729.052255402579
 20
-239.3567797776238
 10
3728.618214599553
 20
-238.8739260861239
 10
3728.191234409882
 20
-238.3859852585879
 10
3727.77137327575
 20
-237.8930197581007
 10
3727.358689639338
 20
-237.3950920477416
 10
3726.953241942828
 20
-236.8922645905968
 10
3726.5550886284
 20
-236.3845998497488
 10
3726.164288138237
 20
-235.8721602882788
 10
3725.78089891452
 20
-235.3550083692699
 10
3725.404979399432
 20
-234.8332065558068
 10
3725.036588035152
 20
-234.3068173109707
 10
3724.675783263865
 20
-233.7759030978457
 10
3724.322623527751
 20
-233.2405263795128
 10
3723.977167268991
 20
-232.7007496190567
 10
3723.639472929767
 20
-232.1566352795608
 10
3723.309598952262
 20
-231.6082458241058
 10
3722.987603778656
 20
-231.0556437157747
 10
3722.673545851132
 20
-230.4988914176527
 10
3722.367483611871
 20
-229.9380513928209
 10
3722.069475503055
 20
-229.3731861043627
 10
3721.779579966864
 20
-228.8043580153598
 10
3721.497855445483
 20
-228.2316295888968
 10
3721.22436038109
 20
-227.6550632880549
 10
3720.959153215869
 20
-227.0747215759188
 10
3720.702292392001
 20
-226.4906669155698
 10
3720.453836351667
 20
-225.9029617700917
 10
3720.21384353705
 20
-225.3116686025667
 10
3719.982372390331
 20
-224.7168498760786
 10
3719.759481353692
 20
-224.1185680537098
 10
3719.545228869314
 20
-223.5168855985437
 10
3719.339673379379
 20
-222.9118649736609
 10
3719.142873326069
 20
-222.3035686421458
 10
3718.741423307827
 20
-221.1877921054297
 10
3718.360974639759
 20
-220.0673930420778
 10
3718.001542385309
 20
-218.9426070234567
 10
3717.66314160792
 20
-217.8136696209378
 10
3717.345787371035
 20
-216.6808164058898
 10
3717.049494738098
 20
-215.5442829496828
 10
3716.774278772553
 20
-214.4043048236826
 10
3716.520154537843
 20
-213.2611175992638
 10
3716.28713709741
 20
-212.1149568477906
 10
3716.075241514699
 20
-210.9660581406347
 10
3715.884482853154
 20
-209.8146570491647
 10
3715.714876176216
 20
-208.6609891447497
 10
3715.566436547331
 20
-207.5052899987588
 10
3715.43917902994
 20
-206.3477951825618
 10
3715.333118687488
 20
-205.1887402675268
 10
3715.248270583418
 20
-204.0283608250238
 10
3715.184649781174
 20
-202.8668924264239
 10
3715.142271344197
 20
-201.7045706430918
 10
3715.121150335934
 20
-200.5416310463988
 10
3715.121301819826
 20
-199.3783092077158
 10
3715.142740859317
 20
-198.2148406984097
 10
3715.18548251785
 20
-197.0514610898508
 10
3715.249541858869
 20
-195.8884059534077
 10
3715.334933945817
 20
-194.7259108604496
 10
3715.441673842138
 20
-193.5642113823469
 10
3715.569776611274
 20
-192.4035430904678
 10
3715.719257316671
 20
-191.2441415561798
 10
3715.890131021769
 20
-190.0862423508547
 10
3716.082412790015
 20
-188.9300810458619
 10
3716.29611768485
 20
-187.7758932125678
 10
3716.531260769717
 20
-186.6239144223439
 10
3716.886774872652
 20
-185.0312353765907
  0
LWPOLYLINE
  5
4BFD
330
4B6C
100
AcDbEntity
  8
5MM
 62
     0
100
AcDbPolyline
 90
      440
 70
     0
 43
0.0
 10
3697.305965897589
 20
-24.49638009226192
 10
3695.034397462651
 20
-27.86492520918478
 10
3694.34550605661
 20
-28.90041579064382
 10
3692.989686280951
 20
-30.98050702922569
 10
3691.66318906348
 20
-33.07254106010373
 10
3690.366060615742
 20
-35.1762731129727
 10
3689.098347149285
 20
-37.29145841752188
 10
3687.860094875659
 20
-39.41785220344491
 10
3686.651350006408
 20
-41.55520970043471
 10
3685.472158753082
 20
-43.70328613818265
 10
3684.322567327228
 20
-45.86183674638164
 10
3683.202621940394
 20
-48.03061675472577
 10
3682.112368804127
 20
-50.20938139290274
 10
3681.051854129975
 20
-52.39788589060982
 10
3680.021124129485
 20
-54.59588547753765
 10
3679.020225014205
 20
-56.80313538337668
 10
3678.049202995683
 20
-59.01939083782076
 10
3677.108104285466
 20
-61.24440707056374
 10
3676.196975095101
 20
-63.47793931129467
 10
3675.315861636137
 20
-65.71974278970879
 10
3674.464810120121
 20
-67.96957273549674
 10
3673.6438667586
 20
-70.2271843783517
 10
3672.853077763122
 20
-72.49233294796681
 10
3672.092489345236
 20
-74.76477367403163
 10
3671.362147716487
 20
-77.0442617862418
 10
3670.662099088424
 20
-79.33055251428777
 10
3669.992389672595
 20
-81.6234010878618
 10
3669.353065680546
 20
-83.9225627366568
 10
3668.744173323827
 20
-86.22779269036573
 10
3668.165758813984
 20
-88.53884617868084
 10
3667.617868362564
 20
-90.85547843129189
 10
3667.100548181116
 20
-93.17744467789362
 10
3666.613844481187
 20
-95.50450014817874
 10
3666.157803474324
 20
-97.83640007183885
 10
3665.732471372076
 20
-100.1728996785668
 10
3665.33789438599
 20
-102.5137541980527
 10
3664.974118727613
 20
-104.8587188599917
 10
3664.641190608493
 20
-107.2075488940747
 10
3664.339156240178
 20
-109.5599995299949
 10
3664.068061834214
 20
-111.9158259974428
 10
3663.82795360215
 20
-114.2747835261136
 10
3663.618877755534
 20
-116.6366273456979
 10
3663.440880505913
 20
-119.0011126858878
 10
3663.294008064834
 20
-121.3679947763758
 10
3663.178306643845
 20
-123.7370288468557
 10
3663.093822454494
 20
-126.1079701270177
 10
3663.040601708328
 20
-128.4805738465559
 10
3663.018690616896
 20
-130.8545952351617
 10
3663.028135391743
 20
-133.2297895225279
 10
3663.068982244419
 20
-135.6059119383458
 10
3663.141277386471
 20
-137.9827177123097
 10
3663.245067029445
 20
-140.3599620741108
 10
3663.38039738489
 20
-142.7374002534397
 10
3663.547314664355
 20
-145.1147874799917
 10
3663.745865079385
 20
-147.4918789834578
 10
3663.857017153845
 20
-148.6802373483126
 10
3663.976094841527
 20
-149.8684299935307
 10
3664.103103918876
 20
-151.0564263228248
 10
3664.238050162333
 20
-152.2441957399028
 10
3664.380939348342
 20
-153.4317076484797
 10
3664.531777253347
 20
-154.6189314522657
 10
3664.69056965379
 20
-155.8058365549727
 10
3664.857322326116
 20
-156.9923923603117
 10
3665.032041046769
 20
-158.1785682719967
 10
3665.21473159219
 20
-159.3643336937359
 10
3665.405399738825
 20
-160.5496580292417
 10
3665.604051263115
 20
-161.7345106822267
 10
3665.810691941506
 20
-162.9188610564017
 10
3666.02532755044
 20
-164.1026785554777
 10
3666.247963866361
 20
-165.2859325831668
 10
3666.478606665712
 20
-166.4685925431817
 10
3666.717261724937
 20
-167.6506278392328
 10
3666.963934820478
 20
-168.8320078750328
 10
3667.21863172878
 20
-170.0127020542907
 10
3667.481358226285
 20
-171.1926797807198
 10
3667.752120089438
 20
-172.3719104580318
 10
3668.030923094683
 20
-173.5503634899378
 10
3668.115125279122
 20
-173.9902771953047
 10
3668.20801125689
 20
-174.4275692917438
 10
3668.309504109443
 20
-174.8621629485738
 10
3668.419526918238
 20
-175.2939813351179
 10
3668.538002764732
 20
-175.7229476206948
 10
3668.66485473038
 20
-176.1489849746285
 10
3668.800005896639
 20
-176.5720165662367
 10
3668.943379344967
 20
-176.9919655648436
 10
3669.094898156819
 20
-177.4087551397688
 10
3669.254485413652
 20
-177.8223084603328
 10
3669.422064196923
 20
-178.2325486958568
 10
3669.597557588089
 20
-178.6393990156627
 10
3669.780888668605
 20
-179.0427825890708
 10
3669.971980519929
 20
-179.4426225854026
 10
3670.170756223516
 20
-179.8388421739798
 10
3670.377138860824
 20
-180.2313645241208
 10
3670.591051513309
 20
-180.6201128051477
 10
3670.812417262428
 20
-181.0050101863846
 10
3671.041159189638
 20
-181.3859798371479
 10
3671.277200376394
 20
-181.7629449267617
 10
3671.520463904154
 20
-182.1358286245468
 10
3671.770872854373
 20
-182.5045540998219
 10
3672.028350308509
 20
-182.8690445219099
 10
3672.292819348019
 20
-183.2292230601317
 10
3672.564203054357
 20
-183.5850128838087
 10
3672.842424508983
 20
-183.9363371622619
 10
3673.127406793351
 20
-184.2831190648107
 10
3673.419072988919
 20
-184.6252817607778
 10
3673.717346177142
 20
-184.9627484194827
 10
3674.022149439478
 20
-185.2954422102486
 10
3674.333405857384
 20
-185.6232863023947
 10
3674.651038512315
 20
-185.9462038652436
 10
3674.974970485728
 20
-186.2641180681148
 10
3675.305124859079
 20
-186.5769520803299
 10
3675.641424713827
 20
-186.8846290712088
 10
3675.983793131428
 20
-187.1870722100757
 10
3676.332153193335
 20
-187.4842046662488
 10
3676.686427981009
 20
-187.7759496090489
 10
3677.046540575904
 20
-188.0622302077988
 10
3677.412414059477
 20
-188.3429696318198
 10
3677.783971513186
 20
-188.6180910504308
 10
3678.161136018485
 20
-188.8875176329538
 10
3678.543830656832
 20
-189.1511725487098
 10
3678.931978509685
 20
-189.4089789670209
 10
3679.325502658499
 20
-189.6608600572067
 10
3679.724326184729
 20
-189.9067389885879
 10
3680.128372169835
 20
-190.1465389304878
 10
3680.537563695271
 20
-190.3801830522247
 10
3680.951823842494
 20
-190.6075945231207
 10
3681.371075692962
 20
-190.8286965124987
 10
3681.795242328131
 20
-191.0434121896769
 10
3682.224246829456
 20
-191.2516647239779
 10
3682.658012278395
 20
-191.4533772847217
 10
3683.096461756405
 20
-191.6484730412308
 10
3683.539518344941
 20
-191.8368751628247
 10
3683.98710512546
 20
-192.0185068188248
 10
3684.43914517942
 20
-192.1932911785527
 10
3684.895561588276
 20
-192.3611514113288
 10
3685.356277433486
 20
-192.5220106864756
 10
3685.821215796505
 20
-192.6757921733117
 10
3686.29029975879
 20
-192.8224190411608
 10
3686.763452401798
 20
-192.9618144593407
 10
3687.240596806987
 20
-193.0939015971758
 10
3687.72165605581
 20
-193.2186036239848
 10
3688.212840729573
 20
-193.3232847509116
 10
3688.704780292904
 20
-193.4202474265367
 10
3689.197375098397
 20
-193.5095184414676
 10
3689.690525498651
 20
-193.5911245863187
 10
3690.184131846265
 20
-193.6650926516988
 10
3690.678094493833
 20
-193.7314494282186
 10
3691.172313793955
 20
-193.7902217064888
 10
3691.666690099226
 20
-193.8414362771186
 10
3692.655515135607
 20
-193.9212994579047
 10
3693.643772423755
 20
-193.9712532954586
 10
3694.630664784447
 20
-193.9915121146668
 10
3695.61539503846
 20
-193.9822902404116
 10
3696.597166006573
 20
-193.9438019975798
 10
3697.575180509563
 20
-193.8762617110537
 10
3698.548641368208
 20
-193.7798837057166
 10
3699.516751403287
 20
-193.6548823064556
 10
3700.478713435575
 20
-193.5014718381537
 10
3701.433730285851
 20
-193.3198666256958
 10
3702.381004774895
 20
-193.1102809939639
 10
3703.319739723482
 20
-192.8729292678438
 10
3704.24913795239
 20
-192.6080257722196
 10
3705.168402282397
 20
-192.3157848319767
 10
3706.076735534281
 20
-191.9964207719968
 10
3706.97334052882
 20
-191.6501479171668
 10
3707.857420086792
 20
-191.2771805923696
 10
3708.728177028973
 20
-190.8777331224898
 10
3709.584814176143
 20
-190.4520198324128
 10
3710.426534349078
 20
-190.0002550470199
 10
3711.252540368557
 20
-189.5226530911968
 10
3711.659401452243
 20
-189.2742301509017
 10
3712.062035055357
 20
-189.0194282898296
 10
3712.460341530495
 20
-188.7582742985917
 10
3712.854221230255
 20
-188.4907949677997
 10
3713.243574507234
 20
-188.2170170880638
 10
3713.62830171403
 20
-187.9369674499937
 10
3714.00830320324
 20
-187.6506728442007
 10
3714.38347932746
 20
-187.3581600612947
 10
3714.753730439289
 20
-187.0594558918858
 10
3715.118956891322
 20
-186.7545871265856
 10
3715.479059036157
 20
-186.4435805560058
 10
3715.833937226393
 20
-186.1264629707539
 10
3716.183491814625
 20
-185.8032611614419
 10
3716.527623153452
 20
-185.4740019186806
 10
3716.99374981473
 20
-184.8993553864309
 10
3717.448436076818
 20
-184.3193191114046
 10
3717.891663445485
 20
-183.7340232780698
 10
3718.323413426499
 20
-183.1435980708956
 10
3718.743667525628
 20
-182.5481736743497
 10
3719.152407248639
 20
-181.9478802728988
 10
3719.549614101302
 20
-181.3428480510117
 10
3719.935269589384
 20
-180.7332071931557
 10
3720.309355218654
 20
-180.1190878837997
 10
3720.671852494878
 20
-179.5006203074117
 10
3721.022742923827
 20
-178.8779346484577
 10
3721.362008011268
 20
-178.2511610914077
 10
3721.689629262968
 20
-177.6204298207285
 10
3722.005588184697
 20
-176.9858710208877
 10
3722.309866282222
 20
-176.3476148763548
 10
3722.602445061311
 20
-175.7057915715957
 10
3722.883306027732
 20
-175.0605312910797
 10
3723.152430687255
 20
-174.4119642192747
 10
3723.409800545645
 20
-173.7602205406476
 10
3723.655397108674
 20
-173.1054304396677
 10
3723.889201882105
 20
-172.4477241008008
 10
3724.111196371712
 20
-171.7872317085166
 10
3724.321362083259
 20
-171.1240834472837
 10
3724.519680522515
 20
-170.4584095015689
 10
3724.706133195249
 20
-169.7903400558377
 10
3724.880701607228
 20
-169.1200052945628
 10
3725.043367264221
 20
-168.4475354022088
 10
3725.194111671996
 20
-167.7730605632437
 10
3725.332916336321
 20
-167.0967109621367
 10
3725.459762762965
 20
-166.4186167833547
 10
3725.574632457693
 20
-165.7389082113677
 10
3725.677506926277
 20
-165.0577154306406
 10
3725.768367674483
 20
-164.3751686256428
 10
3725.847196208081
 20
-163.6913979808428
 10
3725.913974032836
 20
-163.0065336807076
 10
3725.968682654518
 20
-162.3207059097058
 10
3726.011303578895
 20
-161.6340448523037
 10
3726.041818311735
 20
-160.9466806929699
 10
3726.060208358808
 20
-160.2587436161736
 10
3726.066455225879
 20
-159.5703638063828
 10
3726.060540418717
 20
-158.8816714480626
 10
3726.042445443091
 20
-158.1927967256838
 10
3726.012151804769
 20
-157.5038698237138
 10
3725.969641009519
 20
-156.8150209266198
 10
3725.914894563109
 20
-156.1263802188677
 10
3725.847893971308
 20
-155.4380778849297
 10
3725.768620739881
 20
-154.7502441092717
 10
3725.6770563746
 20
-154.0630090763597
 10
3725.573182381231
 20
-153.3765029706658
 10
3725.456980265543
 20
-152.6908559766536
 10
3725.328431533303
 20
-152.0061982787938
 10
3725.187517690282
 20
-151.3226600615537
 10
3725.034220242244
 20
-150.6403715094009
 10
3724.86852069496
 20
-149.9594628068028
 10
3724.690400554197
 20
-149.2800641382277
 10
3724.499841325723
 20
-148.6023056881438
 10
3724.296824515307
 20
-147.9263176410197
 10
3724.081331628717
 20
-147.2522301813208
 10
3723.85334417172
 20
-146.5801734935187
 10
3723.612843650085
 20
-145.9102777620778
 10
3723.359811569582
 20
-145.2426731714667
 10
3723.094229435974
 20
-144.5774899061557
 10
3722.816078755034
 20
-143.9148581506117
 10
3722.525341032529
 20
-143.2549080892997
 10
3723.529605924501
 20
-143.5232897675128
 10
3724.538772994829
 20
-143.7669924810209
 10
3725.552303885368
 20
-143.9860731143387
 10
3726.569660237974
 20
-144.1805885519868
 10
3727.590303694503
 20
-144.3505956784786
 10
3728.613695896811
 20
-144.4961513783348
 10
3729.639298486752
 20
-144.6173125360708
 10
3730.666573106185
 20
-144.7141360362047
 10
3731.694981396962
 20
-144.7866787632517
 10
3732.723985000941
 20
-144.8349976017307
 10
3733.753045559979
 20
-144.8591494361576
 10
3734.781624715928
 20
-144.8591911510518
 10
3735.809184110646
 20
-144.8351796309268
 10
3736.83518538599
 20
-144.7871717603027
 10
3737.859090183814
 20
-144.7152244236956
 10
3738.880360145973
 20
-144.6193945056227
 10
3739.898456914325
 20
-144.4997388906017
 10
3740.912842130725
 20
-144.3563144631478
 10
3741.922977437028
 20
-144.1891781077797
 10
3742.928324475091
 20
-143.9983867090147
 10
3743.928344886768
 20
-143.7839971513697
 10
3744.922500313916
 20
-143.5460663193607
 10
3745.910252398391
 20
-143.2846510975057
 10
3746.891062782049
 20
-142.9998083703237
 10
3747.864393106744
 20
-142.6915950223276
 10
3748.829705014333
 20
-142.3600679380388
 10
3749.786460146672
 20
-142.0052840019718
 10
3750.734120145617
 20
-141.6273000986448
 10
3751.672146653022
 20
-141.2261731125736
 10
3752.600001310745
 20
-140.8019599282768
 10
3753.51714576064
 20
-140.3547174302719
 10
3754.423041644564
 20
-139.8845025030748
 10
3755.062207345042
 20
-139.4149024054038
 10
3755.675864121879
 20
-138.9315613065418
 10
3756.264111738242
 20
-138.4350269521608
 10
3756.827049957292
 20
-137.9258470879347
 10
3757.364778542196
 20
-137.4045694595397
 10
3757.87739725612
 20
-136.8717418126477
 10
3758.365005862227
 20
-136.3279118929347
 10
3758.827704123684
 20
-135.7736274460737
 10
3759.265591803654
 20
-135.2094362177408
 10
3759.678768665302
 20
-134.6358859536067
 10
3760.067334471793
 20
-134.0535243993488
 10
3760.431388986293
 20
-133.4628993006397
 10
3760.771031971965
 20
-132.8645584031537
 10
3761.086363191976
 20
-132.2590494525648
 10
3761.37748240949
 20
-131.6469201945487
 10
3761.64448938767
 20
-131.0287183747787
 10
3761.887483889684
 20
-130.4049917389268
 10
3762.106565678696
 20
-129.7762880326706
 10
3762.30183451787
 20
-129.1431550016827
 10
3762.473390170371
 20
-128.5061403916368
 10
3762.621332399365
 20
-127.8657919482089
 10
3762.745760968015
 20
-127.2226574170709
 10
3762.846775639488
 20
-126.5772845438969
 10
3762.924476176947
 20
-125.9302210743638
 10
3762.978962343558
 20
-125.2820147541429
 10
3763.010333902486
 20
-124.6332133289108
 10
3763.018690616896
 20
-123.9843645443397
 10
3763.004132249951
 20
-123.3360161461048
 10
3762.966758564818
 20
-122.6887158798806
 10
3762.906669324662
 20
-122.0430114913388
 10
3762.823964292646
 20
-121.3994507261568
 10
3762.718743231937
 20
-120.7585813300077
 10
3762.591105905698
 20
-120.1209510485657
 10
3762.441152077095
 20
-119.4871076275037
 10
3762.268981509293
 20
-118.8575988124969
 10
3762.074693965456
 20
-118.2329723492198
 10
3761.858389208749
 20
-117.6137759833459
 10
3761.620167002339
 20
-117.0005574605498
 10
3761.360127109388
 20
-116.3938645265048
 10
3761.078369293063
 20
-115.7942449268878
 10
3760.774993316526
 20
-115.2022464073698
 10
3760.450098942945
 20
-114.6184167136266
 10
3760.103785935485
 20
-114.0433035913306
 10
3759.736154057308
 20
-113.4774547861589
 10
3759.347303071582
 20
-112.9214180437827
 10
3758.937332741469
 20
-112.3757411098797
 10
3758.506342830135
 20
-111.8409717301208
 10
3758.054433100747
 20
-111.3176576501807
 10
3757.581703316468
 20
-110.8063466157348
 10
3757.088253240461
 20
-110.3075863724568
 10
3756.574182635894
 20
-109.8219246660208
 10
3756.039591265932
 20
-109.3499092420998
 10
3755.484578893736
 20
-108.8920878463698
 10
3754.909245282476
 20
-108.4490082245058
 10
3754.313690195314
 20
-108.0212181221786
 10
3753.698013395414
 20
-107.6092652850648
 10
3753.062314645943
 20
-107.2136974588377
 10
3752.406693710065
 20
-106.8350623891729
 10
3751.731250350945
 20
-106.4739078217417
 10
3751.036084331749
 20
-106.1307815022207
 10
3750.32129541564
 20
-105.8062311762837
 10
3749.586983365783
 20
-105.5008045896047
 10
3748.833247945344
 20
-105.2150494878578
 10
3748.060188917487
 20
-104.9495136167168
 10
3747.217974362043
 20
-104.7081466024228
 10
3746.38511438269
 20
-104.4516509527977
 10
3745.561768369193
 20
-104.1802356531536
 10
3744.748095711326
 20
-103.8941096888018
 10
3743.944255798854
 20
-103.5934820450547
 10
3743.150408021548
 20
-103.2785617072247
 10
3742.366711769175
 20
-102.9495576606207
 10
3741.593326431507
 20
-102.6066788905568
 10
3740.830411398309
 20
-102.2501343823437
 10
3740.078126059355
 20
-101.8801331212937
 10
3739.33662980441
 20
-101.4968840927185
 10
3738.606082023244
 20
-101.1005962819288
 10
3737.886642105627
 20
-100.6914786742379
 10
3737.178469441327
 20
-100.2697402549558
 10
3736.481723420113
 20
-99.83559000939477
 10
3735.796563431755
 20
-99.38923692286676
 10
3735.12314886602
 20
-98.93088998068378
 10
3734.461639112679
 20
-98.46075816815687
 10
3733.8121935615
 20
-97.97905047059884
 10
3733.174971602251
 20
-97.48597587332074
 10
3732.550132624703
 20
-96.98174336163379
 10
3731.937836018624
 20
-96.4665619208497
 10
3731.338241173783
 20
-95.94064053628086
 10
3730.751507479948
 20
-95.40418819323894
 10
3730.177794326891
 20
-94.85741387703479
 10
3729.617261104377
 20
-94.30052657298075
 10
3729.070067202179
 20
-93.73373526638898
 10
3728.536372010062
 20
-93.15724894257073
 10
3728.016334917798
 20
-92.5712765868368
 10
3727.510115315154
 20
-91.9760271845007
 10
3727.0178725919
 20
-91.37170972087279
 10
3726.539766137806
 20
-90.75853318126474
 10
3726.075955342639
 20
-90.13670655098781
 10
3725.626599596168
 20
-89.50643881535688
 10
3725.191858288164
 20
-88.86793895967981
 10
3724.771890808394
 20
-88.22141596927076
 10
3724.366856546629
 20
-87.56707882943874
 10
3723.976914892635
 20
-86.90513652549885
 10
3723.602225236184
 20
-86.23579804276074
 10
3723.242946967042
 20
-85.55927236653587
 10
3722.899239474981
 20
-84.87576848213667
 10
3722.571262149769
 20
-84.18549537487592
 10
3722.259174381174
 20
-83.48866203006265
 10
3721.963135558965
 20
-82.78547743301169
 10
3721.683305072912
 20
-82.0761505690316
 10
3721.419842312783
 20
-81.36089042343678
 10
3721.172906668349
 20
-80.63990598153782
 10
3720.942657529376
 20
-79.91340622864573
 10
3720.729254285635
 20
-79.18160015007379
 10
3720.532856326895
 20
-78.44469673113167
 10
3720.353623042924
 20
-77.70290495713175
 10
3720.191713823491
 20
-76.95643381338777
 10
3720.047288058366
 20
-76.20549228520781
 10
3719.920505137318
 20
-75.45028935790765
 10
3719.811524450113
 20
-74.69103401679581
 10
3719.720505386524
 20
-73.92793524718581
 10
3719.647607336319
 20
-73.16120203438777
 10
3719.592989689264
 20
-72.39104336371474
 10
3719.556811835133
 20
-71.61766822047866
 10
3719.53923316369
 20
-70.84128558998895
 10
3719.540413064707
 20
-70.06210445756074
 10
3719.560510927952
 20
-69.28033380850274
 10
3719.599686143194
 20
-68.49618262812782
 10
3719.658098100203
 20
-67.70985990174768
 10
3719.665293630728
 20
-66.52330562578277
 10
3719.701886511459
 20
-65.33940514356164
 10
3719.767715262241
 20
-64.15855806812579
 10
3719.862618402913
 20
-62.98116401251764
 10
3719.986434453318
 20
-61.80762258978075
 10
3720.139001933301
 20
-60.63833341295662
 10
3720.320159362702
 20
-59.47369609508882
 10
3720.529745261364
 20
-58.31411024921886
 10
3720.767598149129
 20
-57.15997548838982
 10
3721.03355654584
 20
-56.01169142564572
 10
3721.327458971339
 20
-54.86965767402671
 10
3721.649143945468
 20
-53.7342738465768
 10
3721.99844998807
 20
-52.60593955633976
 10
3722.375215618987
 20
-51.48505441635575
 10
3722.779279358061
 20
-50.37201803966877
 10
3723.210479725135
 20
-49.26723003932079
 10
3723.668655240051
 20
-48.17109002835491
 10
3724.153644422652
 20
-47.08399761981468
 10
3724.66528579278
 20
-46.0063524267407
 10
3725.203417870277
 20
-44.93855406217585
 10
3725.767879174985
 20
-43.8810021391639
 10
3726.358508226746
 20
-42.83409627074775
 10
3726.975143545405
 20
-41.79823606996978
 10
3727.617623650802
 20
-40.77382114987085
 10
3728.285787062781
 20
-39.76125112349587
 10
3728.979472301182
 20
-38.76092560388475
 10
3729.69851788585
 20
-37.77324420408286
 10
3730.442762336624
 20
-36.79860653713172
 10
3731.21204417335
 20
-35.83741221607374
 10
3732.006201915869
 20
-34.89006085395272
 10
3732.825074084022
 20
-33.95695206380992
 10
3732.888001884853
 20
-33.88842543036776
  0
LWPOLYLINE
  5
4BFE
330
4B6C
100
AcDbEntity
  8
5MM
 62
     0
100
AcDbPolyline
 90
      481
 70
     0
 43
0.0
 10
3734.782763942926
 20
97.42549997572337
 10
3735.410510417085
 20
96.7216698298621
 10
3736.033157864496
 20
96.01414395967607
 10
3736.648904282031
 20
95.30262024079116
 10
3737.257741009312
 20
94.58714200795407
 10
3737.859659385963
 20
93.86775259591003
 10
3738.454650751608
 20
93.14449533940615
 10
3739.042706445868
 20
92.41741357318801
 10
3739.623817808368
 20
91.68655063200208
 10
3740.197976178731
 20
90.95194985059402
 10
3740.76517289658
 20
90.21365456371006
 10
3741.325399301537
 20
89.471708106096
 10
3741.878646733227
 20
88.72615381249909
 10
3742.424906531271
 20
87.9770350176641
 10
3742.964170035294
 20
87.22439505633804
 10
3743.496428584918
 20
86.46827726326614
 10
3744.021673519767
 20
85.70872497319612
 10
3744.539896179463
 20
84.94578152087205
 10
3745.051087903629
 20
84.17949024104201
 10
3745.555240031891
 20
83.40989446845105
 10
3746.052343903869
 20
82.63703753784511
 10
3746.542390859187
 20
81.8609627839711
 10
3747.025372237469
 20
81.08171354157411
 10
3747.501279378337
 20
80.29933314540096
 10
3747.970103621415
 20
79.51386493019822
 10
3748.431836306326
 20
78.72535223071031
 10
3748.886468772691
 20
77.93383838168506
 10
3749.333992360136
 20
77.13936671786814
 10
3749.774398408284
 20
76.34198057400522
 10
3750.207678256757
 20
75.54172328484333
 10
3750.633823245177
 20
74.73863818512723
 10
3751.05282471317
 20
73.93276860960418
 10
3751.464674000357
 20
73.12415789301917
 10
3751.869362446362
 20
72.31284937011924
 10
3752.266881390808
 20
71.49888637565118
 10
3752.657222173318
 20
70.68231224436022
 10
3753.040376133515
 20
69.86317031099111
 10
3753.416334611023
 20
69.04150391029225
 10
3753.785088945464
 20
68.21735637700931
 10
3754.146630476462
 20
67.39077104588727
 10
3754.500950543639
 20
66.56179125167319
 10
3754.848040486619
 20
65.73046032911225
 10
3755.187891645026
 20
64.89682161295218
 10
3755.520495358481
 20
64.06091843793729
 10
3755.845842966608
 20
63.22279413881529
 10
3756.163925809032
 20
62.38249205033117
 10
3756.474735225373
 20
61.54005550723127
 10
3756.778262555257
 20
60.69552784426218
 10
3757.074499138305
 20
59.84895239617026
 10
3757.363436314141
 20
59.00037249770026
 10
3757.645065422388
 20
58.1498314835992
 10
3757.919377802669
 20
57.29737268861322
 10
3758.186364794609
 20
56.44303944748822
 10
3758.446017737828
 20
55.58687509497122
 10
3758.698327971951
 20
54.72892296580721
 10
3758.943286836601
 20
53.86922639474232
 10
3759.1808856714
 20
53.00782871652336
 10
3759.411115815972
 20
52.14477326589531
 10
3759.633968609942
 20
51.2801033776052
 10
3759.849435392929
 20
50.41386238639915
 10
3760.057507504559
 20
49.54609362702422
 10
3760.258176284455
 20
48.67684043422423
 10
3760.45143307224
 20
47.80614614274713
 10
3760.637269207537
 20
46.93405408733815
 10
3760.815676029968
 20
46.06060760274431
 10
3760.986644879158
 20
45.18585002371014
 10
3761.150167094728
 20
44.30982468498314
 10
3761.306234016304
 20
43.43257492130919
 10
3761.454836983507
 20
42.55414406743329
 10
3761.59596733596
 20
41.67457545810316
 10
3761.729616413287
 20
40.79391242806423
 10
3761.855775555111
 20
39.91219831206331
 10
3761.974436101055
 20
39.02947644484516
 10
3762.085589390742
 20
38.14579016115636
 10
3762.189226763795
 20
37.26118279574325
 10
3762.285339559838
 20
36.3756976833522
 10
3762.373919118494
 20
35.48937815872932
 10
3762.454956779385
 20
34.60226755661916
 10
3762.528443882136
 20
33.71440921177009
 10
3762.594371766368
 20
32.82584645892825
 10
3762.652731771705
 20
31.93662263283727
 10
3762.70351523777
 20
31.04678106824622
 10
3762.746713504187
 20
30.15636509989827
 10
3762.782317910578
 20
29.26541806254227
 10
3762.810319796567
 20
28.3739832909223
 10
3762.830710501777
 20
27.48210411978539
 10
3762.843481365831
 20
26.58982388387812
 10
3762.848623728351
 20
25.69718591794526
 10
3762.846128928962
 20
24.80423355673429
 10
3762.835988307286
 20
23.91101013499019
 10
3762.818193202947
 20
23.01755898746023
 10
3762.792734955567
 20
22.12392344889031
 10
3762.759604904771
 20
21.23014685402518
 10
3762.718794390179
 20
20.33627253761324
 10
3762.670294751417
 20
19.44234383439811
 10
3762.614097328107
 20
18.54840407912707
 10
3762.550193459873
 20
17.65449660654712
 10
3762.478574486336
 20
16.76066475140328
 10
3762.399231747121
 20
15.86695184844211
 10
3762.312156581851
 20
14.97340123240929
 10
3762.217340330149
 20
14.08005623805116
 10
3762.114774331637
 20
13.18696020011316
 10
3762.00444992594
 20
12.29415645334325
 10
3761.88635845268
 20
11.40168833248526
 10
3761.760491251479
 20
10.50959917228829
 10
3761.626839661963
 20
9.617932307495266
 10
3761.485395023753
 20
8.726731072853226
 10
3761.336148676474
 20
7.836038803110113
 10
3761.179091959746
 20
6.945898833010232
 10
3761.014216213195
 20
6.056354497299253
 10
3760.841512776443
 20
5.167449130725117
 10
3760.660972989113
 20
4.279226068033267
 10
3760.472588190829
 20
3.391728643968235
 10
3760.276349721213
 20
2.505000193278192
 10
3760.072248919889
 20
1.619084050709261
 10
3759.86027712648
 20
0.734023551006203
 10
3759.640425680608
 20
-0.1501379710848596
 10
3759.412685921898
 20
-1.033357180816892
 10
3759.177049189972
 20
-1.915590743443772
 10
3758.933506824453
 20
-2.796795324219829
 10
3758.682050164965
 20
-3.676927588398712
 10
3758.42267055113
 20
-4.555944201233842
 10
3758.155359322572
 20
-5.433801827980914
 10
3757.880107818915
 20
-6.310457133891759
 10
3757.59690737978
 20
-7.185866784220706
 10
3757.305749344791
 20
-8.05998744422277
 10
3757.006625053571
 20
-8.932775779150688
 10
3756.699525845744
 20
-9.804188454258792
 10
3756.384443060932
 20
-10.67418213480073
 10
3756.170496959709
 20
-11.31998353985864
 10
3755.944256792697
 20
-11.95996036352176
 10
3755.705861905247
 20
-12.59400544985374
 10
3755.455451642709
 20
-13.22201164292278
 10
3755.193165350434
 20
-13.84387178679481
 10
3754.919142373772
 20
-14.45947872553484
 10
3754.633522058072
 20
-15.06872530321084
 10
3754.336443748687
 20
-15.6715043638867
 10
3754.028046790965
 20
-16.26770875163083
 10
3753.708470530257
 20
-16.85723131050667
 10
3753.377854311913
 20
-17.43996488458288
 10
3753.036337481284
 20
-18.01580231792377
 10
3752.68405938372
 20
-18.58463645459778
 10
3752.321159364571
 20
-19.14636013866789
 10
3751.947776769186
 20
-19.70086621420273
 10
3751.564050942918
 20
-20.24804752526666
 10
3751.170121231115
 20
-20.78779691592786
 10
3750.766126979129
 20
-21.32000723024976
 10
3750.352207532309
 20
-21.84457131230193
 10
3749.928502236006
 20
-22.36138200614664
 10
3749.49515043557
 20
-22.87033215585279
 10
3749.052291476351
 20
-23.37131460548562
 10
3748.6000647037
 20
-23.86422219911083
 10
3748.138609462966
 20
-24.34894778079479
 10
3747.6680650995
 20
-24.8253841946048
 10
3747.188570958653
 20
-25.29342428460473
 10
3746.700266385775
 20
-25.75296089486278
 10
3746.203290726215
 20
-26.20388686944375
 10
3745.697783325325
 20
-26.64609505241469
 10
3745.183883528453
 20
-27.07947828784086
 10
3744.661730680952
 20
-27.50392941978885
 10
3744.131464128172
 20
-27.91934129232459
 10
3743.59322321546
 20
-28.32560674951469
 10
3743.04714728817
 20
-28.72261863542485
 10
3742.49337569165
 20
-29.11026979412077
 10
3741.932047771252
 20
-29.48845306966882
 10
3741.363302872325
 20
-29.85706130613585
 10
3740.78728034022
 20
-30.21598734758686
 10
3740.204119520285
 20
-30.56512403808984
 10
3739.613959757874
 20
-30.90436422170865
 10
3739.016940398336
 20
-31.23360074251082
 10
3738.413200787018
 20
-31.55272644456181
 10
3737.802880269276
 20
-31.86163417192779
 10
3737.186118190456
 20
-32.1602167686749
 10
3736.56305389591
 20
-32.44836707886975
 10
3735.933826730987
 20
-32.72597794657873
 10
3735.298576041039
 20
-32.99294221586683
 10
3734.657441171414
 20
-33.24915273080092
 10
3734.010561467466
 20
-33.49450233544576
 10
3733.358076274541
 20
-33.72888387386979
 10
3732.700124937992
 20
-33.9521901901378
 10
3732.036846803168
 20
-34.16431412831685
 10
3731.36838121542
 20
-34.36514853247081
 10
3730.694867520099
 20
-34.55458624666789
 10
3730.016445062553
 20
-34.73252011497379
 10
3729.333253188134
 20
-34.89884298145375
 10
3728.645431242192
 20
-35.05344769017574
 10
3727.953118570076
 20
-35.19622708520365
 10
3727.256454517139
 20
-35.32707401060475
 10
3726.55557842873
 20
-35.44588131044566
 10
3725.850629650196
 20
-35.55254182879185
 10
3725.141747526893
 20
-35.64694840970878
 10
3724.429071404168
 20
-35.72899389726376
 10
3723.712740627372
 20
-35.79857113552271
 10
3722.965113578454
 20
-35.87526396440876
 10
3722.220226570439
 20
-35.93297531911685
 10
3721.478348782462
 20
-35.9719173562728
 10
3720.739749393661
 20
-35.99230223250288
 10
3720.004697583173
 20
-35.99434210443565
 10
3719.273462530136
 20
-35.97824912869578
 10
3718.546313413688
 20
-35.94423546191274
 10
3717.823519412963
 20
-35.89251326071076
 10
3717.1053497071
 20
-35.82329468171884
 10
3716.392073475237
 20
-35.73679188156166
 10
3715.68395989651
 20
-35.63321701686869
 10
3714.981278150057
 20
-35.5127822442646
 10
3714.284297415016
 20
-35.37569972037682
 10
3713.593286870522
 20
-35.22218160183275
 10
3712.908515695713
 20
-35.05244004525889
 10
3712.230253069728
 20
-34.86668720728176
 10
3711.558768171702
 20
-34.66513524452876
 10
3710.894330180773
 20
-34.44799631362684
 10
3710.237208276078
 20
-34.21548257120185
 10
3709.587671636755
 20
-33.96780617388163
 10
3708.945989441941
 20
-33.70517927829178
 10
3708.312430870773
 20
-33.42781404106086
 10
3707.687265102388
 20
-33.13592261881467
 10
3707.070761315922
 20
-32.82971716818065
 10
3706.463188690515
 20
-32.50940984578574
 10
3705.864816405303
 20
-32.17521280825463
 10
3705.275913639422
 20
-31.82733821221678
 10
3704.696749572011
 20
-31.46599821429777
 10
3704.127593382207
 20
-31.09140497112572
 10
3703.568714249146
 20
-30.70377063932574
 10
3703.020381351965
 20
-30.30330737552595
 10
3702.482863869804
 20
-29.8902273363517
 10
3701.956430981797
 20
-29.46474267843178
 10
3701.441351867084
 20
-29.02706555839177
 10
3700.937895704799
 20
-28.57740813285886
 10
3700.446331674083
 20
-28.11598255845979
 10
3699.966928954069
 20
-27.64300099182174
 10
3699.499956723898
 20
-27.15867558957075
 10
3699.045684162705
 20
-26.66321850833492
 10
3698.604380449629
 20
-26.15684190474076
 10
3698.176314763805
 20
-25.63975793541386
 10
3697.761756284371
 20
-25.11217875698276
 10
3697.360974190465
 20
-24.5743165260717
 10
3696.974237661224
 20
-24.02638339931196
 10
3696.601815875786
 20
-23.46859153332685
 10
3696.243978013285
 20
-22.90115308474378
 10
3695.900993252862
 20
-22.32428021018995
 10
3695.573130773652
 20
-21.73818506629186
 10
3695.260659754793
 20
-21.14307980967783
 10
3694.963849375422
 20
-20.53917659697277
 10
3694.682968814677
 20
-19.92668758480476
 10
3694.418287251693
 20
-19.30582492979874
 10
3694.17007386561
 20
-18.67680078858484
 10
3693.938597835564
 20
-18.03982731778774
 10
3693.724128340692
 20
-17.39511667403485
 10
3693.526934560131
 20
-16.74288101395177
 10
3693.347285673019
 20
-16.08333249416682
 10
3693.185450858493
 20
-15.41668327130674
 10
3693.041699295689
 20
-14.74314550199778
 10
3692.916300163747
 20
-14.06293134286693
 10
3692.809522641801
 20
-13.37625295054181
 10
3692.721635908991
 20
-12.68332248164779
 10
3692.652909144452
 20
-11.98435209281365
 10
3692.603611527323
 20
-11.27955394066475
 10
3692.621392609684
 20
-10.39906653724483
 10
3692.65657041297
 20
-9.520202024121772
 10
3692.709072947178
 20
-8.643174628555698
 10
3692.778828222304
 20
-7.768198577809698
 10
3692.865764248347
 20
-6.895488099142767
 10
3692.969809035302
 20
-6.025257419815943
 10
3693.090890593168
 20
-5.157720767091859
 10
3693.228936931941
 20
-4.293092368228599
 10
3693.383876061619
 20
-3.43158645048993
 10
3693.555635992198
 20
-2.573417241135757
 10
3693.744144733677
 20
-1.718798967425755
 10
3693.94933029605
 20
-0.8679458566227822
 10
3694.171120689317
 20
-0.0210721359867421
 10
3694.409443923474
 20
0.8216079672213254
 10
3694.66422800852
 20
1.659880225740153
 10
3694.935400954448
 20
2.493530412309155
 10
3695.222890771258
 20
3.322344299668202
 10
3695.526625468947
 20
4.146107660554207
 10
3695.846533057512
 20
4.964606267708177
 10
3696.182541546949
 20
5.777625893868162
 10
3696.534578947258
 20
6.584952311773122
 10
3696.902573268433
 20
7.386371294163154
 10
3697.286452520472
 20
8.181668613776309
 10
3697.686144713373
 20
8.97063004335223
 10
3698.101577857133
 20
9.753041355629193
 10
3698.532679961748
 20
10.5286883233482
 10
3698.979379037216
 20
11.29735671924618
 10
3699.441603093534
 20
12.05883231606321
 10
3699.9192801407
 20
12.81290088653736
 10
3700.412338188709
 20
13.55934820340917
 10
3700.92070524756
 20
14.29796003941715
 10
3701.44430932725
 20
15.02852216729911
 10
3700.837190080618
 20
14.67364561265322
 10
3700.223801797969
 20
14.33023838129225
 10
3699.604331047886
 20
13.99834738813911
 10
3698.978964398957
 20
13.67801954811625
 10
3698.347888419768
 20
13.36930177614522
 10
3697.711289678903
 20
13.07224098714914
 10
3697.06935474495
 20
12.7868840960482
 10
3696.422270186494
 20
12.5132780177662
 10
3695.770222572122
 20
12.25146966722514
 10
3695.113398470418
 20
12.00150595934633
 10
3694.451984449969
 20
11.76343380905223
 10
3693.786167079362
 20
11.53730013126414
 10
3693.116132927182
 20
11.32315184090521
 10
3692.442068562016
 20
11.12103585289719
 10
3691.764160552448
 20
10.93099908216231
 10
3691.082595467065
 20
10.75308844362143
 10
3690.397559874453
 20
10.58735085219814
 10
3689.709240343198
 20
10.43383322281511
 10
3689.017823441886
 20
10.2925824703932
 10
3688.323495739104
 20
10.16364550985418
 10
3687.626443803436
 20
10.04706925612026
 10
3686.926854203469
 20
9.942900624115281
 10
3686.224913507789
 20
9.851186528759171
 10
3685.520808284981
 20
9.771973884974158
 10
3684.814725103632
 20
9.705309607684057
 10
3684.106850532329
 20
9.65124061181018
 10
3683.397371139656
 20
9.609813812273159
 10
3682.686473494199
 20
9.581076123997263
 10
3681.974344164545
 20
9.565074461903122
 10
3681.26116971928
 20
9.561855740914324
 10
3680.547136726989
 20
9.571466875950363
 10
3679.83243175626
 20
9.59395478193619
 10
3679.286779473558
 20
9.617285267915121
 10
3678.746748917539
 20
9.655849786368207
 10
3678.212526167365
 20
9.709394285045391
 10
3677.684297302199
 20
9.777664711698207
 10
3677.162248401204
 20
9.860407014078191
 10
3676.646565543544
 20
9.957367139937332
 10
3676.137434808382
 20
10.06829103702716
 10
3675.635042274881
 20
10.19292465309922
 10
3675.139574022205
 20
10.33101393590414
 10
3674.651216129515
 20
10.48230483319435
 10
3674.170154675975
 20
10.64654329272116
 10
3673.696575740749
 20
10.8234752622352
 10
3673.230665403
 20
11.01284668948915
 10
3672.77260974189
 20
11.21440352223408
 10
3672.322594836584
 20
11.42789170822129
 10
3671.880806766245
 20
11.6530571952012
 10
3671.447431610033
 20
11.88964593092714
 10
3671.022655447114
 20
12.13740386315021
 10
3670.606664356651
 20
12.39607693962216
 10
3670.199644417807
 20
12.66541110809316
 10
3669.801781709745
 20
12.94515231631521
 10
3669.413262311628
 20
13.2350465120403
 10
3669.034272302619
 20
13.53483964301927
 10
3668.664997761882
 20
13.84427765700411
 10
3668.305624768578
 20
14.16310650174614
 10
3667.956339401873
 20
14.49107212499711
 10
3667.617327740928
 20
14.82792047450812
 10
3667.288775864907
 20
15.17339749803136
 10
3666.970869852974
 20
15.52724914331725
 10
3666.66379578429
 20
15.88922135811708
 10
3666.367739738021
 20
16.25906009018331
 10
3666.082887793328
 20
16.63651128726815
 10
3665.809426029374
 20
17.02132089712131
 10
3665.547540525323
 20
17.41323486749525
 10
3665.297417360338
 20
17.81199914614126
 10
3665.059242613583
 20
18.2173596808102
 10
3664.83320236422
 20
18.6290624192552
 10
3664.619482691412
 20
19.04685330922621
 10
3664.418269674322
 20
19.4704782984752
 10
3664.229749392116
 20
19.89968333475326
 10
3664.054107923953
 20
20.33421436581329
 10
3663.891531348999
 20
20.77381733940524
 10
3663.742205746416
 20
21.21823820328132
 10
3663.606317195367
 20
21.66722290519215
 10
3663.484051775016
 20
22.12051739289041
 10
3663.375595564525
 20
22.57786761412717
 10
3663.281134643059
 20
23.03901951665421
 10
3663.20085508978
 20
23.50371904822214
 10
3663.13494298385
 20
23.97171215658318
 10
3663.083584404434
 20
24.44274478948819
 10
3663.046965430693
 20
24.91656289468915
 10
3663.025272141793
 20
25.39291241993715
 10
3663.018690616896
 20
25.8715393129844
 10
3663.027406935164
 20
26.35218952158221
 10
3663.051607175762
 20
26.8346089934812
 10
3663.091477417852
 20
27.31854367643314
 10
3663.147203740596
 20
27.80373951819115
 10
3663.218972223159
 20
28.28994246650427
 10
3663.306968944705
 20
28.77689846912517
 10
3663.411379984395
 20
29.2643534738063
 10
3663.532391421393
 20
29.75205342829736
 10
3663.670189334862
 20
30.23974428035013
 10
3663.824959803965
 20
30.72717197771726
 10
3663.996888907866
 20
31.21408246814918
 10
3664.342804745527
 20
31.8622227969181
 10
3664.704322168842
 20
32.50100823418939
 10
3665.08120369109
 20
33.13023547770331
 10
3665.473211825545
 20
33.74970122520426
 10
3665.880109085487
 20
34.35920217443209
 10
3666.301657984192
 20
34.95853502313116
 10
3666.73762103494
 20
35.54749646904316
 10
3667.187760751004
 20
36.12588320991017
 10
3667.651839645664
 20
36.69349194347524
 10
3668.129620232198
 20
37.25011936747819
 10
3668.620865023881
 20
37.79556217966433
 10
3669.125336533991
 20
38.32961707777327
 10
3669.642797275808
 20
38.85208075954916
 10
3670.173009762604
 20
39.3627499227332
 10
3670.715736507662
 20
39.86142126506729
 10
3671.270740024255
 20
40.34789148429513
 10
3671.837782825663
 20
40.82195727815724
 10
3672.416627425163
 20
41.28341534439733
 10
3673.00703633603
 20
41.73206238075727
 10
3673.608772071543
 20
42.16769508497714
 10
3674.22159714498
 20
42.59011015480223
 10
3674.845274069618
 20
42.9991042879742
 10
3675.479565358733
 20
43.39447418223426
 10
3676.124233525604
 20
43.77601653532429
 10
3676.779041083507
 20
44.14352804498821
 10
3677.44375054572
 20
44.4968054089661
 10
3678.11812442552
 20
44.83564532500236
 10
3678.801925236185
 20
45.15984449083726
 10
3679.494915490991
 20
45.46919960421519
 10
3680.196857703217
 20
45.76350736287622
 10
3680.907514386138
 20
46.04256446456429
 10
3681.626648053034
 20
46.30616760702127
 10
3682.152888101472
 20
46.50841530233924
 10
3682.674165590073
 20
46.71852087547813
 10
3683.190409766172
 20
46.93639830098414
 10
3683.701549877106
 20
47.16196155340321
 10
3684.207515170212
 20
47.39512460728133
 10
3684.708234892825
 20
47.63580143716331
 10
3685.203638292281
 20
47.88390601759624
 10
3685.693654615918
 20
48.13935232312724
 10
3686.178213111071
 20
48.40205432830021
 10
3686.657243025076
 20
48.67192600766111
 10
3687.13067360527
 20
48.94888133575818
 10
3687.598434098988
 20
49.23283428713626
 10
3688.060453753568
 20
49.52369883634128
 10
3688.516661816345
 20
49.82138895791923
 10
3688.966987534656
 20
50.12581862641628
 10
3689.411360155837
 20
50.43690181637817
 10
3689.849708927223
 20
50.75455250235108
 10
3690.281963096152
 20
51.07868465888237
 10
3690.70805190996
 20
51.40921226051523
 10
3691.127904615982
 20
51.74604928179815
 10
3691.541450461555
 20
52.08910969727617
 10
3691.948618694016
 20
52.43830748149526
 10
3692.3493385607
 20
52.79355660900114
 10
3692.743539308943
 20
53.15477105434116
 10
3693.131150186083
 20
53.52186479206011
 10
3693.512100439455
 20
53.89475179670421
 10
3693.886319316395
 20
54.27334604282032
 10
3694.25373606424
 20
54.65756150495327
 10
3694.614279930326
 20
55.04731215764923
 10
3694.96788016199
 20
55.44251197545531
 10
3695.314466006565
 20
55.84307493291612
 10
3695.653966711392
 20
56.2489150045792
 10
3695.986311523803
 20
56.65994616499029
 10
3696.311429691137
 20
57.0760823886942
 10
3696.629250460729
 20
57.49723765023714
 10
3696.939703079916
 20
57.92332592416619
 10
3697.242716796034
 20
58.35426118502732
 10
3697.538220856418
 20
58.78995740736513
 10
3697.826144508407
 20
59.23032856572717
 10
3698.106416999333
 20
59.67528863465918
 10
3698.378967576537
 20
60.1247515887062
 10
3698.643725487352
 20
60.57863140241534
 10
3698.900619979115
 20
61.0368420503321
 10
3699.149580299163
 20
61.49929750700312
 10
3699.390535694831
 20
61.96591174697323
 10
3699.623415413456
 20
62.43659874479021
 10
3699.848148702375
 20
62.91127247499821
 10
3700.064664808922
 20
63.38984691214432
 10
3700.272892980436
 20
63.87223603077427
 10
3700.472762464251
 20
64.35835380543426
 10
3700.664202507705
 20
64.84811421067025
 10
3700.847142358133
 20
65.34143122102818
 10
3701.021511262871
 20
65.83821881105428
 10
3701.187238469256
 20
66.33839095529424
 10
3701.344253224624
 20
66.84186162829428
 10
3701.492484776311
 20
67.34854480460012
 10
3701.631862371654
 20
67.85835445875818
 10
3701.762315257989
 20
68.37120456531511
 10
3701.883772682653
 20
68.88700909881618
 10
3701.996163892979
 20
69.40568203380621
 10
3702.099418136306
 20
69.92713734483323
 10
3702.19346465997
 20
70.45128900644318
 10
3702.278232711307
 20
70.9780509931802
 10
3702.353651537654
 20
71.50733727959232
  0
LWPOLYLINE
  5
4BFF
330
4B6C
100
AcDbEntity
  8
5MM
 62
     0
100
AcDbPolyline
 90
      181
 70
     0
 43
0.0
 10
3740.193226609932
 20
-101.9340225161227
 10
3740.415533706157
 20
-102.3605018813368
 10
3740.618028553954
 20
-102.7883786232096
 10
3740.800969772206
 20
-103.2173498901256
 10
3740.96461597979
 20
-103.6471128304717
 10
3741.10922579559
 20
-104.0773645926267
 10
3741.235057838486
 20
-104.5078023249768
 10
3741.342370727354
 20
-104.9381231759057
 10
3741.431423081081
 20
-105.3680242937967
 10
3741.502473518543
 20
-105.7972028270328
 10
3741.555780658621
 20
-106.2253559239987
 10
3741.591603120197
 20
-106.6521807330768
 10
3741.61019952215
 20
-107.0773744026519
 10
3741.611828483361
 20
-107.5006340811078
 10
3741.59674862271
 20
-107.9216569168268
 10
3741.565218559079
 20
-108.3401400581938
 10
3741.517496911348
 20
-108.7557806535908
 10
3741.453842298394
 20
-109.1682758514039
 10
3741.374513339102
 20
-109.5773228000148
 10
3741.27976865235
 20
-109.9826186478078
 10
3741.169866857019
 20
-110.3838605431658
 10
3741.04506657199
 20
-110.7807456344749
 10
3740.905626416142
 20
-111.1729710701147
 10
3740.751805008358
 20
-111.5602339984716
 10
3740.583860967515
 20
-111.9422315679296
 10
3740.402052912497
 20
-112.3186609268707
 10
3740.206639462181
 20
-112.6892192236807
 10
3739.99787923545
 20
-113.0536036067408
 10
3739.776030851183
 20
-113.4115112244349
 10
3739.541352928261
 20
-113.7626392251488
 10
3739.294104085565
 20
-114.1066847572638
 10
3739.034542941974
 20
-114.4433449691657
 10
3738.76292811637
 20
-114.7723170092356
 10
3738.479518227632
 20
-115.0932980258587
 10
3738.184571894642
 20
-115.4059851674178
 10
3737.87834773628
 20
-115.7100755822978
 10
3737.561104371425
 20
-116.0052664188827
 10
3737.233100418958
 20
-116.2912548255538
 10
3736.894594497761
 20
-116.5677379506967
 10
3736.545845226713
 20
-116.8344129426939
 10
3736.187111224695
 20
-117.0909769499287
 10
3735.818651110587
 20
-117.3371271207868
 10
3735.44072350327
 20
-117.5725606036508
 10
3735.053587021623
 20
-117.7969745469038
 10
3734.657500284529
 20
-118.0100660989299
 10
3734.252721910866
 20
-118.2115324081117
 10
3733.839510519516
 20
-118.4010706228348
 10
3733.418124729359
 20
-118.5783778914817
 10
3732.988823159275
 20
-118.7431513624346
 10
3732.551864428145
 20
-118.8950881840817
 10
3732.107507154848
 20
-119.0338855048007
 10
3731.656009958266
 20
-119.1592404729797
 10
3731.19763145728
 20
-119.2708502370008
 10
3730.732630270769
 20
-119.3684119452468
 10
3730.261265017614
 20
-119.4516227461029
 10
3729.783794316695
 20
-119.5201797879517
 10
3729.300476786892
 20
-119.5737802191768
 10
3728.811571047088
 20
-119.6121211881627
 10
3728.317335716161
 20
-119.6348998432918
 10
3727.818029412992
 20
-119.6418133329487
 10
3727.313910756461
 20
-119.6325588055176
 10
3726.805238365449
 20
-119.6068334093809
 10
3726.292270858838
 20
-119.5643342929229
 10
3725.775266855505
 20
-119.5047586045268
 10
3725.254484974333
 20
-119.4278034925758
 10
3724.839229591848
 20
-119.3823309311246
 10
3724.426728782411
 20
-119.3292188608998
 10
3724.017075426587
 20
-119.2685481824216
 10
3723.610362404935
 20
-119.2003997962147
 10
3723.206682598018
 20
-119.1248546028007
 10
3722.806128886399
 20
-119.0419935027028
 10
3722.408794150637
 20
-118.9518973964427
 10
3722.014771271296
 20
-118.8546471845427
 10
3721.624153128938
 20
-118.7503237675266
 10
3721.237032604123
 20
-118.6390080459157
 10
3720.853502577415
 20
-118.5207809202338
 10
3720.473655929374
 20
-118.3957232910029
 10
3720.097585540563
 20
-118.2639160587448
 10
3719.725384291543
 20
-118.1254401239837
 10
3718.992960735125
 20
-117.8288057490388
 10
3718.277128304616
 20
-117.5064673703498
 10
3717.578630044509
 20
-117.1590721920959
 10
3716.898208999297
 20
-116.7872674184577
 10
3716.236608213478
 20
-116.3917002536168
 10
3715.594570731545
 20
-115.9730179017538
 10
3714.972839597993
 20
-115.5318675670478
 10
3714.372157857315
 20
-115.0688964536807
 10
3713.793268554008
 20
-114.5847517658328
 10
3713.236914732565
 20
-114.0800807076828
 10
3712.703839437483
 20
-113.5555304834138
 10
3712.194785713253
 20
-113.0117482972059
 10
3711.949499141613
 20
-112.7328474696808
 10
3711.710496604372
 20
-112.4493813532388
 10
3711.477870982093
 20
-112.1614308484006
 10
3711.251715155335
 20
-111.8690768556928
 10
3711.032122004662
 20
-111.5724002756337
 10
3710.819184410635
 20
-111.2714820087487
 10
3710.612995253816
 20
-110.9664029555588
 10
3710.413647414767
 20
-110.6572440165878
 10
3710.22123377405
 20
-110.3440860923558
 10
3710.035847212226
 20
-110.0270100833897
 10
3709.857580609858
 20
-109.7060968902087
 10
3709.686526847507
 20
-109.3814274133337
 10
3709.522778805735
 20
-109.0530825532937
 10
3709.366429365104
 20
-108.7211432106046
 10
3709.217571406176
 20
-108.3856902857917
 10
3709.076297809512
 20
-108.0468046793787
 10
3708.942701455675
 20
-107.7045672918877
 10
3708.816875225226
 20
-107.3590590238389
 10
3708.698911998726
 20
-107.0103607757578
 10
3708.588904656739
 20
-106.6585534481657
 10
3708.486946079825
 20
-106.3037179415828
 10
3708.393129148548
 20
-105.9459351565367
 10
3708.307546743467
 20
-105.5852859935457
 10
3708.230291745145
 20
-105.2218513531356
 10
3708.161457034144
 20
-104.8557121358258
 10
3708.101135491026
 20
-104.4869492421428
 10
3707.937814276125
 20
-103.3810319062718
 10
3707.786669610968
 20
-102.2745792325447
 10
3707.647686573167
 20
-101.1676672950586
 10
3707.520850240335
 20
-100.0603721679087
 10
3707.406145690081
 20
-98.95276992519189
 10
3707.303558000019
 20
-97.84493664099978
 10
3707.213072247758
 20
-96.73694838943175
 10
3707.134673510911
 20
-95.62888124458368
 10
3707.068346867089
 20
-94.52081128054897
 10
3707.014077393903
 20
-93.41281457142372
 10
3706.971850168964
 20
-92.30496719130565
 10
3706.941650269886
 20
-91.19734521428972
 10
3706.923462774277
 20
-90.09002471446979
 10
3706.917272759751
 20
-88.98308176594492
 10
3706.923065303917
 20
-87.87659244280666
 10
3706.940825484389
 20
-86.77063281915366
 10
3706.970538378776
 20
-85.66527896908088
 10
3707.012189064691
 20
-84.56060696668282
 10
3707.065762619745
 20
-83.45669288605767
 10
3707.131244121549
 20
-82.35361280129973
 10
3707.208618647715
 20
-81.25144278650486
 10
3707.297871275854
 20
-80.15025891576783
 10
3707.398987083578
 20
-79.05013726318475
 10
3707.511951148498
 20
-77.95115390285378
 10
3707.636748548225
 20
-76.8533849088667
 10
3707.773364360372
 20
-75.75690635532192
 10
3707.921783662547
 20
-74.66179431631371
 10
3708.081991532365
 20
-73.5681248659398
 10
3708.253973047436
 20
-72.4759740782938
 10
3708.437713285371
 20
-71.38541802747181
 10
3708.633197323782
 20
-70.29653278757087
 10
3708.840410240281
 20
-69.20939443268366
 10
3709.059337112478
 20
-68.12407903690973
 10
3709.289963017984
 20
-67.04066267434177
 10
3709.532273034412
 20
-65.95922141907681
 10
3709.786252239374
 20
-64.87983134521073
 10
3710.051885710479
 20
-63.80256852683896
 10
3710.32915852534
 20
-62.72750903805672
 10
3710.618055761569
 20
-61.6547289529617
 10
3710.918562496775
 20
-60.5843043456457
 10
3711.230663808572
 20
-59.51631129020871
 10
3711.554344774569
 20
-58.45082586074363
 10
3711.889590472381
 20
-57.38792413134774
 10
3712.236385979615
 20
-56.32768217611578
 10
3712.594716373885
 20
-55.27017606914274
 10
3712.964566732802
 20
-54.21548188452584
 10
3713.345922133978
 20
-53.16367569635963
 10
3713.738767655023
 20
-52.11483357874181
 10
3714.14308837355
 20
-51.06903160576576
 10
3714.558869367169
 20
-50.02634585152873
 10
3714.986095713491
 20
-48.98685239012571
 10
3715.424752490129
 20
-47.95062729565166
 10
3715.874824774694
 20
-46.91774664220474
 10
3716.336297644797
 20
-45.88828650387767
 10
3716.80915617805
 20
-44.86232295476861
 10
3717.293385452064
 20
-43.83993206897071
 10
3717.788970544449
 20
-42.82118992058281
 10
3718.295896532819
 20
-41.80617258369875
 10
3718.814148494785
 20
-40.79495613241284
 10
3719.343711507956
 20
-39.7876166408239
 10
3719.884570649945
 20
-38.78423018302579
 10
3720.436710998364
 20
-37.78487283311574
 10
3721.000117630825
 20
-36.7896206651867
 10
3721.474184307863
 20
-35.97203229313891
  0
LWPOLYLINE
  5
4C00
330
4B6C
100
AcDbEntity
  8
5MM
 62
     0
100
AcDbPolyline
 90
      257
 70
     0
 43
0.0
 10
3713.225722534975
 20
-35.1310694978888
 10
3712.236632604355
 20
-36.86623783446089
 10
3711.530820735033
 20
-38.13688095414773
 10
3710.840376617236
 20
-39.41291774085494
 10
3710.165318466676
 20
-40.69423793403075
 10
3709.50566449906
 20
-41.98073127312068
 10
3708.861432930099
 20
-43.27228749757568
 10
3708.232641975502
 20
-44.56879634684173
 10
3707.619309850979
 20
-45.87014756036865
 10
3707.021454772239
 20
-47.17623087760261
 10
3706.439094954993
 20
-48.48693603799188
 10
3705.872248614949
 20
-49.8021527809849
 10
3705.320933967818
 20
-51.12177084603081
 10
3704.785169229307
 20
-52.44567997257468
 10
3704.264972615129
 20
-53.77376990006678
 10
3703.760362340991
 20
-55.10593036795467
 10
3703.271356622604
 20
-56.44205111568476
 10
3702.797973675677
 20
-57.78202188270779
 10
3702.34023171592
 20
-59.12573240846882
 10
3701.898148959042
 20
-60.4730724324188
 10
3701.471743620753
 20
-61.82393169400279
 10
3701.061033916761
 20
-63.17819993267085
 10
3700.66603806278
 20
-64.53576688787075
 10
3700.286774274515
 20
-65.89652229904868
 10
3699.923260767677
 20
-67.2603559056547
 10
3699.575515757976
 20
-68.62715744713478
 10
3699.243557461122
 20
-69.99681666293895
 10
3698.927404092823
 20
-71.36922329251479
 10
3698.627073868791
 20
-72.7442670753087
 10
3698.342585004733
 20
-74.12183775076982
 10
3698.073955716361
 20
-75.50182505834664
 10
3697.821204219382
 20
-76.88411873748577
 10
3697.584348729508
 20
-78.2686085276348
 10
3697.363407462447
 20
-79.65518416824489
 10
3697.158398633909
 20
-81.04373539876064
 10
3696.969340459604
 20
-82.43415195863077
 10
3696.796251155241
 20
-83.82632358730575
 10
3696.63914893653
 20
-85.22014002422976
 10
3696.498052019182
 20
-86.61549100885281
 10
3696.372978618903
 20
-88.01226628062272
 10
3696.263946951405
 20
-89.41035557898771
 10
3696.170975232398
 20
-90.8096486433949
 10
3696.094081677591
 20
-92.2100352132927
 10
3696.033284502693
 20
-93.61140502812872
 10
3695.988601923414
 20
-95.01364782735164
 10
3695.960052155463
 20
-96.41665335040876
 10
3695.947653414551
 20
-97.82031133674877
 10
3695.951423916387
 20
-99.2245115258197
 10
3695.97138187668
 20
-100.6291436570677
 10
3696.00754551114
 20
-102.0340974699427
 10
3696.059933035477
 20
-103.4392627038928
 10
3696.128562665399
 20
-104.8445290983647
 10
3696.213452616618
 20
-106.2497863928067
 10
3696.314621104842
 20
-107.6549243266668
 10
3696.43208634578
 20
-109.0598326393938
 10
3696.565866555143
 20
-110.4644010704337
 10
3696.715979948641
 20
-111.8685193592378
 10
3696.882444741981
 20
-113.2720772452508
 10
3697.065279150876
 20
-114.6749644679219
 10
3697.264501391034
 20
-116.0770707666988
 10
3697.480129678163
 20
-117.4782858810299
 10
3697.712182227975
 20
-118.8784995503626
 10
3697.960677256179
 20
-120.2776015141457
 10
3698.225632978483
 20
-121.6754815118267
 10
3698.507067610598
 20
-123.0720292828528
 10
3699.295623827028
 20
-123.1491839005198
 10
3700.067549571786
 20
-123.2523107708848
 10
3700.82264799464
 20
-123.3807440888299
 10
3701.560722245355
 20
-123.5338180492379
 10
3702.281575473699
 20
-123.7108668469898
 10
3702.985010829439
 20
-123.9112246769709
 10
3703.670831462342
 20
-124.1342257340618
 10
3704.338840522176
 20
-124.3792042131458
 10
3704.988841158706
 20
-124.6454943091028
 10
3705.620636521702
 20
-124.9324302168197
 10
3706.234029760928
 20
-125.2393461311749
 10
3706.828824026152
 20
-125.5655762470528
 10
3707.404822467142
 20
-125.9104547593367
 10
3707.961828233666
 20
-126.2733158629069
 10
3708.499644475488
 20
-126.6534937526469
 10
3709.018074342377
 20
-127.0503226234389
 10
3709.5169209841
 20
-127.4631366701658
 10
3709.995987550423
 20
-127.8912700877099
 10
3710.455077191114
 20
-128.3340570709538
 10
3710.89399305594
 20
-128.7908318147788
 10
3711.312538294669
 20
-129.2609285140688
 10
3711.710516057066
 20
-129.7436813637057
 10
3712.087729492899
 20
-130.2384245585717
 10
3712.443981751935
 20
-130.7444922935508
 10
3712.779075983942
 20
-131.2612187635227
 10
3713.092815338686
 20
-131.7879381633729
 10
3713.385002965934
 20
-132.3239846879799
 10
3713.655442015453
 20
-132.8686925322297
 10
3713.903935637012
 20
-133.4213958910029
 10
3714.130286980375
 20
-133.9814289591838
 10
3714.334299195311
 20
-134.5481259316527
 10
3714.515775431587
 20
-135.1208210032928
 10
3714.674518838969
 20
-135.6988483689868
 10
3714.810332567225
 20
-136.2815422236176
 10
3714.923019766122
 20
-136.8682367620676
 10
3715.012383585427
 20
-137.4582661792176
 10
3715.078227174906
 20
-138.0509646699518
 10
3715.120353684328
 20
-138.6456664291518
 10
3715.138566263459
 20
-139.2417056517008
 10
3715.132668062065
 20
-139.8384165324808
 10
3715.102462229916
 20
-140.4351332663736
 10
3715.047751916775
 20
-141.0311900482636
 10
3714.968340272413
 20
-141.6259210730297
 10
3714.864030446594
 20
-142.2186605355589
 10
3714.734625589088
 20
-142.80874263073
 10
3714.579928849659
 20
-143.3955015534268
 10
3714.399743378076
 20
-143.9782714985326
 10
3714.193872324106
 20
-144.5563866609286
 10
3713.962118837515
 20
-145.1291812354977
 10
3713.704286068072
 20
-145.6959894171218
 10
3713.420177165541
 20
-146.2561454006838
 10
3713.109595279691
 20
-146.8089833810668
 10
3712.772343560291
 20
-147.3538375531518
 10
3712.408225157104
 20
-147.8900421118237
 10
3712.0170432199
 20
-148.4169312519618
 10
3711.598600898444
 20
-148.9338391684507
 10
3711.152701342505
 20
-149.4401000561718
 10
3710.679147701848
 20
-149.9350481100086
 10
3710.177743126242
 20
-150.4180175248418
 10
3709.648290765453
 20
-150.8883424955556
 10
3709.090593769249
 20
-151.3453572170329
 10
3708.504455287396
 20
-151.7883958841537
 10
3707.889678469662
 20
-152.2167926918018
 10
3707.246066465813
 20
-152.6298818348607
 10
3706.657746593168
 20
-152.9502650161127
 10
3706.064020931593
 20
-153.2502436188977
 10
3705.465318716108
 20
-153.5300000426889
 10
3704.862069181727
 20
-153.7897166869618
 10
3704.254701563467
 20
-154.0295759511877
 10
3703.643645096344
 20
-154.2497602348417
 10
3703.029329015373
 20
-154.4504519373968
 10
3702.412182555572
 20
-154.6318334583268
 10
3701.792634951954
 20
-154.7940871971068
 10
3701.171115439539
 20
-154.9373955532087
 10
3700.548053253341
 20
-155.0619409261078
 10
3699.923877628376
 20
-155.1679057152757
 10
3699.299017799661
 20
-155.255472320189
 10
3698.673903002211
 20
-155.3248231403177
 10
3698.048962471043
 20
-155.3761405751379
 10
3697.424625441173
 20
-155.4096070241248
 10
3696.801321147616
 20
-155.4254048867487
 10
3696.17947882539
 20
-155.4237165624859
 10
3695.559527709509
 20
-155.4047244508078
 10
3694.941897034992
 20
-155.3686109511918
 10
3694.327016036851
 20
-155.3155584631079
 10
3693.715313950106
 20
-155.2457493860317
 10
3693.107220009772
 20
-155.1593661194349
 10
3692.503163450864
 20
-155.0565910627947
 10
3691.903573508398
 20
-154.9376066155828
 10
3691.308879417391
 20
-154.8025951772717
 10
3690.719510412859
 20
-154.6517391473378
 10
3690.135895729818
 20
-154.4852209252517
 10
3689.558464603285
 20
-154.3032229104908
 10
3688.987646268275
 20
-154.1059275025259
 10
3688.423869959804
 20
-153.8935171008318
 10
3687.867564912888
 20
-153.6661741048829
 10
3687.319160362545
 20
-153.4240809141506
 10
3686.779085543788
 20
-153.1674199281096
 10
3686.247769691636
 20
-152.8963735462357
 10
3685.725642041103
 20
-152.6111241680007
 10
3685.213131827207
 20
-152.3118541928797
 10
3684.710668284962
 20
-151.9987460203438
 10
3684.218680649386
 20
-151.6719820498708
 10
3683.737598155494
 20
-151.3317446809287
 10
3683.267850038303
 20
-150.9782163129957
 10
3682.809865532828
 20
-150.6115793455458
 10
3682.364073874085
 20
-150.2320161780489
 10
3681.930904297092
 20
-149.8397092099828
 10
3681.510786036863
 20
-149.4348408408177
 10
3681.104148328415
 20
-149.0175934700307
 10
3680.711420406764
 20
-148.5881494970938
 10
3680.333031506926
 20
-148.1466913214788
 10
3679.969410863918
 20
-147.6934013426628
 10
3679.620987712755
 20
-147.2284619601187
 10
3679.288191288454
 20
-146.7520555733197
 10
3678.97145082603
 20
-146.2643645817379
 10
3678.671195560499
 20
-145.7655713848496
 10
3678.387854726878
 20
-145.2558583821276
 10
3678.121857560184
 20
-144.7354079730457
 10
3677.873633295432
 20
-144.2044025570767
 10
3677.643611167638
 20
-143.6630245336948
 10
3677.432220411816
 20
-143.1114563023748
 10
3677.239890262987
 20
-142.5498802625889
 10
3677.067049956163
 20
-141.9784788138117
 10
3676.914128726362
 20
-141.3974343555169
 10
3676.781555808599
 20
-140.8069292871778
 10
3676.669760437891
 20
-140.2071460082688
 10
3676.579171849255
 20
-139.5982669182638
 10
3676.476897356393
 20
-137.8559494191138
 10
3676.392189923929
 20
-136.1139868664888
 10
3676.32502341729
 20
-134.3724795568437
 10
3676.2753717019
 20
-132.6315277866338
 10
3676.24320864319
 20
-130.8912318523157
 10
3676.228508106584
 20
-129.1516920503438
 10
3676.231243957511
 20
-127.4130086771718
 10
3676.251390061394
 20
-125.6752820292588
 10
3676.288920283663
 20
-123.9386124030589
 10
3676.343808489745
 20
-122.2031000950257
 10
3676.416028545064
 20
-120.4688454016168
 10
3676.505554315048
 20
-118.7359486192868
 10
3676.612359665125
 20
-117.0045100444918
 10
3676.73641846072
 20
-115.2746299736877
 10
3676.877704567262
 20
-113.5464087033279
 10
3677.036191850176
 20
-111.8199465298696
 10
3677.211854174888
 20
-110.0953437497678
 10
3677.404665406827
 20
-108.3727006594777
 10
3677.614599411418
 20
-106.6521175554558
 10
3677.841630054088
 20
-104.9336947341569
 10
3678.085731200265
 20
-103.2175324920358
 10
3678.346876715376
 20
-101.5037311255478
 10
3678.625040464845
 20
-99.79239093114983
 10
3678.920196314101
 20
-98.08361220529674
 10
3679.232318128569
 20
-96.37749524444485
 10
3679.561379773679
 20
-94.67414034504669
 10
3679.907355114854
 20
-92.97364780356089
 10
3680.270218017523
 20
-91.27611791644175
 10
3680.649942347113
 20
-89.58165098014479
 10
3681.046501969049
 20
-87.89034729112586
 10
3681.45987074876
 20
-86.20230714583886
 10
3681.89002255167
 20
-84.51763084074082
 10
3682.336931243208
 20
-82.83641867228766
 10
3682.8005706888
 20
-81.1587709369328
 10
3683.280914753873
 20
-79.48478793113281
 10
3683.777937303854
 20
-77.81456995134476
 10
3684.291612204169
 20
-76.14821729402184
 10
3684.821913320244
 20
-74.48583025561993
 10
3685.368814517508
 20
-72.82750913259588
 10
3685.932289661387
 20
-71.17335422140286
 10
3686.512312617306
 20
-69.5234658184977
 10
3687.108857250694
 20
-67.87794422033676
 10
3687.721897426977
 20
-66.23688972337482
 10
3688.351407011582
 20
-64.60040262406687
 10
3688.997359869934
 20
-62.9685832188668
 10
3689.659729867462
 20
-61.34153180423368
 10
3690.338490869592
 20
-59.7193486766198
 10
3691.033616741751
 20
-58.10213413248288
 10
3691.745081349365
 20
-56.48998846827772
 10
3692.472858557862
 20
-54.88301198045974
 10
3693.216922232667
 20
-53.28130496548374
 10
3693.977246239209
 20
-51.68496771980585
 10
3694.753804442913
 20
-50.09410053988176
 10
3695.546570709205
 20
-48.50880372216579
 10
3696.355518903514
 20
-46.92917756311476
 10
3697.180622891266
 20
-45.3553223591839
 10
3698.021856537887
 20
-43.78733840682776
 10
3698.879193708805
 20
-42.22532600250178
 10
3699.752608269446
 20
-40.66938544266281
 10
3700.642074085236
 20
-39.11961702376493
 10
3701.547565021602
 20
-37.57612104226587
 10
3702.469054943974
 20
-36.03899779461881
 10
3703.406517717775
 20
-34.50834757727875
 10
3705.137633304607
 20
-31.74106522204693
  0
LWPOLYLINE
  5
4C01
330
4B6C
100
AcDbEntity
  8
5MM
 62
     0
100
AcDbPolyline
 90
      142
 70
     0
 43
0.0
 10
3742.337417383647
 20
-249.7639181832428
 10
3742.512221333335
 20
-250.2295921106309
 10
3742.66410013385
 20
-250.6936179885299
 10
3742.793456413517
 20
-251.1556914500447
 10
3742.90069280066
 20
-251.6155081282798
 10
3742.986211923602
 20
-252.0727636563388
 10
3743.05041641067
 20
-252.5271536673258
 10
3743.093708890186
 20
-252.9783737943469
 10
3743.116491990476
 20
-253.4261196705047
 10
3743.119168339863
 20
-253.8700869289039
 10
3743.102140566672
 20
-254.3099712026478
 10
3743.065811299226
 20
-254.7454681248419
 10
3743.010583165851
 20
-255.1762733285907
 10
3742.93685879487
 20
-255.6020824469988
 10
3742.845040814609
 20
-256.0225911131686
 10
3742.735531853391
 20
-256.4374949602056
 10
3742.60873453954
 20
-256.8464896212147
 10
3742.46505150138
 20
-257.2492707292988
 10
3742.304885367238
 20
-257.6455339175627
 10
3742.128638765435
 20
-258.0349748191106
 10
3741.936714324297
 20
-258.4172890670489
 10
3741.729514672148
 20
-258.7921722944777
 10
3741.507442437312
 20
-259.1593201345058
 10
3741.270900248114
 20
-259.5184282202347
 10
3741.020290732878
 20
-259.8691921847688
 10
3740.756016519928
 20
-260.2113076612127
 10
3740.478480237588
 20
-260.5444702826719
 10
3740.188084514183
 20
-260.8683756822497
 10
3739.885231978038
 20
-261.1827194930497
 10
3739.570325257474
 20
-261.4871973481779
 10
3739.24376698082
 20
-261.7815048807368
 10
3738.905959776396
 20
-262.0653377238318
 10
3738.557306272529
 20
-262.3383915105658
 10
3738.198209097542
 20
-262.6003618740458
 10
3737.829070879761
 20
-262.8509444473739
 10
3737.450294247508
 20
-263.0898348636538
 10
3737.062281829109
 20
-263.3167287559918
 10
3736.665436252887
 20
-263.5313217574928
 10
3736.260160147168
 20
-263.7333095012587
 10
3735.846856140275
 20
-263.9223876203937
 10
3735.425926860531
 20
-264.0982517480038
 10
3734.997774936264
 20
-264.2605975171928
 10
3734.562802995795
 20
-264.4091205610648
 10
3734.121413667449
 20
-264.5435165127237
 10
3733.674009579551
 20
-264.6634810052749
 10
3733.220993360425
 20
-264.7687096718219
 10
3732.762767638396
 20
-264.8588981454677
 10
3732.299735041787
 20
-264.9337420593188
 10
3731.832298198924
 20
-264.9929370464797
 10
3731.360859738128
 20
-265.0361787400527
 10
3730.885822287727
 20
-265.0631627731439
 10
3730.407588476044
 20
-265.0735847788558
 10
3729.926560931403
 20
-265.0671403902929
 10
3729.443142282127
 20
-265.0435252405618
 10
3728.957735156543
 20
-265.0024349627647
 10
3728.470742182974
 20
-264.9435651900067
 10
3727.982565989744
 20
-264.8666115553917
 10
3727.493609205178
 20
-264.7712696920239
 10
3727.004274457599
 20
-264.6572352330079
 10
3726.514964375332
 20
-264.5242038114468
 10
3726.026081586701
 20
-264.3718710604469
 10
3725.538028720032
 20
-264.1999326131129
 10
3725.051208403648
 20
-264.0080841025458
 10
3724.566023265873
 20
-263.7960211618526
 10
3724.082875935032
 20
-263.5634394241358
 10
3723.622062453382
 20
-263.3967574412058
 10
3723.167434954626
 20
-263.2198586125448
 10
3722.719166304614
 20
-263.0328969094257
 10
3722.277429369196
 20
-262.8360263031157
 10
3721.842397014221
 20
-262.6294007648848
 10
3721.414242105542
 20
-262.4131742660056
 10
3720.993137509009
 20
-262.1875007777449
 10
3720.57925609047
 20
-261.9525342713728
 10
3720.172770715779
 20
-261.7084287181599
 10
3719.773854250784
 20
-261.4553380893767
 10
3719.382679561336
 20
-261.1934163562928
 10
3718.999419513285
 20
-260.9228174901777
 10
3718.624246972483
 20
-260.6436954622998
 10
3718.257334804778
 20
-260.3562042439319
 10
3717.898855876022
 20
-260.0604978063409
 10
3717.548983052067
 20
-259.7567301207978
 10
3717.20788919876
 20
-259.4450551585737
 10
3716.875747181954
 20
-259.1256268909358
 10
3716.552729867498
 20
-258.798599289155
 10
3716.239010121242
 20
-258.4641263245028
 10
3715.934760809039
 20
-258.1223619682469
 10
3715.640154796737
 20
-257.7734601916577
 10
3715.355364950188
 20
-257.4175749660049
 10
3715.080564135241
 20
-257.0548602625599
 10
3714.815925217748
 20
-256.6854700525908
 10
3714.561621063558
 20
-256.3095583073669
 10
3714.317824538522
 20
-255.9272789981587
 10
3714.084708508491
 20
-255.5387860962378
 10
3713.862445839315
 20
-255.1442335728718
 10
3713.651209396843
 20
-254.7437753993317
 10
3713.451172046928
 20
-254.3375655468858
 10
3713.262506655419
 20
-253.9257579868049
 10
3712.975171613643
 20
-252.9478340187959
 10
3712.695624314605
 20
-251.9685044929927
 10
3712.42386627954
 20
-250.9878064147329
 10
3712.159899029685
 20
-250.0057767893498
 10
3711.903724086275
 20
-249.0224526221787
 10
3711.655342970548
 20
-248.0378709185538
 10
3711.414757203741
 20
-247.0520686838099
 10
3711.18196830709
 20
-246.0650829232818
 10
3710.956977801831
 20
-245.0769506423046
 10
3710.739787209201
 20
-244.0877088462148
 10
3710.328811846775
 20
-242.1060447300288
 10
3709.949054389704
 20
-240.1203866174028
 10
3709.600527007881
 20
-238.1310305510158
 10
3709.283241871199
 20
-236.1382725735448
 10
3708.997211149549
 20
-234.1424087276687
 10
3708.742447012824
 20
-232.1437350560677
 10
3708.518961630917
 20
-230.1425476014176
 10
3708.326767173721
 20
-228.1391424063977
 10
3708.165875811128
 20
-226.1338155136848
 10
3708.036299713031
 20
-224.1268629659598
 10
3707.938051049322
 20
-222.1185808058999
 10
3707.871141989894
 20
-220.1092650761828
 10
3707.835584704639
 20
-218.0992118194867
 10
3707.831391363451
 20
-216.0887170784917
 10
3707.85857413622
 20
-214.0780768958748
 10
3707.91714519284
 20
-212.0675873143138
 10
3708.007116703206
 20
-210.0575443764888
 10
3708.128500837206
 20
-208.0482441250756
 10
3708.281309764736
 20
-206.0399826027537
 10
3708.369502329165
 20
-205.0363338783398
 10
3708.465555655686
 20
-204.0330558522028
 10
3708.569471265536
 20
-203.0301855296777
 10
3708.681250679952
 20
-202.0277599161009
 10
3708.800895420168
 20
-201.0258160168048
 10
3708.928407007423
 20
-200.0243908371237
 10
3709.063786962953
 20
-199.0235213823948
 10
3709.207036807993
 20
-198.0232446579518
 10
3709.358158063782
 20
-197.0235976691299
 10
3709.517152251555
 20
-196.0246174212627
 10
3709.68402089255
 20
-195.0263409196868
 10
3709.858765508002
 20
-194.0288051697357
 10
3710.041387619148
 20
-193.0320471767438
 10
3710.231888747225
 20
-192.0361039460467
 10
3710.43027041347
 20
-191.0410124829809
 10
3710.676134309906
 20
-189.8559347555767
  0
LWPOLYLINE
  5
4C02
330
4B6C
100
AcDbEntity
  8
5MM
 62
     0
100
AcDbPolyline
 90
      257
 70
     0
 43
0.0
 10
3705.184063589428
 20
-192.3102784183477
 10
3704.605432389826
 20
-193.5815486720828
 10
3704.096161126304
 20
-194.7299861344729
 10
3703.598788924946
 20
-195.8817792464738
 10
3703.113324422279
 20
-197.0368541956916
 10
3702.639776254825
 20
-198.1951371697298
 10
3702.178153059112
 20
-199.3565543561917
 10
3701.728463471663
 20
-200.5210319426858
 10
3701.290716129005
 20
-201.6884961168118
 10
3700.864919667664
 20
-202.8588730661768
 10
3700.451082724162
 20
-204.0320889783868
 10
3700.049213935026
 20
-205.2080700410438
 10
3699.659321936783
 20
-206.3867424417538
 10
3699.281415365956
 20
-207.5680323681208
 10
3698.91550285907
 20
-208.7518660077499
 10
3698.561593052653
 20
-209.9381695482448
 10
3698.219694583226
 20
-211.1268691772107
 10
3697.889816087319
 20
-212.3178910822517
 10
3697.571966201453
 20
-213.5111614509737
 10
3697.266153562156
 20
-214.7066064709798
 10
3696.972386805953
 20
-215.9041523298758
 10
3696.690674569368
 20
-217.1037252152648
 10
3696.421025488926
 20
-218.3052513147529
 10
3696.163448201154
 20
-219.5086568159438
 10
3695.917951342576
 20
-220.7138679064419
 10
3695.684543549718
 20
-221.9208107738527
 10
3695.463233459105
 20
-223.1294116057798
 10
3695.254029707262
 20
-224.3395965898278
 10
3695.056940930714
 20
-225.5512919136029
 10
3694.871975765986
 20
-226.7644237647078
 10
3694.699142849605
 20
-227.9789183307478
 10
3694.538450818094
 20
-229.1947017993277
 10
3694.38990830798
 20
-230.4117003580518
 10
3694.253523955788
 20
-231.6298401945237
 10
3694.129306398041
 20
-232.8490474963508
 10
3694.017264271268
 20
-234.0692484511337
 10
3693.917406211991
 20
-235.2903692464809
 10
3693.829740856737
 20
-236.5123360699949
 10
3693.754276842031
 20
-237.7350751092806
 10
3693.691022804398
 20
-238.9585125519427
 10
3693.639987380363
 20
-240.1825745855847
 10
3693.601179206452
 20
-241.4071873978137
 10
3693.574606919189
 20
-242.6322771762309
 10
3693.5602791551
 20
-243.8577701084448
 10
3693.558204550711
 20
-245.0835923820569
 10
3693.568391742546
 20
-246.3096701846728
 10
3693.590849367132
 20
-247.5359297038958
 10
3693.625586060991
 20
-248.7622971273338
 10
3693.672610460651
 20
-249.9886986425877
 10
3693.731931202637
 20
-251.2150604372657
 10
3693.803556923473
 20
-252.4413086989687
 10
3693.887496259685
 20
-253.6673696153039
 10
3693.983757847798
 20
-254.8931693738748
 10
3694.092350324338
 20
-256.1186341622859
 10
3694.21328232583
 20
-257.3436901681428
 10
3694.346562488799
 20
-258.5682635790476
 10
3694.49219944977
 20
-259.7922805826077
 10
3694.650201845268
 20
-261.0156673664267
 10
3694.820578311818
 20
-262.2383501181089
 10
3695.003337485948
 20
-263.4602550252589
 10
3695.198488004179
 20
-264.6813082754809
 10
3695.40603850304
 20
-265.9014360563808
 10
3695.625997619055
 20
-267.1205645555629
 10
3695.858373988747
 20
-268.3386199606309
 10
3696.103176248644
 20
-269.555528459189
 10
3696.88735151103
 20
-269.6326833411408
 10
3697.65498869507
 20
-269.7358105647547
 10
3698.405892044166
 20
-269.8642443226347
 10
3699.139865801718
 20
-270.0173188073807
 10
3699.856714211127
 20
-270.1943682115948
 10
3700.556241515795
 20
-270.3947267278798
 10
3701.238251959123
 20
-270.6177285488368
 10
3701.902549784511
 20
-270.8627078670688
 10
3702.548939235359
 20
-271.1289988751748
 10
3703.177224555072
 20
-271.4159357657586
 10
3703.787209987047
 20
-271.7228527314219
 10
3704.378699774685
 20
-272.0490839647657
 10
3704.95149816139
 20
-272.3939636583939
 10
3705.505409390561
 20
-272.7568260049056
 10
3706.040237705599
 20
-273.1370051969047
 10
3706.555787349905
 20
-273.5338354269918
 10
3707.05186256688
 20
-273.9466508877688
 10
3707.528267599926
 20
-274.3747857718379
 10
3707.984806692443
 20
-274.8175742718008
 10
3708.421284087832
 20
-275.2743505802598
 10
3708.837504029494
 20
-275.7444488898148
 10
3709.233270760829
 20
-276.2272033930708
 10
3709.608388525241
 20
-276.7219482826258
 10
3709.962661566129
 20
-277.228017751085
 10
3710.295894126892
 20
-277.7447459910488
 10
3710.607890450934
 20
-278.2714671951187
 10
3710.898454781656
 20
-278.8075155558956
 10
3711.167391362457
 20
-279.3522252659839
 10
3711.414504436739
 20
-279.9049305179837
 10
3711.639598247903
 20
-280.4649655044968
 10
3711.84247703935
 20
-281.0316644181257
 10
3712.022945054481
 20
-281.6043614514729
 10
3712.180806536696
 20
-282.1823907971368
 10
3712.315865729397
 20
-282.7650866477229
 10
3712.427926875986
 20
-283.3517831958316
 10
3712.516794219862
 20
-283.9418146340647
 10
3712.582272004426
 20
-284.5345151550239
 10
3712.624164473081
 20
-285.1292189513117
 10
3712.642275869226
 20
-285.7252602155286
 10
3712.636410436263
 20
-286.3219731402769
 10
3712.606372417592
 20
-286.9186919181607
 10
3712.551966056615
 20
-287.5147507417766
 10
3712.472995596733
 20
-288.1094838037318
 10
3712.369265281346
 20
-288.7022252966258
 10
3712.240579353856
 20
-289.2923094130597
 10
3712.086742057664
 20
-289.879070345638
 10
3711.90755763617
 20
-290.4618422869578
 10
3711.702830332775
 20
-291.0399594296259
 10
3711.472364390881
 20
-291.6127559662409
 10
3711.215964053888
 20
-292.1795660894068
 10
3710.933433565199
 20
-292.7397239917227
 10
3710.624577168212
 20
-293.2925638657916
 10
3710.28919910633
 20
-293.8374199042178
 10
3709.927103622953
 20
-294.3736262995988
 10
3709.538094961482
 20
-294.9005172445398
 10
3709.121977365319
 20
-295.4174269316418
 10
3708.678555077864
 20
-295.923689553506
 10
3708.207632342519
 20
-296.4186393027328
 10
3707.709013402683
 20
-296.9016103719278
 10
3707.182502501759
 20
-297.3719369536878
 10
3706.627903883148
 20
-297.8289532406197
 10
3706.045021790248
 20
-298.271993425323
 10
3705.433660466463
 20
-298.700391700399
 10
3704.793624155195
 20
-299.1134822584488
 10
3704.208572790579
 20
-299.4338665371399
 10
3703.618145669787
 20
-299.7338461674685
 10
3703.022769643149
 20
-300.0136035495368
 10
3702.422871560995
 20
-300.2733210834397
 10
3701.818878273656
 20
-300.5131811692786
 10
3701.211216631461
 20
-300.7333662071487
 10
3700.600313484742
 20
-300.9340585971527
 10
3699.986595683827
 20
-301.115440739387
 10
3699.370490079047
 20
-301.2776950339478
 10
3698.752423520733
 20
-301.4210038809379
 10
3698.132822859216
 20
-301.545549680453
 10
3697.512114944824
 20
-301.6515148325928
 10
3696.890726627888
 20
-301.7390817374549
 10
3696.269084758738
 20
-301.8084327951376
 10
3695.647616187706
 20
-301.8597504057418
 10
3695.026747765119
 20
-301.8932169693628
 10
3694.40690634131
 20
-301.9090148861017
 10
3693.788518766609
 20
-301.9073265560546
 10
3693.172011891345
 20
-301.888334379323
 10
3692.557812565848
 20
-301.8522207560029
 10
3691.946347640449
 20
-301.7991680861926
 10
3691.33804396548
 20
-301.7293587699928
 10
3690.733328391267
 20
-301.6429752075019
 10
3690.132627768144
 20
-301.5401997988147
 10
3689.536368946439
 20
-301.4212149440348
 10
3688.944978776484
 20
-301.2862030432568
 10
3688.358884108608
 20
-301.1353464965818
 10
3687.77851179314
 20
-300.9688277041046
 10
3687.204288680413
 20
-300.7868290659287
 10
3686.636641620756
 20
-300.5895329821496
 10
3686.075997464499
 20
-300.3771218528668
 10
3685.522783061973
 20
-300.1497780781788
 10
3684.977425263506
 20
-299.9076840581827
 10
3684.44035091943
 20
-299.6510221929777
 10
3683.911986880076
 20
-299.3799748826628
 10
3683.392759995772
 20
-299.0947245273367
 10
3682.883097116851
 20
-298.7954535270978
 10
3682.383425093641
 20
-298.4823442820448
 10
3681.894170776473
 20
-298.1555791922758
 10
3681.415761015677
 20
-297.8153406578867
 10
3680.948622661583
 20
-297.4618110789815
 10
3680.493182564521
 20
-297.0951728556547
 10
3680.049867574823
 20
-296.715608388007
 10
3679.619104542818
 20
-296.3233000761338
 10
3679.201320318835
 20
-295.9184303201368
 10
3678.796941753206
 20
-295.5011815201126
 10
3678.406395696261
 20
-295.0717360761609
 10
3678.030108998329
 20
-294.6302763883787
 10
3677.668508509742
 20
-294.1769848568668
 10
3677.322021080828
 20
-293.7120438817228
 10
3676.99107356192
 20
-293.2356358630448
 10
3676.676092803346
 20
-292.74794320093
 10
3676.377505655437
 20
-292.2491482954788
 10
3676.095738968523
 20
-291.7394335467889
 10
3675.831219592935
 20
-291.2189813549608
 10
3675.584374379002
 20
-290.6879741200898
 10
3675.355630177055
 20
-290.1465942422758
 10
3675.145413837423
 20
-289.5950241216178
 10
3674.954152210439
 20
-289.0334461582129
 10
3674.782272146431
 20
-288.4620427521618
 10
3674.630200495729
 20
-287.8809963035608
 10
3674.498364108664
 20
-287.2904892125107
 10
3674.387189835567
 20
-286.6907038791078
 10
3674.297104526767
 20
-286.0818227034529
 10
3674.209364354799
 20
-284.597607554575
 10
3674.134299769112
 20
-283.1135137870417
 10
3674.071897536193
 20
-281.6296042843769
 10
3674.022144422527
 20
-280.1459419301007
 10
3673.985027194603
 20
-278.6625896077398
 10
3673.960532618906
 20
-277.1796102008109
 10
3673.948647461923
 20
-275.6970665928388
 10
3673.949358490141
 20
-274.2150216673458
 10
3673.962652470046
 20
-272.7335383078537
 10
3673.988516168125
 20
-271.2526793978866
 10
3674.026936350863
 20
-269.7725078209649
 10
3674.077899784749
 20
-268.2930864606108
 10
3674.141393236268
 20
-266.8144782003478
 10
3674.217403471908
 20
-265.3367459236988
 10
3674.305917258153
 20
-263.8599525141838
 10
3674.406921361493
 20
-262.3841608553257
 10
3674.520402548412
 20
-260.9094338306488
 10
3674.646347585396
 20
-259.4358343236738
 10
3674.784743238935
 20
-257.9634252179228
 10
3674.935576275513
 20
-256.4922693969208
 10
3675.098833461617
 20
-255.0224297441848
 10
3675.274501563733
 20
-253.5539691432418
 10
3675.462567348349
 20
-252.0869504776129
 10
3675.66301758195
 20
-250.6214366308197
 10
3675.875839031024
 20
-249.1574904863849
 10
3676.101018462057
 20
-247.6951749278307
 10
3676.338542641536
 20
-246.2345528386797
 10
3676.588398335947
 20
-244.7756871024537
 10
3676.850572311776
 20
-243.3186406026757
 10
3677.125051335511
 20
-241.8634762228678
 10
3677.411822173637
 20
-240.4102568465528
 10
3677.710871592643
 20
-238.9590453572498
 10
3678.022186359012
 20
-237.5099046384857
 10
3678.345753239233
 20
-236.0628975737809
 10
3678.681558999794
 20
-234.6180870466578
 10
3679.029590407179
 20
-233.1755359406388
 10
3679.389834227875
 20
-231.7353071392447
 10
3679.762277228369
 20
-230.2974635260009
 10
3680.146906175147
 20
-228.8620679844259
 10
3680.543707834696
 20
-227.4291833980458
 10
3680.952668973504
 20
-225.9988726503798
 10
3681.373776358056
 20
-224.5711986249528
 10
3681.807016754838
 20
-223.146224205284
 10
3682.252376930338
 20
-221.7240122748988
 10
3682.709843651041
 20
-220.3046257173187
 10
3683.179403683435
 20
-218.8881274160649
 10
3683.661043794006
 20
-217.4745802546608
 10
3684.154750749242
 20
-216.0640471166278
 10
3684.660511315627
 20
-214.6565908854898
 10
3685.17831225965
 20
-213.2522744447679
 10
3685.708140347796
 20
-211.8511606779837
 10
3686.249982346551
 20
-210.4533124686607
 10
3686.803825022404
 20
-209.0587927003207
 10
3687.36965514184
 20
-207.6676642564878
 10
3687.947459471345
 20
-206.2799900206808
 10
3688.537224777407
 20
-204.8958328764247
 10
3689.138937826512
 20
-203.5152557072418
 10
3689.752585385146
 20
-202.1383213966537
 10
3690.378154219796
 20
-200.7650928281819
 10
3691.015631096949
 20
-199.3956328853498
 10
3691.665002783091
 20
-198.0300044516787
 10
3692.32625604471
 20
-196.6682704106917
 10
3692.99937764829
 20
-195.3104936459137
 10
3693.68435436032
 20
-193.9567370408617
  0
LWPOLYLINE
  5
4C03
330
4B6C
100
AcDbEntity
  8
5MM
 62
     0
100
AcDbPolyline
 90
      129
 70
     0
 43
0.0
 10
3730.104644884018
 20
91.43108896866307
 10
3730.913581851097
 20
90.16075386511023
 10
3731.697948782784
 20
88.88082191993408
 10
3732.457739141784
 20
87.59158703060018
 10
3733.192946390803
 20
86.29334309457306
 10
3733.903563992543
 20
84.98638400932112
 10
3734.58958540971
 20
83.67100367230909
 10
3735.251004105008
 20
82.34749598100211
 10
3735.887813541141
 20
81.01615483286719
 10
3736.500007180814
 20
79.67727412536806
 10
3737.087578486731
 20
78.33114775597414
 10
3737.650520921596
 20
76.97806962214826
 10
3738.188827948115
 20
75.61833362135735
 10
3738.702493028992
 20
74.25223365106717
 10
3739.191509626931
 20
72.88006360874419
 10
3739.655871204635
 20
71.50211739185306
 10
3740.095571224812
 20
70.11868889786024
 10
3740.510603150162
 20
68.73007202423218
 10
3740.900960443393
 20
67.33656066843423
 10
3741.266636567207
 20
65.93844872793124
 10
3741.607624984311
 20
64.53603010019015
 10
3741.923919157408
 20
63.12959868267717
 10
3742.215512549201
 20
61.71944837285718
 10
3742.482398622397
 20
60.30587306819711
 10
3742.724570839699
 20
58.88916666616228
 10
3742.942022663811
 20
57.46962306421711
 10
3743.13474755744
 20
56.04753615983032
 10
3743.302738983287
 20
54.62319985046519
 10
3743.44599040406
 20
53.19690803358913
 10
3743.564495282459
 20
51.76895460666833
 10
3743.658247081192
 20
50.33963346716632
 10
3743.727239262963
 20
48.90923851255116
 10
3743.771465290475
 20
47.47806364028815
 10
3743.790918626434
 20
46.04640274784332
 10
3743.785592733542
 20
44.61454973268132
 10
3743.755481074507
 20
43.18279849226928
 10
3743.700577112031
 20
41.75144292407231
 10
3743.620874308818
 20
40.32077692555731
 10
3743.516366127574
 20
38.89109439418826
 10
3743.387046031003
 20
37.46268922743321
 10
3743.232907481809
 20
36.03585532275611
 10
3743.053943942697
 20
34.61088657762412
 10
3742.850148876371
 20
33.18807688950233
 10
3742.621515745535
 20
31.76772015585721
 10
3742.368038012894
 20
30.35011027415408
 10
3742.089709141153
 20
28.93554114185917
 10
3741.786522593016
 20
27.52430665643919
 10
3741.458471831187
 20
26.11670071535718
 10
3741.105550318371
 20
24.71301721608234
 10
3740.727751517272
 20
23.31355005607816
 10
3740.325068890594
 20
21.91859313281225
 10
3739.897495901042
 20
20.52844034374834
 10
3739.445026011322
 20
19.14338558635427
 10
3738.967652684136
 20
17.76372275809421
 10
3738.465369382189
 20
16.38974575643624
 10
3737.938169568186
 20
15.0217484788443
 10
3737.386046704831
 20
13.66002482278418
 10
3736.808994254829
 20
12.30486868572325
 10
3736.207005680884
 20
10.95657396512524
 10
3735.5800744457
 20
9.615434558458218
 10
3734.928194011982
 20
8.281744363187272
 10
3734.251357842435
 20
6.955797276778184
 10
3733.549559399763
 20
5.637887196696283
 10
3732.822792146669
 20
4.328308020408258
 10
3732.07104954586
 20
3.027353645379207
 10
3731.538643283107
 20
2.518716027736218
 10
3730.994134657156
 20
2.037590988070178
 10
3730.438192005778
 20
1.583716636471308
 10
3729.871483666741
 20
1.156831083031192
 10
3729.294677977814
 20
0.7566724378411891
 10
3728.708443276764
 20
0.3829788109921992
 10
3728.113447901363
 20
0.035488312578309
 10
3727.510360189378
 20
-0.2860609473127624
 10
3726.899848478578
 20
-0.5819308585857926
 10
3726.282581106732
 20
-0.8523833111516978
 10
3725.65922641161
 20
-1.097680194918666
 10
3725.030452730978
 20
-1.318083399795796
 10
3724.396928402608
 20
-1.513854815688773
 10
3723.759321764268
 20
-1.685256332509879
 10
3723.118301153725
 20
-1.832549840164801
 10
3722.474534908751
 20
-1.955997228563774
 10
3721.828691367112
 20
-2.05586038761362
 10
3721.18143886658
 20
-2.132401207224802
 10
3720.53344574492
 20
-2.185881577303689
 10
3719.885380339903
 20
-2.216563387760743
 10
3719.237910989299
 20
-2.224708528503697
 10
3718.591706030875
 20
-2.210578889440739
 10
3717.9474338024
 20
-2.17443636048074
 10
3717.305762641645
 20
-2.116542831532797
 10
3716.667360886376
 20
-2.037160192504643
 10
3716.032896874363
 20
-1.936550333303785
 10
3715.403038943376
 20
-1.81497514384182
 10
3714.778455431182
 20
-1.672696514023755
 10
3714.159814675551
 20
-1.509976333759823
 10
3713.547785014253
 20
-1.327076492958667
 10
3712.943034785054
 20
-1.124258881528703
 10
3712.346232325726
 20
-0.9017853893788014
 10
3711.758045974035
 20
-0.6599179064166947
 10
3711.179144067751
 20
-0.3989183225507986
 10
3710.610194944644
 20
-0.1190485276897562
 10
3710.051866942482
 20
0.1794295882573351
 10
3709.504828399033
 20
0.4962541353822872
 10
3708.969747652068
 20
0.8311632237762296
 10
3708.447293039354
 20
1.183894963532338
 10
3707.93813289866
 20
1.554187464739243
 10
3707.442935567756
 20
1.941778837491256
 10
3706.96236938441
 20
2.346407191878142
 10
3706.497102686391
 20
2.76781063799126
 10
3706.047803811468
 20
3.20572728592424
 10
3705.61514109741
 20
3.659895245765255
 10
3705.199782881986
 20
4.130052627608165
 10
3704.802397502965
 20
4.615937541544099
 10
3704.423653298114
 20
5.117288097664186
 10
3704.064218605205
 20
5.633842406060239
 10
3703.724761762005
 20
6.16533857682316
 10
3703.405951106282
 20
6.711514720045215
 10
3703.108454975808
 20
7.272108945817308
 10
3702.832941708349
 20
7.846859364231249
 10
3702.580079641675
 20
8.43550408537817
 10
3702.350537113554
 20
9.037781219349199
 10
3702.144982461756
 20
9.653428876237057
 10
3701.964084024049
 20
10.28218516613333
 10
3701.808510138203
 20
10.9237881991271
 10
3701.678929141986
 20
11.57797608531223
 10
3701.576009373167
 20
12.2444869347803
 10
3701.500419169515
 20
12.92305885762016
 10
3701.452826868799
 20
13.61342996392614
 10
3701.433900808787
 20
14.31533836378912
 10
3701.44430932725
 20
15.02852216729911
  0
LWPOLYLINE
  5
4C04
330
4B6C
100
AcDbEntity
  8
5MM
 62
     0
100
AcDbPolyline
 90
      257
 70
     0
 43
0.0
 10
3720.28591397102
 20
83.64189513216514
 10
3720.592728113866
 20
82.47576926509305
 10
3720.87440211001
 20
81.30796006800109
 10
3721.131054290224
 20
80.13876492886835
 10
3721.362802985279
 20
78.96848123567315
 10
3721.569766525948
 20
77.79740637639611
 10
3721.752063243002
 20
76.6258377390152
 10
3721.909811467214
 20
75.4540727115102
 10
3722.043129529356
 20
74.28240868185935
 10
3722.152135760199
 20
73.1111430380422
 10
3722.236948490516
 20
71.9405731680381
 10
3722.297686051078
 20
70.77099645982525
 10
3722.334466772658
 20
69.60271030138414
 10
3722.347408986027
 20
68.43601208069322
 10
3722.336631021958
 20
67.27119918573134
 10
3722.302251211221
 20
66.1085690044772
 10
3722.24438788459
 20
64.94841892491127
 10
3722.163159372836
 20
63.79104633501106
 10
3722.058684006732
 20
62.63674862275729
 10
3721.931080117048
 20
61.48582317612818
 10
3721.780466034559
 20
60.33856738310214
 10
3721.606960090034
 20
59.19527863166035
 10
3721.410680614246
 20
58.05625430978034
 10
3721.191745937968
 20
56.92179180544008
 10
3720.950274391969
 20
55.79218850662141
 10
3720.686384307025
 20
54.6677418013021
 10
3720.400194013905
 20
53.54874907746125
 10
3720.091821843383
 20
52.43550772307731
 10
3719.761386126228
 20
51.32831512613029
 10
3719.409005193216
 20
50.22746867459932
 10
3719.034797375115
 20
49.13326575646215
 10
3718.6388810027
 20
48.04600375970039
 10
3718.221374406742
 20
46.96598007229113
 10
3717.782395918013
 20
45.89349208221415
 10
3717.322063867283
 20
44.82883717744835
 10
3716.840496585327
 20
43.77231274597306
 10
3716.337812402916
 20
42.7242161757672
 10
3715.814129650821
 20
41.68484485480917
 10
3715.269566659814
 20
40.65449617108038
 10
3714.704241760669
 20
39.63346751255722
 10
3714.118273284156
 20
38.62205626722039
 10
3713.511779561046
 20
37.62055982304833
 10
3712.884878922114
 20
36.62927556802015
 10
3712.23768969813
 20
35.6485008901152
 10
3711.570330219867
 20
34.67853317731329
 10
3710.882918818096
 20
33.71966981759238
 10
3710.175573823589
 20
32.77220819893114
 10
3709.448413567118
 20
31.83644570931028
 10
3708.701556379456
 20
30.91267973670824
 10
3707.935120591374
 20
30.00120766910436
 10
3707.149224533644
 20
29.1023268944773
 10
3706.343986537039
 20
28.21633480080527
 10
3705.51952493233
 20
27.34352877606921
 10
3704.675958050289
 20
26.48420620824709
 10
3703.813404221687
 20
25.63866448531826
 10
3702.931981777298
 20
24.80720099526229
 10
3702.031809047893
 20
23.99011312605717
 10
3701.113004364243
 20
23.18769826568223
 10
3700.175686057122
 20
22.40025380211819
 10
3699.219972457302
 20
21.62807712334325
 10
3698.245981895553
 20
20.87146561733516
 10
3697.253832702647
 20
20.13071667207419
 10
3696.243643209356
 20
19.40612767554035
 10
3695.215531746455
 20
18.69799601571026
 10
3694.169616644713
 20
18.00661908056622
 10
3693.694131676443
 20
17.73496634637331
 10
3693.21516626076
 20
17.48447392942626
 10
3692.733138867065
 20
17.25485940443923
 10
3692.248467964751
 20
17.04584034612821
 10
3691.761572023216
 20
16.85713432920829
 10
3691.272869511859
 20
16.68845892839317
 10
3690.782778900074
 20
16.53953171839816
 10
3690.291718657257
 20
16.41007027393925
 10
3689.800107252808
 20
16.29979216973015
 10
3689.308363156122
 20
16.20841498048617
 10
3688.816904836596
 20
16.13565628092328
 10
3688.326150763627
 20
16.08123364575522
 10
3687.836519406611
 20
16.04486464969614
 10
3687.348429234947
 20
16.0262668674643
 10
3686.862298718028
 20
16.02515787377138
 10
3686.378546325254
 20
16.04125524333335
 10
3685.89759052602
 20
16.07427655086621
 10
3685.419849789725
 20
16.12393937108322
 10
3684.945742585764
 20
16.18996127870014
 10
3684.475687383534
 20
16.27205984843317
 10
3684.010102652432
 20
16.36995265499513
 10
3683.549406861855
 20
16.48335727310223
 10
3683.094018481198
 20
16.61199127746909
 10
3682.644355979861
 20
16.7555722428101
 10
3682.200837827239
 20
16.9138177438424
 10
3681.763882492728
 20
17.08644535527833
 10
3681.333908445726
 20
17.27317265183319
 10
3680.91133415563
 20
17.47371720822411
 10
3680.496578091836
 20
17.68779659916436
 10
3680.09005872374
 20
17.91512839936922
 10
3679.692194520741
 20
18.15543018355333
 10
3679.303403952235
 20
18.40841952643222
 10
3678.924105487617
 20
18.67381400272006
 10
3678.554717596287
 20
18.95133118713215
 10
3678.195658747639
 20
19.24068865438426
 10
3677.84734741107
 20
19.54160397919008
 10
3677.510202055979
 20
19.85379473626517
 10
3677.184641151761
 20
20.17697850032619
 10
3676.871083167814
 20
20.51087284608525
 10
3676.569946573533
 20
20.85519534825812
 10
3676.281649838315
 20
21.20966358156011
 10
3676.00661143156
 20
21.57399512070719
 10
3675.745249822661
 20
21.94790754041219
 10
3675.497983481015
 20
22.33111841539221
 10
3675.265230876021
 20
22.7233453203612
 10
3675.047410477075
 20
23.12430583003425
 10
3674.844940753573
 20
23.53371751912527
 10
3674.658240174913
 20
23.95129796235119
 10
3674.487727210491
 20
24.37676473442525
 10
3674.333820329703
 20
24.80983541006413
 10
3674.196938001948
 20
25.2502275639813
 10
3674.07749869662
 20
25.69765877089208
 10
3673.975920883118
 20
26.15184660551108
 10
3673.892623030839
 20
26.61250864255521
 10
3673.828023609178
 20
27.07936245673636
 10
3673.782541087533
 20
27.55212562277211
 10
3673.7565939353
 20
28.03051571537617
 10
3673.750600621876
 20
28.5142503092643
 10
3673.764979616659
 20
29.00304697915021
 10
3673.800149389044
 20
29.49662329975013
 10
3673.856528408428
 20
29.99469684577821
 10
3673.93453514421
 20
30.49698519194931
 10
3674.034588065783
 20
31.00320591297919
 10
3674.157105642549
 20
31.51307658358224
 10
3674.243065065566
 20
31.80646673006322
 10
3674.338396101167
 20
32.09391471455024
 10
3674.442876556444
 20
32.3753586227831
 10
3674.556284238486
 20
32.65073654050025
 10
3674.678396954384
 20
32.91998655344128
 10
3674.808992511229
 20
33.18304674734418
 10
3674.947848716112
 20
33.43985520794627
 10
3675.094743376122
 20
33.69035002098917
 10
3675.249454298351
 20
33.93446927221021
 10
3675.41175928989
 20
34.17215104734623
 10
3675.58143615783
 20
34.40333343213934
 10
3675.758262709261
 20
34.62795451232523
 10
3675.942016751273
 20
34.8459523736442
 10
3676.132476090958
 20
35.05726510183513
 10
3676.329418535406
 20
35.26183078263625
 10
3676.532621891708
 20
35.45958750178625
 10
3676.741863966955
 20
35.6504733450231
 10
3676.956922568236
 20
35.83442639808732
 10
3677.177575502644
 20
36.01138474671529
 10
3677.403600577268
 20
36.18128647664708
 10
3677.634775599199
 20
36.34406967362224
 10
3677.870878375529
 20
36.49967242337834
 10
3678.111686713347
 20
36.64803281165337
 10
3678.356978419746
 20
36.78908892418736
 10
3678.606531301813
 20
36.9227788467183
 10
3678.860123166642
 20
37.04904066498512
 10
3679.117531821322
 20
37.16781246472624
 10
3679.378535072944
 20
37.27903233168126
 10
3679.6429107286
 20
37.38263835158818
 10
3679.910436595379
 20
37.47856861018636
 10
3680.180890480373
 20
37.56676119321219
 10
3680.454050190671
 20
37.64715418640822
 10
3680.729693533365
 20
37.71968567550926
 10
3681.007598315547
 20
37.78429374625716
 10
3681.287542344304
 20
37.84091648438835
 10
3681.569303426729
 20
37.88949197564216
 10
3681.852659369913
 20
37.92995830575819
 10
3682.137387980946
 20
37.96225356047421
 10
3682.42326706692
 20
37.98631582553026
 10
3682.710074434924
 20
38.00208318666228
 10
3682.997587892049
 20
38.00949372961122
 10
3683.285585245386
 20
38.00848554011622
 10
3683.573844302026
 20
37.99899670391415
 10
3683.86214286906
 20
37.98096530674411
 10
3684.150258753577
 20
37.95432943434639
 10
3684.437969762669
 20
37.91902717245807
 10
3684.725053703427
 20
37.87499660681829
 10
3685.011288382941
 20
37.82217582316525
 10
3685.296451608302
 20
37.76050290723925
 10
3685.580321186601
 20
37.68991594477711
 10
3685.862674924927
 20
37.61035302151936
 10
3686.143290630373
 20
37.52175222320329
 10
3686.421946110029
 20
37.42405163556737
 10
3686.698419170984
 20
37.31718934435117
 10
3686.972487620331
 20
37.20110343529313
 10
3687.24392926516
 20
37.07573199413218
 10
3687.512521912561
 20
36.94101310660722
 10
3687.778043369627
 20
36.79688485845622
 10
3688.040271443445
 20
36.64328533541811
 10
3688.298983941108
 20
36.48015262323133
 10
3688.553958669706
 20
36.30742480763525
 10
3688.804973436331
 20
36.1250399743692
 10
3689.051806048071
 20
35.93293620917029
 10
3689.29423431202
 20
35.7310515977772
 10
3690.004955362625
 20
36.09924615143132
 10
3690.705491424566
 20
36.47931817195831
 10
3691.395744939296
 20
36.87108191370226
 10
3692.075618348268
 20
37.27435163100518
 10
3692.745014092938
 20
37.68894157821433
 10
3693.40383461476
 20
38.11466600967128
 10
3694.051982355188
 20
38.55133917972125
 10
3694.689359755676
 20
38.99877534270718
 10
3695.315869257679
 20
39.45678875297313
 10
3695.931413302651
 20
39.92519366486408
 10
3696.535894332046
 20
40.4038043327232
 10
3697.129214787317
 20
40.89243501089436
 10
3697.711277109921
 20
41.39089995372228
 10
3698.28198374131
 20
41.89901341555014
 10
3698.84123712294
 20
42.41658965072315
 10
3699.388939696263
 20
42.94344291358425
 10
3699.924993902735
 20
43.47938745847705
 10
3700.44930218381
 20
44.0242375397463
 10
3700.961766980942
 20
44.57780741173519
 10
3701.462290735586
 20
45.13991132878913
 10
3701.950775889195
 20
45.71036354525108
 10
3702.427124883224
 20
46.2889783154651
 10
3702.891240159126
 20
46.87556989377526
 10
3703.343024158357
 20
47.46995253452519
 10
3703.782379322371
 20
48.07194049205918
 10
3704.209208092622
 20
48.68134802072131
 10
3704.623412910564
 20
49.29798937485521
 10
3705.024896217651
 20
49.92167880880515
 10
3705.413560455337
 20
50.55223057691524
 10
3705.789308065078
 20
51.18945893352907
 10
3706.152041488326
 20
51.83317813299118
 10
3706.501663166537
 20
52.48320242964519
 10
3706.838075541165
 20
53.13934607783517
 10
3707.161181053663
 20
53.80142333190429
 10
3707.470882145487
 20
54.46924844619821
 10
3707.76708125809
 20
55.14263567505918
 10
3708.049680832927
 20
55.82139927283219
 10
3708.318583311451
 20
56.50535349386018
 10
3708.573691135118
 20
57.19431259248813
 10
3708.814906745381
 20
57.88809082306125
 10
3709.042132583694
 20
58.5865024399202
 10
3709.255271091513
 20
59.2893616974111
 10
3709.454224710291
 20
59.99648284987824
 10
3709.638895881481
 20
60.70768015166527
 10
3709.809187046541
 20
61.4227678571151
 10
3709.965000646922
 20
62.14156022057318
 10
3710.106239124079
 20
62.86387149638222
 10
3710.232804919466
 20
63.58951593888718
 10
3710.344600474537
 20
64.31830780243126
 10
3710.441528230749
 20
65.05006134135919
 10
3710.523490629553
 20
65.78459081001324
 10
3710.590390112404
 20
66.5217104627402
 10
3710.642129120758
 20
67.26123455388233
 10
3710.678610096067
 20
68.00297733778325
 10
3710.699735479786
 20
68.74675306878725
 10
3710.70540771337
 20
69.49237600123933
 10
3710.695529238273
 20
70.2396603894822
 10
3710.670002495948
 20
70.98842048786105
 10
3710.628729927851
 20
71.73847055071814
 10
3710.571613975435
 20
72.48962483239916
 10
3710.498557080155
 20
73.24169758724725
 10
3710.409461683465
 20
73.99450306960625
 10
3710.30423022682
 20
74.74785553382026
 10
3710.182765151671
 20
75.50156923423424
  0
LWPOLYLINE
  5
4C05
330
4B6C
100
AcDbEntity
  8
5MM
 62
     0
100
AcDbPolyline
 90
        2
 70
     0
 43
0.0
 10
3699.36215238434
 20
509.6138908830778
 10
3699.346822097255
 20
509.57512662313
  0
LWPOLYLINE
  5
4C06
330
4B6C
100
AcDbEntity
  8
5MM
 62
     0
100
AcDbPolyline
 90
        2
 70
     0
 43
0.0
 10
3699.364079898462
 20
-301.2791813392289
 10
3699.348749611378
 20
-301.2404170792797
  0
LWPOLYLINE
  5
4C07
330
4B6C
100
AcDbEntity
  8
2MM
 62
     0
100
AcDbPolyline
 90
      128
 70
     1
 43
0.0
 10
3696.850492240511
 20
104.1672806413411
 10
3696.856001637466
 20
104.3719110436507
 10
3696.872352470335
 20
104.5738551429898
 10
3696.899278702132
 20
104.7728630881598
 10
3696.93651429587
 20
104.9686850279633
 10
3696.983793214561
 20
105.1610711112026
 10
3697.040849421217
 20
105.3497714866795
 10
3697.107416878852
 20
105.5345363031958
 10
3697.183229550478
 20
105.7151157095538
 10
3697.268021399106
 20
105.8912598545555
 10
3697.361526387749
 20
106.0627188870038
 10
3697.46347847942
 20
106.2292429557
 10
3697.573611637132
 20
106.3905822094457
 10
3697.691659823897
 20
106.546486797044
 10
3697.817357002727
 20
106.6967068672965
 10
3697.950437136635
 20
106.8409925690051
 10
3698.090634188633
 20
106.9790940509724
 10
3698.237682121733
 20
107.1107614620005
 10
3698.39131489895
 20
107.2357449508911
 10
3698.551266483293
 20
107.3537946664461
 10
3698.717270837777
 20
107.4646607574684
 10
3698.889061925414
 20
107.5680933727591
 10
3699.066373709215
 20
107.6638426611211
 10
3699.248940152194
 20
107.7516587713559
 10
3699.436495217363
 20
107.8312918522665
 10
3699.628772867735
 20
107.9024920526535
 10
3699.825507066321
 20
107.9650095213203
 10
3700.026431776136
 20
108.0185944070688
 10
3700.23128096019
 20
108.0629968587004
 10
3700.439788581496
 20
108.0979670250177
 10
3700.651688603068
 20
108.1232550548227
 10
3700.866714987917
 20
108.1386110969174
 10
3701.084601699055
 20
108.1437853001043
 10
3701.302488410193
 20
108.1386110969174
 10
3701.517514795042
 20
108.1232550548227
 10
3701.729414816614
 20
108.0979670250177
 10
3701.93792243792
 20
108.0629968587004
 10
3702.142771621974
 20
108.0185944070688
 10
3702.343696331789
 20
107.9650095213203
 10
3702.540430530375
 20
107.9024920526535
 10
3702.732708180747
 20
107.8312918522665
 10
3702.920263245915
 20
107.7516587713559
 10
3703.102829688895
 20
107.6638426611211
 10
3703.280141472697
 20
107.5680933727591
 10
3703.451932560334
 20
107.4646607574684
 10
3703.617936914817
 20
107.3537946664461
 10
3703.777888499161
 20
107.2357449508911
 10
3703.931521276376
 20
107.1107614620005
 10
3704.078569209477
 20
106.9790940509724
 10
3704.218766261475
 20
106.8409925690051
 10
3704.351846395383
 20
106.6967068672965
 10
3704.477543574213
 20
106.546486797044
 10
3704.595591760977
 20
106.3905822094457
 10
3704.705724918689
 20
106.2292429557
 10
3704.807677010361
 20
106.0627188870038
 10
3704.901181999005
 20
105.8912598545555
 10
3704.985973847633
 20
105.7151157095538
 10
3705.061786519258
 20
105.5345363031958
 10
3705.128353976892
 20
105.3497714866795
 10
3705.185410183549
 20
105.1610711112026
 10
3705.23268910224
 20
104.9686850279633
 10
3705.269924695978
 20
104.7728630881598
 10
3705.296850927775
 20
104.5738551429898
 10
3705.313201760645
 20
104.3719110436507
 10
3705.318711157599
 20
104.1672806413411
 10
3705.313201760645
 20
103.962650239031
 10
3705.296850927775
 20
103.760706139692
 10
3705.269924695978
 20
103.5616981945221
 10
3705.23268910224
 20
103.365876254719
 10
3705.185410183549
 20
103.1734901714791
 10
3705.128353976892
 20
102.9847897960031
 10
3705.061786519258
 20
102.8000249794861
 10
3704.985973847633
 20
102.619445573128
 10
3704.901181999005
 20
102.4433014281261
 10
3704.807677010361
 20
102.2718423956781
 10
3704.705724918689
 20
102.1053183269821
 10
3704.595591760977
 20
101.943979073236
 10
3704.477543574213
 20
101.7880744856381
 10
3704.351846395383
 20
101.637854415386
 10
3704.218766261475
 20
101.493568713677
 10
3704.078569209477
 20
101.3554672317101
 10
3703.931521276376
 20
101.2237998206821
 10
3703.777888499161
 20
101.0988163317911
 10
3703.617936914817
 20
100.9807666162361
 10
3703.451932560334
 20
100.8699005252141
 10
3703.280141472697
 20
100.7664679099231
 10
3703.102829688895
 20
100.670718621561
 10
3702.920263245915
 20
100.5829025113262
 10
3702.732708180747
 20
100.5032694304161
 10
3702.540430530375
 20
100.4320692300281
 10
3702.343696331789
 20
100.3695517613621
 10
3702.142771621974
 20
100.3159668756131
 10
3701.93792243792
 20
100.2715644239821
 10
3701.729414816614
 20
100.236594257664
 10
3701.517514795042
 20
100.211306227859
 10
3701.302488410193
 20
100.1959501857642
 10
3701.084601699055
 20
100.1907759825781
 10
3700.866714987917
 20
100.1959501857642
 10
3700.651688603068
 20
100.211306227859
 10
3700.439788581496
 20
100.236594257664
 10
3700.23128096019
 20
100.2715644239821
 10
3700.026431776136
 20
100.3159668756131
 10
3699.825507066321
 20
100.3695517613621
 10
3699.628772867735
 20
100.4320692300281
 10
3699.436495217363
 20
100.5032694304161
 10
3699.248940152194
 20
100.5829025113262
 10
3699.066373709215
 20
100.670718621561
 10
3698.889061925414
 20
100.7664679099231
 10
3698.717270837777
 20
100.8699005252141
 10
3698.551266483293
 20
100.9807666162361
 10
3698.39131489895
 20
101.0988163317911
 10
3698.237682121733
 20
101.2237998206821
 10
3698.090634188633
 20
101.3554672317101
 10
3697.950437136635
 20
101.493568713677
 10
3697.817357002727
 20
101.637854415386
 10
3697.691659823897
 20
101.7880744856381
 10
3697.573611637132
 20
101.943979073236
 10
3697.46347847942
 20
102.1053183269821
 10
3697.361526387749
 20
102.2718423956781
 10
3697.268021399106
 20
102.4433014281261
 10
3697.183229550478
 20
102.619445573128
 10
3697.107416878852
 20
102.8000249794861
 10
3697.040849421217
 20
102.9847897960031
 10
3696.983793214561
 20
103.1734901714791
 10
3696.93651429587
 20
103.365876254719
 10
3696.899278702132
 20
103.5616981945221
 10
3696.872352470335
 20
103.760706139692
 10
3696.856001637466
 20
103.962650239031
  0
LWPOLYLINE
  5
4C08
330
4B6C
100
AcDbEntity
  8
2MM
 62
     0
100
AcDbPolyline
 90
       33
 70
     0
 43
0.0
 10
3704.507381315947
 20
106.508080687794
 10
3705.202648138282
 20
106.6923242133431
 10
3705.893957493682
 20
106.8869265531771
 10
3706.581188044509
 20
107.0918217093154
 10
3707.264218453126
 20
107.3069436837758
 10
3707.942927381895
 20
107.5322264785771
 10
3708.617193493179
 20
107.7676040957384
 10
3709.286895449338
 20
108.0130105372769
 10
3709.951911912737
 20
108.2683798052118
 10
3710.612121545736
 20
108.5336459015624
 10
3711.2674030107
 20
108.8087428283455
 10
3711.917634969989
 20
109.0936045875813
 10
3712.562696085966
 20
109.388165181287
 10
3713.202465020992
 20
109.6923586114824
 10
3713.836820437432
 20
110.0061188801843
 10
3714.465640997646
 20
110.3293799894128
 10
3715.088805363997
 20
110.6620759411859
 10
3715.706192198847
 20
111.0041407375215
 10
3716.317680164558
 20
111.3555083804391
 10
3716.923147923494
 20
111.7161128719568
 10
3717.522474138016
 20
112.0858882140927
 10
3718.115537470485
 20
112.4647684088658
 10
3718.702216583265
 20
112.8526874582946
 10
3719.282390138719
 20
113.2495793643974
 10
3719.855936799206
 20
113.6553781291931
 10
3720.422735227091
 20
114.0700177546997
 10
3720.982664084737
 20
114.4934322429358
 10
3721.535602034504
 20
114.9255555959204
 10
3722.081427738755
 20
115.3663218156715
 10
3722.620019859852
 20
115.8156649042074
 10
3723.151257060158
 20
116.2735188635475
 10
3723.675018002035
 20
116.7398176957096
 10
3724.191181347844
 20
117.2144954027124
  0
LWPOLYLINE
  5
4C09
330
4B6C
100
AcDbEntity
  8
2MM
 62
     0
100
AcDbPolyline
 90
       33
 70
     0
 43
0.0
 10
3702.689056682432
 20
107.8472296212195
 10
3703.33496290791
 20
108.2365693100466
 10
3703.964278928697
 20
108.6438572242978
 10
3704.576723037508
 20
109.0686096438651
 10
3705.172013527058
 20
109.5103428486387
 10
3705.749868690061
 20
109.9685731185103
 10
3706.310006819232
 20
110.4428167333711
 10
3706.852146207287
 20
110.9325899731119
 10
3707.376005146938
 20
111.4374091176244
 10
3707.881301930903
 20
111.9567904467994
 10
3708.367754851894
 20
112.4902502405279
 10
3708.835082202628
 20
113.0373047787014
 10
3709.283002275818
 20
113.5974703412111
 10
3709.71123336418
 20
114.1702632079478
 10
3710.119493760428
 20
114.7551996588031
 10
3710.507501757277
 20
115.3517959736678
 10
3710.874975647442
 20
115.9595684324332
 10
3711.221633723638
 20
116.5780333149907
 10
3711.547194278578
 20
117.2067069012311
 10
3711.851375604979
 20
117.8451054710458
 10
3712.133895995554
 20
118.4927453043257
 10
3712.39447374302
 20
119.1491426809624
 10
3712.632827140088
 20
119.8138138808464
 10
3712.848674479476
 20
120.4862751838698
 10
3713.041734053899
 20
121.1660428699231
 10
3713.21172415607
 20
121.8526332188974
 10
3713.358363078703
 20
122.5455625106843
 10
3713.481369114515
 20
123.2443470251747
 10
3713.58046055622
 20
123.9485030422596
 10
3713.655355696532
 20
124.6575468418307
 10
3713.705772828167
 20
125.3709947037787
 10
3713.731430243838
 20
126.0883629079949
 10
3713.732046236263
 20
126.8091677343704
  0
LWPOLYLINE
  5
4C0A
330
4B6C
100
AcDbEntity
  8
2MM
 62
     0
100
AcDbPolyline
 90
       33
 70
     0
 43
0.0
 10
3705.318711157599
 20
104.1672806413411
 10
3706.274082598597
 20
104.2112573509955
 10
3707.228261711961
 20
104.2662289464548
 10
3708.181144015401
 20
104.3321715180526
 10
3709.132625026623
 20
104.4090611561233
 10
3710.082600263338
 20
104.4968739510007
 10
3711.030965243256
 20
104.5955859930186
 10
3711.977615484084
 20
104.7051733725114
 10
3712.922446503532
 20
104.8256121798131
 10
3713.865353819311
 20
104.9568785052571
 10
3714.806232949128
 20
105.0989484391783
 10
3715.744979410692
 20
105.2517980719098
 10
3716.681488721714
 20
105.4154034937863
 10
3717.615656399902
 20
105.5897407951414
 10
3718.547377962964
 20
105.7747860663095
 10
3719.476548928611
 20
105.9705153976239
 10
3720.403064814551
 20
106.1769048794194
 10
3721.326821138494
 20
106.3939306020298
 10
3722.247713418149
 20
106.6215686557888
 10
3723.165637171226
 20
106.8597951310307
 10
3724.080487915431
 20
107.1085861180893
 10
3724.992161168476
 20
107.3679177072985
 10
3725.900552448069
 20
107.6377659889928
 10
3726.805557271921
 20
107.9181070535054
 10
3727.707071157738
 20
108.2089169911714
 10
3728.604989623232
 20
108.5101718923239
 10
3729.49920818611
 20
108.8218478472974
 10
3730.389622364083
 20
109.1439209464255
 10
3731.276127674858
 20
109.4763672800423
 10
3732.158619636146
 20
109.8191629384827
 10
3733.036993765655
 20
110.1722840120787
 10
3733.911145581095
 20
110.5357065911664
 10
3734.780970600175
 20
110.9094067660786
  0
LWPOLYLINE
  5
4C0B
330
4B6C
100
AcDbEntity
  8
2MM
 62
     0
100
AcDbPolyline
 90
       33
 70
     0
 43
0.0
 10
3697.661822082163
 20
106.508080687794
 10
3696.966555259829
 20
106.6923242133431
 10
3696.275245904429
 20
106.8869265531771
 10
3695.588015353602
 20
107.0918217093154
 10
3694.904984944985
 20
107.3069436837758
 10
3694.226276016216
 20
107.5322264785771
 10
3693.552009904932
 20
107.7676040957384
 10
3692.882307948773
 20
108.0130105372769
 10
3692.217291485374
 20
108.2683798052118
 10
3691.557081852374
 20
108.5336459015624
 10
3690.901800387411
 20
108.8087428283455
 10
3690.251568428122
 20
109.0936045875813
 10
3689.606507312145
 20
109.388165181287
 10
3688.966738377118
 20
109.6923586114824
 10
3688.332382960679
 20
110.0061188801843
 10
3687.703562400465
 20
110.3293799894128
 10
3687.080398034114
 20
110.6620759411859
 10
3686.463011199264
 20
111.0041407375215
 10
3685.851523233552
 20
111.3555083804391
 10
3685.246055474617
 20
111.7161128719568
 10
3684.646729260095
 20
112.0858882140927
 10
3684.053665927625
 20
112.4647684088658
 10
3683.466986814845
 20
112.8526874582946
 10
3682.886813259392
 20
113.2495793643974
 10
3682.313266598904
 20
113.6553781291931
 10
3681.746468171019
 20
114.0700177546997
 10
3681.186539313374
 20
114.4934322429358
 10
3680.633601363606
 20
114.9255555959204
 10
3680.087775659356
 20
115.3663218156715
 10
3679.549183538258
 20
115.8156649042074
 10
3679.017946337952
 20
116.2735188635475
 10
3678.494185396075
 20
116.7398176957096
 10
3677.978022050265
 20
117.2144954027124
  0
LWPOLYLINE
  5
4C0C
330
4B6C
100
AcDbEntity
  8
2MM
 62
     0
100
AcDbPolyline
 90
       33
 70
     0
 43
0.0
 10
3699.480146715679
 20
107.8472296212195
 10
3698.838111473548
 20
108.2420901688878
 10
3698.212147950229
 20
108.6542049028891
 10
3697.602523078869
 20
109.0831238885794
 10
3697.009503792616
 20
109.5283971913147
 10
3696.433357024617
 20
109.9895748764519
 10
3695.874349708021
 20
110.4662070093463
 10
3695.332748775978
 20
110.9578436553543
 10
3694.808821161633
 20
111.4640348798327
 10
3694.302833798134
 20
111.9843307481368
 10
3693.815053618632
 20
112.5182813256234
 10
3693.345747556271
 20
113.0654366776483
 10
3692.895182544202
 20
113.6253468695683
 10
3692.463625515573
 20
114.1975619667387
 10
3692.05134340353
 20
114.7816320345164
 10
3691.658603141223
 20
115.3771071382574
 10
3691.285671661798
 20
115.9835373433178
 10
3690.932815898405
 20
116.6004727150539
 10
3690.600302784191
 20
117.2274633188214
 10
3690.288399252304
 20
117.8640592199771
 10
3689.997372235893
 20
118.5098104838771
 10
3689.727488668105
 20
119.1642671758775
 10
3689.479015482087
 20
119.8269793613341
 10
3689.252219610989
 20
120.4974971056035
 10
3689.047367987959
 20
121.1753704740418
 10
3688.864727546143
 20
121.8601495320055
 10
3688.704565218691
 20
122.5513843448499
 10
3688.567147938749
 20
123.2486249779318
 10
3688.452742639468
 20
123.9514214966075
 10
3688.361616253994
 20
124.6593239662335
 10
3688.294035715474
 20
125.3718824521647
 10
3688.250267957058
 20
126.0886470197588
 10
3688.230579911894
 20
126.8091677343704
  0
LWPOLYLINE
  5
4C0D
330
4B6C
100
AcDbEntity
  8
2MM
 62
     0
100
AcDbPolyline
 90
       33
 70
     0
 43
0.0
 10
3696.850492240511
 20
104.1672806413411
 10
3696.044338863335
 20
104.1951333904701
 10
3695.239022041011
 20
104.2319475479682
 10
3694.434624268867
 20
104.2777057705387
 10
3693.631228042232
 20
104.3323907148848
 10
3692.828915856433
 20
104.3959850377089
 10
3692.027770206801
 20
104.468471395715
 10
3691.227873588664
 20
104.5498324456055
 10
3690.429308497349
 20
104.6400508440837
 10
3689.632157428186
 20
104.7391092478527
 10
3688.836502876502
 20
104.8469903136158
 10
3688.042427337628
 20
104.9636766980759
 10
3687.25001330689
 20
105.0891510579364
 10
3686.459343279619
 20
105.2233960498998
 10
3685.670499751142
 20
105.3663943306699
 10
3684.883565216787
 20
105.5181285569495
 10
3684.098622171884
 20
105.6785813854415
 10
3683.315753111761
 20
105.8477354728491
 10
3682.535040531746
 20
106.0255734758758
 10
3681.756566927168
 20
106.2120780512243
 10
3680.980414793356
 20
106.4072318555975
 10
3680.206666625637
 20
106.6110175456987
 10
3679.435404919342
 20
106.8234177782315
 10
3678.666712169796
 20
107.0444152098984
 10
3677.900670872331
 20
107.2739924974027
 10
3677.137363522275
 20
107.5121322974476
 10
3676.376872614955
 20
107.7588172667357
 10
3675.6192806457
 20
108.0140300619706
 10
3674.864670109839
 20
108.2777533398555
 10
3674.113123502702
 20
108.5499697570935
 10
3673.364723319615
 20
108.8306619703871
 10
3672.619552055907
 20
109.1198126364398
 10
3671.877692206907
 20
109.4174044119551
  0
LWPOLYLINE
  5
4C0E
330
4B6C
100
AcDbEntity
  8
5MM
 62
     0
100
AcDbPolyline
 90
      512
 70
     1
 43
0.0
 10
3663.718402822503
 20
104.1672806413411
 10
3663.86229623305
 20
103.886489729712
 10
3664.015633456169
 20
103.6117642397421
 10
3664.178186784044
 20
103.3432506908391
 10
3664.349728508851
 20
103.0810956024102
 10
3664.530030922771
 20
102.8254454938602
 10
3664.718866317984
 20
102.5764468845991
 10
3664.916006986669
 20
102.3342462940311
 10
3665.121225221004
 20
102.0989902415651
 10
3665.33429331317
 20
101.870825246607
 10
3665.554983555345
 20
101.6498978285641
 10
3665.783068239711
 20
101.436354506842
 10
3666.018319658445
 20
101.23034180085
 10
3666.260510103727
 20
101.032006229994
 10
3666.509411867737
 20
100.8414943136801
 10
3666.764797242655
 20
100.658952571316
 10
3667.026438520657
 20
100.4845275223081
 10
3667.294107993927
 20
100.3183656860641
 10
3667.567577954642
 20
100.1606135819901
 10
3667.846620694982
 20
100.0114177294941
 10
3668.131008507127
 20
99.87092464798207
 10
3668.420513683255
 20
99.7392808568601
 10
3668.714908515545
 20
99.61663287553802
 10
3669.01396529618
 20
99.50312722342017
 10
3669.317456317335
 20
99.39891041991415
 10
3669.625153871192
 20
99.30412898442705
 10
3669.936830249931
 20
99.2189294363651
 10
3670.252257745729
 20
99.14345829513706
 10
3670.571208650768
 20
99.07786208014819
 10
3670.893455257225
 20
99.02228731080619
 10
3671.218769857282
 20
98.97688050651709
 10
3671.546924743116
 20
98.94178818668809
 10
3671.877692206907
 20
98.91715687072712
 10
3671.745128039575
 20
98.55051121194708
 10
3671.639974306638
 20
98.18341701832309
 10
3671.561575122557
 20
97.81671260505413
 10
3671.509274601798
 20
97.45123628733313
 10
3671.482416858823
 20
97.08782638035712
 10
3671.480346008095
 20
96.72732119932312
 10
3671.50240616408
 20
96.37055905942702
 10
3671.547941441239
 20
96.01837827586303
 10
3671.616295954036
 20
95.67161716382907
 10
3671.706813816933
 20
95.33111403852002
 10
3671.818839144395
 20
94.99770721513312
 10
3671.951716050886
 20
94.67223500886303
 10
3672.10478865087
 20
94.3555357349062
 10
3672.277401058808
 20
94.04844770845921
 10
3672.468897389164
 20
93.75180924471715
 10
3672.678621756401
 20
93.46645865887603
 10
3672.905918274985
 20
93.19323426613312
 10
3673.150131059376
 20
92.93297438168417
 10
3673.410604224039
 20
92.68651732072408
 10
3673.686681883439
 20
92.45470139844906
 10
3673.977708152036
 20
92.23836493005615
 10
3674.283027144296
 20
92.0383462307401
 10
3674.601982974682
 20
91.85548361569805
 10
3674.933919757657
 20
91.69061540012604
 10
3675.278181607684
 20
91.54457989921912
 10
3675.634112639226
 20
91.41821542817309
 10
3676.001056966748
 20
91.31236030218508
 10
3676.378358704713
 20
91.22785283645113
 10
3676.765361967583
 20
91.16553134616607
 10
3677.161410869823
 20
91.12623414652716
 10
3677.565849525897
 20
91.11079955273011
 10
3677.978022050265
 20
91.12006587997006
 10
3677.99816133342
 20
90.62793616983617
 10
3678.043901896166
 20
90.14238233075912
 10
3678.114620727644
 20
89.6639873962772
 10
3678.209694816989
 20
89.19333439992703
 10
3678.328501153341
 20
88.73100637524817
 10
3678.470416725836
 20
88.27758635577811
 10
3678.634818523612
 20
87.83365737505505
 10
3678.821083535807
 20
87.39980246661605
 10
3679.028588751559
 20
86.97660466400009
 10
3679.256711160004
 20
86.56464700074513
 10
3679.50482775028
 20
86.16451251038801
 10
3679.772315511526
 20
85.77678422646807
 10
3680.05855143288
 20
85.4020451825221
 10
3680.362912503477
 20
85.04087841209013
 10
3680.684775712456
 20
84.69386694870809
 10
3681.023518048955
 20
84.36159382591506
 10
3681.37851650211
 20
84.04464207724913
 10
3681.749148061062
 20
83.74359473624712
 10
3682.134789714945
 20
83.45903483644917
 10
3682.534818452899
 20
83.19154541139118
 10
3682.948611264059
 20
82.94170949461216
 10
3683.375545137566
 20
82.71011011964901
 10
3683.814997062555
 20
82.49733032004213
 10
3684.266344028165
 20
82.30395312932705
 10
3684.728963023533
 20
82.13056158104313
 10
3685.202231037796
 20
81.97773870872799
 10
3685.685525060093
 20
81.84606754592016
 10
3686.178222079561
 20
81.73613112615703
 10
3686.679699085337
 20
81.64851248297612
 10
3687.18933306656
 20
81.58379464991606
 10
3687.706501012366
 20
81.54256066051607
 10
3688.230579911894
 20
81.52539354831208
 10
3688.40503132694
 20
80.97150762287412
 10
3688.602717688701
 20
80.42889123232214
 10
3688.823037402978
 20
79.89797111134021
 10
3689.065388875574
 20
79.37917399461412
 10
3689.329170512287
 20
78.87292661683137
 10
3689.613780718921
 20
78.37965571267727
 10
3689.918617901276
 20
77.89978801683719
 10
3690.243080465152
 20
77.43375026399712
 10
3690.586566816352
 20
76.98196918884423
 10
3690.948475360676
 20
76.5448715260643
 10
3691.328204503925
 20
76.1228840103422
 10
3691.725152651901
 20
75.7164333763651
 10
3692.138718210403
 20
75.3259463588181
 10
3692.568299585236
 20
74.95184969238721
 10
3693.013295182197
 20
74.59457011175913
 10
3693.473103407089
 20
74.25453435162012
 10
3693.947122665713
 20
73.93216914665527
 10
3694.43475136387
 20
73.62790123155036
 10
3694.935387907361
 20
73.34215734099235
 10
3695.448430701989
 20
73.07536420966631
 10
3695.973278153551
 20
72.82794857225917
 10
3696.509328667851
 20
72.60033716345628
 10
3697.05598065069
 20
72.39295671794412
 10
3697.612632507869
 20
72.20623397040822
 10
3698.178682645187
 20
72.0405956555353
 10
3698.753529468449
 20
71.89646850801023
 10
3699.336571383452
 20
71.77427926251926
 10
3699.927206796
 20
71.67445465374931
 10
3700.524834111894
 20
71.59742141638526
 10
3701.128851736932
 20
71.54360628511426
 10
3701.738658076919
 20
71.5134359946212
 10
3702.353651537654
 20
71.50733727959232
 10
3702.870099087713
 20
71.61479873961321
 10
3703.379877328413
 20
71.73837258142611
 10
3703.882656950844
 20
71.87777403652126
 10
3704.378108646089
 20
72.03271833638428
 10
3704.865903105237
 20
72.2029207125031
 10
3705.345711019373
 20
72.38809639636634
 10
3705.817203079583
 20
72.58796061946123
 10
3706.280049976952
 20
72.80222861327411
 10
3706.73392240257
 20
73.03061560929427
 10
3707.178491047519
 20
73.27283683900805
 10
3707.613426602888
 20
73.52860753390427
 10
3708.038399759762
 20
73.7976429254702
 10
3708.453081209228
 20
74.07965824519306
 10
3708.857141642372
 20
74.37436872456032
 10
3709.250251750281
 20
74.68148959506016
 10
3709.63208222404
 20
75.00073608818024
 10
3710.002303754735
 20
75.33182343540715
 10
3710.360587033453
 20
75.67446686823018
 10
3710.70660275128
 20
76.0283816181352
 10
3711.040021599303
 20
76.39328291661104
 10
3711.360514268608
 20
76.76888599514518
 10
3711.66775145028
 20
77.15490608522509
 10
3711.961403835407
 20
77.55105841833824
 10
3712.241142115074
 20
77.95705822597233
 10
3712.506636980368
 20
78.37262073961506
 10
3712.757559122375
 20
78.79746119075321
 10
3712.993579232181
 20
79.23129481087517
 10
3713.214368000873
 20
79.67383683146931
 10
3713.419596119535
 20
80.12480248402221
 10
3713.608934279256
 20
80.58390700002211
 10
3713.782053171121
 20
81.05086561095617
 10
3713.938623486217
 20
81.52539354831208
 10
3714.462702385745
 20
81.54256066051607
 10
3714.97987033155
 20
81.58379464991606
 10
3715.489504312773
 20
81.64851248297612
 10
3715.99098131855
 20
81.73613112615703
 10
3716.483678338017
 20
81.84606754592016
 10
3716.966972360315
 20
81.97773870872799
 10
3717.440240374578
 20
82.13056158104313
 10
3717.902859369946
 20
82.30395312932705
 10
3718.354206335555
 20
82.49733032004213
 10
3718.793658260545
 20
82.71011011964901
 10
3719.220592134051
 20
82.94170949461216
 10
3719.634384945213
 20
83.19154541139118
 10
3720.034413683166
 20
83.45903483644917
 10
3720.420055337049
 20
83.74359473624712
 10
3720.790686896001
 20
84.04464207724913
 10
3721.145685349156
 20
84.36159382591506
 10
3721.484427685655
 20
84.69386694870809
 10
3721.806290894634
 20
85.04087841209013
 10
3722.110651965232
 20
85.4020451825221
 10
3722.396887886584
 20
85.77678422646807
 10
3722.664375647831
 20
86.16451251038801
 10
3722.912492238107
 20
86.56464700074513
 10
3723.140614646553
 20
86.97660466400009
 10
3723.348119862304
 20
87.39980246661605
 10
3723.534384874499
 20
87.83365737505505
 10
3723.698786672275
 20
88.27758635577811
 10
3723.84070224477
 20
88.73100637524817
 10
3723.959508581122
 20
89.19333439992703
 10
3724.054582670467
 20
89.6639873962772
 10
3724.125301501945
 20
90.14238233075912
 10
3724.171042064692
 20
90.62793616983617
 10
3724.191181347844
 20
91.12006587997006
 10
3724.647053696133
 20
90.99276285258918
 10
3725.103516802378
 20
90.89153583777909
 10
3725.559705517015
 20
90.81586973136415
 10
3726.01475469048
 20
90.7652494291641
 10
3726.46779917321
 20
90.739159827001
 10
3726.917973815638
 20
90.73708582069912
 10
3727.364413468202
 20
90.75851230607804
 10
3727.806252981336
 20
90.80292417896101
 10
3728.242627205476
 20
90.8698063351701
 10
3728.672670991057
 20
90.95864367052707
 10
3729.095519188515
 20
91.06892108085402
 10
3729.510306648287
 20
91.20012346197313
 10
3729.916168220806
 20
91.35173570970607
 10
3730.312238756511
 20
91.52324271987504
 10
3730.697653105834
 20
91.71412938830213
 10
3731.071546119211
 20
91.92388061080908
 10
3731.43305264708
 20
92.1519812832181
 10
3731.781307539874
 20
92.3979163013521
 10
3732.115445648031
 20
92.66117056103212
 10
3732.434601821985
 20
92.94122895808015
 10
3732.737910912172
 20
93.23757638831807
 10
3733.024507769027
 20
93.54969774756909
 10
3733.293527242987
 20
93.87707793165407
 10
3733.544104184486
 20
94.21920183639599
 10
3733.77537344396
 20
94.57555435761618
 10
3733.986469871845
 20
94.94562039113622
 10
3734.176528318577
 20
95.32888483277906
 10
3734.344683634591
 20
95.72483257836712
 10
3734.490070670322
 20
96.13294852372121
 10
3734.611824276206
 20
96.55271756466413
 10
3734.709079302678
 20
96.98362459701707
 10
3734.780970600175
 20
97.42515451660313
 10
3735.120662456729
 20
97.49059078075516
 10
3735.455448644472
 20
97.5677803944991
 10
3735.785075527306
 20
97.656485153051
 10
3736.109289469131
 20
97.75646685162906
 10
3736.427836833851
 20
97.8674872854482
 10
3736.740463985367
 20
97.98930824972501
 10
3737.046917287579
 20
98.12169153967715
 10
3737.346943104391
 20
98.26439895052125
 10
3737.640287799705
 20
98.41719227747205
 10
3737.92669773742
 20
98.57983331574907
 10
3738.20591928144
 20
98.75208386056613
 10
3738.477698795666
 20
98.93370570714115
 10
3738.741782643999
 20
99.12446065069104
 10
3738.997917190341
 20
99.32411048643201
 10
3739.245848798596
 20
99.53241700958006
 10
3739.485323832663
 20
99.74914201535307
 10
3739.716088656444
 20
99.97404729896608
 10
3739.937889633841
 20
100.206894655637
 10
3740.150473128756
 20
100.4474458805812
 10
3740.35358550509
 20
100.695462769017
 10
3740.546973126747
 20
100.950707116159
 10
3740.730382357626
 20
101.212940717225
 10
3740.90355956163
 20
101.4819253674312
 10
3741.06625110266
 20
101.7574228619951
 10
3741.218203344619
 20
102.0391949961321
 10
3741.359162651407
 20
102.3270035650581
 10
3741.488875386926
 20
102.6206103639921
 10
3741.60708791508
 20
102.9197771881491
 10
3741.713546599767
 20
103.2242658327461
 10
3741.807997804892
 20
103.533838092999
 10
3741.890187894355
 20
103.848255764125
 10
3741.959863232058
 20
104.1672806413411
 10
3741.890187894355
 20
104.4863055185571
 10
3741.807997804892
 20
104.8007231896831
 10
3741.713546599767
 20
105.1102954499364
 10
3741.60708791508
 20
105.4147840945335
 10
3741.488875386926
 20
105.7139509186901
 10
3741.359162651407
 20
106.0075577176235
 10
3741.218203344619
 20
106.2953662865508
 10
3741.06625110266
 20
106.5771384206874
 10
3740.90355956163
 20
106.8526359152507
 10
3740.730382357626
 20
107.1216205654573
 10
3740.546973126747
 20
107.3838541665233
 10
3740.35358550509
 20
107.6390985136654
 10
3740.150473128756
 20
107.8871154021006
 10
3739.937889633841
 20
108.1276666270454
 10
3739.716088656444
 20
108.3605139837158
 10
3739.485323832663
 20
108.5854192673291
 10
3739.245848798596
 20
108.8021442731018
 10
3738.997917190341
 20
109.0104507962503
 10
3738.741782643999
 20
109.2101006319907
 10
3738.477698795666
 20
109.4008555755407
 10
3738.20591928144
 20
109.5824774221161
 10
3737.92669773742
 20
109.7547279669335
 10
3737.640287799705
 20
109.9173690052094
 10
3737.346943104391
 20
110.0701623321614
 10
3737.046917287579
 20
110.212869743005
 10
3736.740463985367
 20
110.3452530329572
 10
3736.427836833851
 20
110.4670739972347
 10
3736.109289469131
 20
110.5780944310535
 10
3735.785075527306
 20
110.6780761296308
 10
3735.455448644472
 20
110.7667808881831
 10
3735.120662456729
 20
110.8439705019269
 10
3734.780970600175
 20
110.9094067660786
 10
3734.709079302678
 20
111.3509366856647
 10
3734.611824276206
 20
111.7818437180183
 10
3734.490070670322
 20
112.201612758961
 10
3734.344683634591
 20
112.6097287043155
 10
3734.176528318577
 20
113.0056764499034
 10
3733.986469871845
 20
113.3889408915458
 10
3733.77537344396
 20
113.7590069250667
 10
3733.544104184486
 20
114.1153594462863
 10
3733.293527242987
 20
114.4574833510278
 10
3733.024507769027
 20
114.7848635351131
 10
3732.737910912172
 20
115.0969848943639
 10
3732.434601821985
 20
115.3933323246025
 10
3732.115445648031
 20
115.6733907216504
 10
3731.781307539874
 20
115.9366449813304
 10
3731.43305264708
 20
116.1825799994635
 10
3731.071546119211
 20
116.4106806718731
 10
3730.697653105834
 20
116.6204318943803
 10
3730.312238756511
 20
116.8113185628075
 10
3729.916168220806
 20
116.9828255729763
 10
3729.510306648287
 20
117.1344378207091
 10
3729.095519188515
 20
117.2656402018283
 10
3728.672670991057
 20
117.3759176121551
 10
3728.242627205476
 20
117.4647549475119
 10
3727.806252981336
 20
117.5316371037213
 10
3727.364413468202
 20
117.5760489766043
 10
3726.917973815638
 20
117.5974754619838
 10
3726.46779917321
 20
117.5954014556809
 10
3726.01475469048
 20
117.5693118535187
 10
3725.559705517015
 20
117.5186915513186
 10
3725.103516802378
 20
117.4430254449027
 10
3724.647053696133
 20
117.3417984300937
 10
3724.191181347844
 20
117.2144954027124
 10
3724.171042064692
 20
117.7066251128459
 10
3724.125301501945
 20
118.1921789519227
 10
3724.054582670467
 20
118.670573886405
 10
3723.959508581122
 20
119.1412268827547
 10
3723.84070224477
 20
119.6035549074335
 10
3723.698786672275
 20
120.0569749269039
 10
3723.534384874499
 20
120.5009039076274
 10
3723.348119862304
 20
120.9347588160661
 10
3723.140614646553
 20
121.3579566186824
 10
3722.912492238107
 20
121.7699142819379
 10
3722.664375647831
 20
122.1700487722943
 10
3722.396887886584
 20
122.5577770562142
 10
3722.110651965232
 20
122.9325161001599
 10
3721.806290894634
 20
123.2936828705921
 10
3721.484427685655
 20
123.6406943339739
 10
3721.145685349156
 20
123.9729674567668
 10
3720.790686896001
 20
124.2899192054331
 10
3720.420055337049
 20
124.5909665464347
 10
3720.034413683166
 20
124.8755264462335
 10
3719.634384945213
 20
125.143015871291
 10
3719.220592134052
 20
125.3928517880704
 10
3718.793658260545
 20
125.6244511630327
 10
3718.354206335555
 20
125.8372309626406
 10
3717.902859369946
 20
126.0306081533547
 10
3717.440240374578
 20
126.2039997016388
 10
3716.966972360315
 20
126.3568225739539
 10
3716.483678338017
 20
126.4884937367624
 10
3715.99098131855
 20
126.5984301565254
 10
3715.489504312773
 20
126.6860487997061
 10
3714.97987033155
 20
126.7507666327657
 10
3714.462702385745
 20
126.7920006221667
 10
3713.938623486217
 20
126.8091677343704
 10
3713.782053171121
 20
127.2836956717263
 10
3713.608934279256
 20
127.7506542826601
 10
3713.419596119535
 20
128.2097587986596
 10
3713.214368000873
 20
128.6607244512129
 10
3712.993579232181
 20
129.1032664718068
 10
3712.757559122375
 20
129.5371000919293
 10
3712.506636980368
 20
129.9619405430678
 10
3712.241142115074
 20
130.3775030567103
 10
3711.961403835407
 20
130.7835028643443
 10
3711.66775145028
 20
131.1796551974571
 10
3711.360514268608
 20
131.5656752875368
 10
3711.040021599303
 20
131.9412783660707
 10
3710.70660275128
 20
132.3061796645466
 10
3710.360587033453
 20
132.6600944144523
 10
3710.002303754735
 20
133.0027378472748
 10
3709.63208222404
 20
133.3338251945024
 10
3709.250251750281
 20
133.6530716876225
 10
3708.857141642373
 20
133.9601925581217
 10
3708.453081209228
 20
134.2549030374895
 10
3708.038399759762
 20
134.5369183572123
 10
3707.613426602888
 20
134.8059537487778
 10
3707.178491047519
 20
135.0617244436738
 10
3706.73392240257
 20
135.303945673388
 10
3706.280049976952
 20
135.5323326694081
 10
3705.817203079583
 20
135.7466006632214
 10
3705.345711019373
 20
135.9464648863158
 10
3704.865903105238
 20
136.1316405701791
 10
3704.37810864609
 20
136.3018429462984
 10
3703.882656950844
 20
136.4567872461615
 10
3703.379877328413
 20
136.5961887012556
 10
3702.870099087713
 20
136.7197625430694
 10
3702.353651537654
 20
136.8272240030899
 10
3701.738658076919
 20
136.8211252880616
 10
3701.128851736932
 20
136.7909549975684
 10
3700.524834111894
 20
136.7371398662972
 10
3699.927206796
 20
136.6601066289331
 10
3699.336571383452
 20
136.5602820201633
 10
3698.753529468449
 20
136.4380927746724
 10
3698.178682645187
 20
136.2939656271475
 10
3697.612632507869
 20
136.1283273122739
 10
3697.05598065069
 20
135.9416045647383
 10
3696.509328667851
 20
135.7342241192258
 10
3695.973278153551
 20
135.5066127104233
 10
3695.448430701989
 20
135.2591970730159
 10
3694.935387907361
 20
134.9924039416903
 10
3694.43475136387
 20
134.7066600511325
 10
3693.947122665714
 20
134.4023921360275
 10
3693.47310340709
 20
134.0800269310623
 10
3693.013295182197
 20
133.7399911709227
 10
3692.568299585236
 20
133.3827115902946
 10
3692.138718210403
 20
133.0086149238643
 10
3691.725152651901
 20
132.6181279063174
 10
3691.328204503925
 20
132.2116772723398
 10
3690.948475360676
 20
131.7896897566179
 10
3690.586566816352
 20
131.3525920938374
 10
3690.243080465152
 20
130.9008110186847
 10
3689.918617901276
 20
130.434773265845
 10
3689.613780718921
 20
129.9549055700055
 10
3689.329170512287
 20
129.4616346658507
 10
3689.065388875574
 20
128.9553872880677
 10
3688.823037402978
 20
128.4365901713428
 10
3688.602717688701
 20
127.9056700503604
 10
3688.40503132694
 20
127.3630536598078
 10
3688.230579911894
 20
126.8091677343704
 10
3687.706501012366
 20
126.7920006221667
 10
3687.18933306656
 20
126.7507666327657
 10
3686.679699085337
 20
126.6860487997061
 10
3686.17822207956
 20
126.5984301565254
 10
3685.685525060093
 20
126.4884937367624
 10
3685.202231037796
 20
126.3568225739539
 10
3684.728963023533
 20
126.2039997016388
 10
3684.266344028165
 20
126.0306081533547
 10
3683.814997062555
 20
125.8372309626406
 10
3683.375545137566
 20
125.6244511630327
 10
3682.948611264059
 20
125.3928517880704
 10
3682.534818452899
 20
125.143015871291
 10
3682.134789714945
 20
124.8755264462335
 10
3681.749148061062
 20
124.5909665464347
 10
3681.37851650211
 20
124.2899192054331
 10
3681.023518048955
 20
123.9729674567668
 10
3680.684775712456
 20
123.6406943339739
 10
3680.362912503477
 20
123.2936828705921
 10
3680.05855143288
 20
122.9325161001599
 10
3679.772315511526
 20
122.5577770562142
 10
3679.50482775028
 20
122.1700487722943
 10
3679.256711160004
 20
121.7699142819379
 10
3679.028588751559
 20
121.3579566186824
 10
3678.821083535807
 20
120.9347588160661
 10
3678.634818523612
 20
120.5009039076274
 10
3678.470416725835
 20
120.0569749269039
 10
3678.328501153341
 20
119.6035549074335
 10
3678.209694816989
 20
119.1412268827547
 10
3678.114620727644
 20
118.670573886405
 10
3678.043901896166
 20
118.1921789519227
 10
3677.99816133342
 20
117.7066251128459
 10
3677.978022050265
 20
117.2144954027124
 10
3677.565849525897
 20
117.2237617299527
 10
3677.161410869823
 20
117.2083271361548
 10
3676.765361967583
 20
117.1690299365158
 10
3676.378358704713
 20
117.1067084462311
 10
3676.001056966748
 20
117.0222009804966
 10
3675.634112639226
 20
116.9163458545086
 10
3675.278181607684
 20
116.7899813834634
 10
3674.933919757657
 20
116.6439458825563
 10
3674.601982974682
 20
116.4790776669838
 10
3674.283027144296
 20
116.2962150519416
 10
3673.977708152036
 20
116.0961963526259
 10
3673.686681883439
 20
115.8798598842328
 10
3673.410604224039
 20
115.6480439619583
 10
3673.150131059376
 20
115.4015869009978
 10
3672.905918274985
 20
115.1413270165491
 10
3672.678621756401
 20
114.8681026238055
 10
3672.468897389164
 20
114.582752037965
 10
3672.277401058808
 20
114.2861135742234
 10
3672.10478865087
 20
113.9790255477759
 10
3671.951716050886
 20
113.6623262738193
 10
3671.818839144395
 20
113.3368540675491
 10
3671.706813816933
 20
113.0034472441617
 10
3671.616295954036
 20
112.6629441188527
 10
3671.547941441239
 20
112.3161830068187
 10
3671.50240616408
 20
111.9640022232553
 10
3671.480346008095
 20
111.6072400833584
 10
3671.482416858823
 20
111.2467349023245
 10
3671.509274601798
 20
110.8833249953491
 10
3671.561575122557
 20
110.5178486776283
 10
3671.639974306638
 20
110.1511442643585
 10
3671.745128039575
 20
109.7840500707355
 10
3671.877692206907
 20
109.4174044119551
 10
3671.546924743116
 20
109.3927730959938
 10
3671.218769857282
 20
109.3576807761651
 10
3670.893455257225
 20
109.3122739718763
 10
3670.571208650768
 20
109.2566992025339
 10
3670.252257745729
 20
109.1911029875453
 10
3669.936830249931
 20
109.1156318463166
 10
3669.625153871192
 20
109.0304322982553
 10
3669.317456317335
 20
108.9356508627684
 10
3669.01396529618
 20
108.8314340592624
 10
3668.714908515545
 20
108.7179284071444
 10
3668.420513683255
 20
108.5952804258216
 10
3668.131008507127
 20
108.4636366347008
 10
3667.846620694982
 20
108.3231435531885
 10
3667.567577954642
 20
108.1739477006921
 10
3667.294107993927
 20
108.0161955966183
 10
3667.026438520657
 20
107.8500337603743
 10
3666.764797242655
 20
107.6756087113663
 10
3666.509411867737
 20
107.4930669690024
 10
3666.260510103727
 20
107.3025550526887
 10
3666.018319658445
 20
107.1042194818323
 10
3665.783068239711
 20
106.8982067758398
 10
3665.554983555345
 20
106.6846634541186
 10
3665.33429331317
 20
106.4637360360755
 10
3665.121225221004
 20
106.235571041117
 10
3664.916006986669
 20
106.0003149886511
 10
3664.718866317984
 20
105.7581143980835
 10
3664.530030922771
 20
105.5091157888218
 10
3664.349728508851
 20
105.2534656802727
 10
3664.178186784044
 20
104.9913105918431
 10
3664.015633456169
 20
104.7227970429401
 10
3663.86229623305
 20
104.4480715529703
  0
LWPOLYLINE
  5
4C0F
330
4B6C
100
AcDbEntity
  8
2MM
 62
     0
100
AcDbPolyline
 90
      128
 70
     1
 43
0.0
 10
3696.850492240511
 20
104.1672806413411
 10
3696.856001637466
 20
104.3719110436507
 10
3696.872352470335
 20
104.5738551429898
 10
3696.899278702132
 20
104.7728630881598
 10
3696.93651429587
 20
104.9686850279633
 10
3696.983793214561
 20
105.1610711112026
 10
3697.040849421217
 20
105.3497714866795
 10
3697.107416878852
 20
105.5345363031958
 10
3697.183229550478
 20
105.7151157095538
 10
3697.268021399106
 20
105.8912598545555
 10
3697.361526387749
 20
106.0627188870038
 10
3697.46347847942
 20
106.2292429557
 10
3697.573611637132
 20
106.3905822094457
 10
3697.691659823897
 20
106.546486797044
 10
3697.817357002727
 20
106.6967068672965
 10
3697.950437136635
 20
106.8409925690051
 10
3698.090634188633
 20
106.9790940509724
 10
3698.237682121733
 20
107.1107614620005
 10
3698.39131489895
 20
107.2357449508911
 10
3698.551266483293
 20
107.3537946664461
 10
3698.717270837777
 20
107.4646607574684
 10
3698.889061925414
 20
107.5680933727591
 10
3699.066373709215
 20
107.6638426611211
 10
3699.248940152194
 20
107.7516587713559
 10
3699.436495217363
 20
107.8312918522665
 10
3699.628772867735
 20
107.9024920526535
 10
3699.825507066321
 20
107.9650095213203
 10
3700.026431776136
 20
108.0185944070688
 10
3700.23128096019
 20
108.0629968587004
 10
3700.439788581496
 20
108.0979670250177
 10
3700.651688603068
 20
108.1232550548227
 10
3700.866714987917
 20
108.1386110969174
 10
3701.084601699055
 20
108.1437853001043
 10
3701.302488410193
 20
108.1386110969174
 10
3701.517514795042
 20
108.1232550548227
 10
3701.729414816614
 20
108.0979670250177
 10
3701.93792243792
 20
108.0629968587004
 10
3702.142771621974
 20
108.0185944070688
 10
3702.343696331789
 20
107.9650095213203
 10
3702.540430530375
 20
107.9024920526535
 10
3702.732708180747
 20
107.8312918522665
 10
3702.920263245915
 20
107.7516587713559
 10
3703.102829688895
 20
107.6638426611211
 10
3703.280141472697
 20
107.5680933727591
 10
3703.451932560334
 20
107.4646607574684
 10
3703.617936914817
 20
107.3537946664461
 10
3703.777888499161
 20
107.2357449508911
 10
3703.931521276376
 20
107.1107614620005
 10
3704.078569209477
 20
106.9790940509724
 10
3704.218766261475
 20
106.8409925690051
 10
3704.351846395383
 20
106.6967068672965
 10
3704.477543574213
 20
106.546486797044
 10
3704.595591760977
 20
106.3905822094457
 10
3704.705724918689
 20
106.2292429557
 10
3704.807677010361
 20
106.0627188870038
 10
3704.901181999005
 20
105.8912598545555
 10
3704.985973847633
 20
105.7151157095538
 10
3705.061786519258
 20
105.5345363031958
 10
3705.128353976892
 20
105.3497714866795
 10
3705.185410183549
 20
105.1610711112026
 10
3705.23268910224
 20
104.9686850279633
 10
3705.269924695978
 20
104.7728630881598
 10
3705.296850927775
 20
104.5738551429898
 10
3705.313201760645
 20
104.3719110436507
 10
3705.318711157599
 20
104.1672806413411
 10
3705.313201760645
 20
103.962650239031
 10
3705.296850927775
 20
103.760706139692
 10
3705.269924695978
 20
103.5616981945221
 10
3705.23268910224
 20
103.365876254719
 10
3705.185410183549
 20
103.1734901714791
 10
3705.128353976892
 20
102.9847897960031
 10
3705.061786519258
 20
102.8000249794861
 10
3704.985973847633
 20
102.619445573128
 10
3704.901181999005
 20
102.4433014281261
 10
3704.807677010361
 20
102.2718423956781
 10
3704.705724918689
 20
102.1053183269821
 10
3704.595591760977
 20
101.943979073236
 10
3704.477543574213
 20
101.7880744856381
 10
3704.351846395383
 20
101.637854415386
 10
3704.218766261475
 20
101.493568713677
 10
3704.078569209477
 20
101.3554672317101
 10
3703.931521276376
 20
101.2237998206821
 10
3703.777888499161
 20
101.0988163317911
 10
3703.617936914817
 20
100.9807666162361
 10
3703.451932560334
 20
100.8699005252141
 10
3703.280141472697
 20
100.7664679099231
 10
3703.102829688895
 20
100.670718621561
 10
3702.920263245915
 20
100.5829025113262
 10
3702.732708180747
 20
100.5032694304161
 10
3702.540430530375
 20
100.4320692300281
 10
3702.343696331789
 20
100.3695517613621
 10
3702.142771621974
 20
100.3159668756131
 10
3701.93792243792
 20
100.2715644239821
 10
3701.729414816614
 20
100.236594257664
 10
3701.517514795042
 20
100.211306227859
 10
3701.302488410193
 20
100.1959501857642
 10
3701.084601699055
 20
100.1907759825781
 10
3700.866714987917
 20
100.1959501857642
 10
3700.651688603068
 20
100.211306227859
 10
3700.439788581496
 20
100.236594257664
 10
3700.23128096019
 20
100.2715644239821
 10
3700.026431776136
 20
100.3159668756131
 10
3699.825507066321
 20
100.3695517613621
 10
3699.628772867735
 20
100.4320692300281
 10
3699.436495217363
 20
100.5032694304161
 10
3699.248940152194
 20
100.5829025113262
 10
3699.066373709215
 20
100.670718621561
 10
3698.889061925414
 20
100.7664679099231
 10
3698.717270837777
 20
100.8699005252141
 10
3698.551266483293
 20
100.9807666162361
 10
3698.39131489895
 20
101.0988163317911
 10
3698.237682121733
 20
101.2237998206821
 10
3698.090634188633
 20
101.3554672317101
 10
3697.950437136635
 20
101.493568713677
 10
3697.817357002727
 20
101.637854415386
 10
3697.691659823897
 20
101.7880744856381
 10
3697.573611637132
 20
101.943979073236
 10
3697.46347847942
 20
102.1053183269821
 10
3697.361526387749
 20
102.2718423956781
 10
3697.268021399106
 20
102.4433014281261
 10
3697.183229550478
 20
102.619445573128
 10
3697.107416878852
 20
102.8000249794861
 10
3697.040849421217
 20
102.9847897960031
 10
3696.983793214561
 20
103.1734901714791
 10
3696.93651429587
 20
103.365876254719
 10
3696.899278702132
 20
103.5616981945221
 10
3696.872352470335
 20
103.760706139692
 10
3696.856001637466
 20
103.962650239031
  0
LWPOLYLINE
  5
4C10
330
4B6C
100
AcDbEntity
  8
2MM
 62
     0
100
AcDbPolyline
 90
      128
 70
     1
 43
0.0
 10
3696.850492240511
 20
104.1672806413411
 10
3696.856001637466
 20
104.3719110436507
 10
3696.872352470335
 20
104.5738551429898
 10
3696.899278702132
 20
104.7728630881598
 10
3696.93651429587
 20
104.9686850279633
 10
3696.983793214561
 20
105.1610711112026
 10
3697.040849421217
 20
105.3497714866795
 10
3697.107416878852
 20
105.5345363031958
 10
3697.183229550478
 20
105.7151157095538
 10
3697.268021399106
 20
105.8912598545555
 10
3697.361526387749
 20
106.0627188870038
 10
3697.46347847942
 20
106.2292429557
 10
3697.573611637132
 20
106.3905822094457
 10
3697.691659823897
 20
106.546486797044
 10
3697.817357002727
 20
106.6967068672965
 10
3697.950437136635
 20
106.8409925690051
 10
3698.090634188633
 20
106.9790940509724
 10
3698.237682121733
 20
107.1107614620005
 10
3698.39131489895
 20
107.2357449508911
 10
3698.551266483293
 20
107.3537946664461
 10
3698.717270837777
 20
107.4646607574684
 10
3698.889061925414
 20
107.5680933727591
 10
3699.066373709215
 20
107.6638426611211
 10
3699.248940152194
 20
107.7516587713559
 10
3699.436495217363
 20
107.8312918522665
 10
3699.628772867735
 20
107.9024920526535
 10
3699.825507066321
 20
107.9650095213203
 10
3700.026431776136
 20
108.0185944070688
 10
3700.23128096019
 20
108.0629968587004
 10
3700.439788581496
 20
108.0979670250177
 10
3700.651688603068
 20
108.1232550548227
 10
3700.866714987917
 20
108.1386110969174
 10
3701.084601699055
 20
108.1437853001043
 10
3701.302488410193
 20
108.1386110969174
 10
3701.517514795042
 20
108.1232550548227
 10
3701.729414816614
 20
108.0979670250177
 10
3701.93792243792
 20
108.0629968587004
 10
3702.142771621974
 20
108.0185944070688
 10
3702.343696331789
 20
107.9650095213203
 10
3702.540430530375
 20
107.9024920526535
 10
3702.732708180747
 20
107.8312918522665
 10
3702.920263245915
 20
107.7516587713559
 10
3703.102829688895
 20
107.6638426611211
 10
3703.280141472697
 20
107.5680933727591
 10
3703.451932560334
 20
107.4646607574684
 10
3703.617936914817
 20
107.3537946664461
 10
3703.777888499161
 20
107.2357449508911
 10
3703.931521276376
 20
107.1107614620005
 10
3704.078569209477
 20
106.9790940509724
 10
3704.218766261475
 20
106.8409925690051
 10
3704.351846395383
 20
106.6967068672965
 10
3704.477543574213
 20
106.546486797044
 10
3704.595591760977
 20
106.3905822094457
 10
3704.705724918689
 20
106.2292429557
 10
3704.807677010361
 20
106.0627188870038
 10
3704.901181999005
 20
105.8912598545555
 10
3704.985973847633
 20
105.7151157095538
 10
3705.061786519258
 20
105.5345363031958
 10
3705.128353976892
 20
105.3497714866795
 10
3705.185410183549
 20
105.1610711112026
 10
3705.23268910224
 20
104.9686850279633
 10
3705.269924695978
 20
104.7728630881598
 10
3705.296850927775
 20
104.5738551429898
 10
3705.313201760645
 20
104.3719110436507
 10
3705.318711157599
 20
104.1672806413411
 10
3705.313201760645
 20
103.962650239031
 10
3705.296850927775
 20
103.760706139692
 10
3705.269924695978
 20
103.5616981945221
 10
3705.23268910224
 20
103.365876254719
 10
3705.185410183549
 20
103.1734901714791
 10
3705.128353976892
 20
102.9847897960031
 10
3705.061786519258
 20
102.8000249794861
 10
3704.985973847633
 20
102.619445573128
 10
3704.901181999005
 20
102.4433014281261
 10
3704.807677010361
 20
102.2718423956781
 10
3704.705724918689
 20
102.1053183269821
 10
3704.595591760977
 20
101.943979073236
 10
3704.477543574213
 20
101.7880744856381
 10
3704.351846395383
 20
101.637854415386
 10
3704.218766261475
 20
101.493568713677
 10
3704.078569209477
 20
101.3554672317101
 10
3703.931521276376
 20
101.2237998206821
 10
3703.777888499161
 20
101.0988163317911
 10
3703.617936914817
 20
100.9807666162361
 10
3703.451932560334
 20
100.8699005252141
 10
3703.280141472697
 20
100.7664679099231
 10
3703.102829688895
 20
100.670718621561
 10
3702.920263245915
 20
100.5829025113262
 10
3702.732708180747
 20
100.5032694304161
 10
3702.540430530375
 20
100.4320692300281
 10
3702.343696331789
 20
100.3695517613621
 10
3702.142771621974
 20
100.3159668756131
 10
3701.93792243792
 20
100.2715644239821
 10
3701.729414816614
 20
100.236594257664
 10
3701.517514795042
 20
100.211306227859
 10
3701.302488410193
 20
100.1959501857642
 10
3701.084601699055
 20
100.1907759825781
 10
3700.866714987917
 20
100.1959501857642
 10
3700.651688603068
 20
100.211306227859
 10
3700.439788581496
 20
100.236594257664
 10
3700.23128096019
 20
100.2715644239821
 10
3700.026431776136
 20
100.3159668756131
 10
3699.825507066321
 20
100.3695517613621
 10
3699.628772867735
 20
100.4320692300281
 10
3699.436495217363
 20
100.5032694304161
 10
3699.248940152194
 20
100.5829025113262
 10
3699.066373709215
 20
100.670718621561
 10
3698.889061925414
 20
100.7664679099231
 10
3698.717270837777
 20
100.8699005252141
 10
3698.551266483293
 20
100.9807666162361
 10
3698.39131489895
 20
101.0988163317911
 10
3698.237682121733
 20
101.2237998206821
 10
3698.090634188633
 20
101.3554672317101
 10
3697.950437136635
 20
101.493568713677
 10
3697.817357002727
 20
101.637854415386
 10
3697.691659823897
 20
101.7880744856381
 10
3697.573611637132
 20
101.943979073236
 10
3697.46347847942
 20
102.1053183269821
 10
3697.361526387749
 20
102.2718423956781
 10
3697.268021399106
 20
102.4433014281261
 10
3697.183229550478
 20
102.619445573128
 10
3697.107416878852
 20
102.8000249794861
 10
3697.040849421217
 20
102.9847897960031
 10
3696.983793214561
 20
103.1734901714791
 10
3696.93651429587
 20
103.365876254719
 10
3696.899278702132
 20
103.5616981945221
 10
3696.872352470335
 20
103.760706139692
 10
3696.856001637466
 20
103.962650239031
  0
LWPOLYLINE
  5
4C11
330
4B6C
100
AcDbEntity
  8
2MM
 62
     0
100
AcDbPolyline
 90
       33
 70
     0
 43
0.0
 10
3704.507381315947
 20
101.8264805948881
 10
3705.202648138282
 20
101.6422370693391
 10
3705.893957493682
 20
101.4476347295051
 10
3706.581188044509
 20
101.2427395733672
 10
3707.264218453126
 20
101.0276175989061
 10
3707.942927381895
 20
100.802334804105
 10
3708.617193493179
 20
100.5669571869441
 10
3709.286895449338
 20
100.3215507454051
 10
3709.951911912737
 20
100.0661814774701
 10
3710.612121545736
 20
99.80091538112015
 10
3711.2674030107
 20
99.52581845433611
 10
3711.917634969989
 20
99.24095669510098
 10
3712.562696085966
 20
98.94639610139519
 10
3713.202465020992
 20
98.64220267120016
 10
3713.836820437432
 20
98.32844240249812
 10
3714.465640997646
 20
98.00518129326906
 10
3715.088805363997
 20
97.6724853414961
 10
3715.706192198847
 20
97.33042054516012
 10
3716.317680164558
 20
96.9790529022431
 10
3716.923147923494
 20
96.61844841072515
 10
3717.522474138016
 20
96.24867306858902
 10
3718.115537470485
 20
95.86979287381609
 10
3718.702216583265
 20
95.4818738243871
 10
3719.282390138719
 20
95.08498191828413
 10
3719.855936799206
 20
94.67918315348914
 10
3720.422735227091
 20
94.26454352798202
 10
3720.982664084737
 20
93.84112903974608
 10
3721.535602034504
 20
93.40900568676204
 10
3722.081427738755
 20
92.96823946701101
 10
3722.620019859852
 20
92.5188963784741
 10
3723.151257060158
 20
92.06104241913511
 10
3723.675018002035
 20
91.59474358697309
 10
3724.191181347844
 20
91.12006587997006
  0
LWPOLYLINE
  5
4C12
330
4B6C
100
AcDbEntity
  8
2MM
 62
     0
100
AcDbPolyline
 90
       33
 70
     0
 43
0.0
 10
3702.689056682432
 20
100.4873316614621
 10
3703.33496290791
 20
100.0979919726351
 10
3703.964278928697
 20
99.69070405838408
 10
3704.576723037508
 20
99.26595163881712
 10
3705.172013527058
 20
98.82421843404314
 10
3705.749868690061
 20
98.36598816417211
 10
3706.310006819232
 20
97.89174454931107
 10
3706.852146207287
 20
97.40197130957017
 10
3707.376005146938
 20
96.89715216505817
 10
3707.881301930903
 20
96.37777083588298
 10
3708.367754851894
 20
95.84431104215411
 10
3708.835082202628
 20
95.2972565039812
 10
3709.283002275818
 20
94.73709094147114
 10
3709.71123336418
 20
94.164298074734
 10
3710.119493760428
 20
93.57936162387909
 10
3710.507501757277
 20
92.98276530901409
 10
3710.874975647442
 20
92.37499285024899
 10
3711.221633723638
 20
91.75652796769099
 10
3711.547194278578
 20
91.12785438145113
 10
3711.851375604979
 20
90.48945581163605
 10
3712.133895995554
 20
89.84181597835618
 10
3712.39447374302
 20
89.18541860172013
 10
3712.632827140088
 20
88.52074740183502
 10
3712.848674479476
 20
87.84828609881207
 10
3713.041734053899
 20
87.16851841275911
 10
3713.21172415607
 20
86.48192806378403
 10
3713.358363078703
 20
85.7889987719982
 10
3713.481369114515
 20
85.09021425750701
 10
3713.58046055622
 20
84.38605824042202
 10
3713.655355696532
 20
83.67701444085094
 10
3713.705772828167
 20
82.96356657890305
 10
3713.731430243838
 20
82.24619837468708
 10
3713.732046236263
 20
81.52539354831208
  0
LWPOLYLINE
  5
4C13
330
4B6C
100
AcDbEntity
  8
2MM
 62
     0
100
AcDbPolyline
 90
       33
 70
     0
 43
0.0
 10
3705.318711157599
 20
104.1672806413411
 10
3706.274082598597
 20
104.1233039316861
 10
3707.228261711961
 20
104.0683323362271
 10
3708.181144015401
 20
104.002389764629
 10
3709.132625026623
 20
103.9255001265592
 10
3710.082600263338
 20
103.8376873316811
 10
3711.030965243256
 20
103.7389752896631
 10
3711.977615484084
 20
103.6293879101712
 10
3712.922446503532
 20
103.5089491028691
 10
3713.865353819311
 20
103.3776827774251
 10
3714.806232949128
 20
103.235612843504
 10
3715.744979410692
 20
103.0827632107721
 10
3716.681488721714
 20
102.9191577888961
 10
3717.615656399902
 20
102.744820487541
 10
3718.547377962964
 20
102.5597752163731
 10
3719.476548928611
 20
102.3640458850582
 10
3720.403064814551
 20
102.1576564032631
 10
3721.326821138494
 20
101.9406306806521
 10
3722.247713418149
 20
101.7129926268932
 10
3723.165637171226
 20
101.474766151651
 10
3724.080487915431
 20
101.225975164593
 10
3724.992161168476
 20
100.966643575384
 10
3725.900552448069
 20
100.6967952936891
 10
3726.805557271921
 20
100.416454229176
 10
3727.707071157738
 20
100.1256442915111
 10
3728.604989623232
 20
99.82438939035819
 10
3729.49920818611
 20
99.5127134353852
 10
3730.389622364083
 20
99.19064033625705
 10
3731.276127674858
 20
98.85819400264006
 10
3732.158619636146
 20
98.51539834420009
 10
3733.036993765655
 20
98.16227727060301
 10
3733.911145581095
 20
97.79885469151611
 10
3734.780970600175
 20
97.42515451660313
  0
LWPOLYLINE
  5
4C14
330
4B6C
100
AcDbEntity
  8
2MM
 62
     0
100
AcDbPolyline
 90
       33
 70
     0
 43
0.0
 10
3697.661822082163
 20
101.8264805948881
 10
3696.966555259829
 20
101.6422370693391
 10
3696.275245904429
 20
101.4476347295051
 10
3695.588015353602
 20
101.2427395733672
 10
3694.904984944985
 20
101.0276175989061
 10
3694.226276016216
 20
100.802334804105
 10
3693.552009904932
 20
100.5669571869441
 10
3692.882307948773
 20
100.3215507454051
 10
3692.217291485374
 20
100.0661814774701
 10
3691.557081852374
 20
99.80091538112015
 10
3690.901800387411
 20
99.52581845433611
 10
3690.251568428122
 20
99.24095669510098
 10
3689.606507312145
 20
98.94639610139519
 10
3688.966738377118
 20
98.64220267120016
 10
3688.332382960679
 20
98.32844240249812
 10
3687.703562400465
 20
98.00518129326906
 10
3687.080398034114
 20
97.6724853414961
 10
3686.463011199264
 20
97.33042054516012
 10
3685.851523233552
 20
96.9790529022431
 10
3685.246055474617
 20
96.61844841072515
 10
3684.646729260095
 20
96.24867306858902
 10
3684.053665927625
 20
95.86979287381609
 10
3683.466986814845
 20
95.4818738243871
 10
3682.886813259392
 20
95.08498191828413
 10
3682.313266598904
 20
94.67918315348914
 10
3681.746468171019
 20
94.26454352798202
 10
3681.186539313374
 20
93.84112903974608
 10
3680.633601363606
 20
93.40900568676204
 10
3680.087775659356
 20
92.96823946701101
 10
3679.549183538258
 20
92.5188963784741
 10
3679.017946337952
 20
92.06104241913511
 10
3678.494185396075
 20
91.59474358697309
 10
3677.978022050265
 20
91.12006587997006
  0
LWPOLYLINE
  5
4C15
330
4B6C
100
AcDbEntity
  8
2MM
 62
     0
100
AcDbPolyline
 90
       33
 70
     0
 43
0.0
 10
3699.480146715679
 20
100.4873316614621
 10
3698.838111473548
 20
100.0924711137941
 10
3698.212147950229
 20
99.68035637979312
 10
3697.602523078869
 20
99.25143739410305
 10
3697.009503792616
 20
98.80616409136701
 10
3696.433357024617
 20
98.34498640623019
 10
3695.874349708021
 20
97.86835427333608
 10
3695.332748775978
 20
97.37671762732805
 10
3694.808821161633
 20
96.87052640285003
 10
3694.302833798134
 20
96.35023053454517
 10
3693.815053618632
 20
95.816279957059
 10
3693.345747556271
 20
95.269124605034
 10
3692.895182544202
 20
94.70921441311418
 10
3692.463625515573
 20
94.13699931594317
 10
3692.05134340353
 20
93.55292924816604
 10
3691.658603141223
 20
92.95745414442501
 10
3691.285671661798
 20
92.35102393936415
 10
3690.932815898405
 20
91.73408856762808
 10
3690.600302784191
 20
91.10709796386107
 10
3690.288399252304
 20
90.47050206270512
 10
3689.997372235893
 20
89.8247507988051
 10
3689.727488668105
 20
89.17029410680516
 10
3689.479015482087
 20
88.5075819213481
 10
3689.252219610989
 20
87.83706417707913
 10
3689.047367987959
 20
87.15919080864011
 10
3688.864727546143
 20
86.47441175067706
 10
3688.704565218691
 20
85.78317693783208
 10
3688.567147938749
 20
85.08593630475003
 10
3688.452742639468
 20
84.38313978607402
 10
3688.361616253994
 20
83.67523731644917
 10
3688.294035715474
 20
82.96267883051712
 10
3688.250267957058
 20
82.24591426292409
 10
3688.230579911894
 20
81.52539354831208
  0
LWPOLYLINE
  5
4C16
330
4B6C
100
AcDbEntity
  8
2MM
 62
     0
100
AcDbPolyline
 90
       33
 70
     0
 43
0.0
 10
3696.850492240511
 20
104.1672806413411
 10
3696.044338863335
 20
104.1394278922121
 10
3695.239022041011
 20
104.102613734714
 10
3694.434624268867
 20
104.0568555121431
 10
3693.631228042232
 20
104.002170567797
 10
3692.828915856433
 20
103.9385762449732
 10
3692.027770206801
 20
103.8660898869672
 10
3691.227873588664
 20
103.7847288370771
 10
3690.429308497349
 20
103.694510438598
 10
3689.632157428186
 20
103.5954520348291
 10
3688.836502876502
 20
103.4875709690661
 10
3688.042427337628
 20
103.3708845846062
 10
3687.25001330689
 20
103.2454102247461
 10
3686.459343279619
 20
103.1111652327821
 10
3685.670499751142
 20
102.968166952012
 10
3684.883565216787
 20
102.8164327257331
 10
3684.098622171884
 20
102.6559798972411
 10
3683.315753111761
 20
102.4868258098331
 10
3682.535040531746
 20
102.308987806806
 10
3681.756566927168
 20
102.1224832314581
 10
3680.980414793356
 20
101.9273294270852
 10
3680.206666625637
 20
101.723543736983
 10
3679.435404919342
 20
101.5111435044509
 10
3678.666712169796
 20
101.2901460727842
 10
3677.900670872331
 20
101.0605687852791
 10
3677.137363522275
 20
100.8224289852352
 10
3676.376872614955
 20
100.575744015946
 10
3675.6192806457
 20
100.320531220711
 10
3674.864670109839
 20
100.0568079428261
 10
3674.113123502702
 20
99.78459152558912
 10
3673.364723319615
 20
99.50389931229507
 10
3672.619552055907
 20
99.21474864624213
 10
3671.877692206907
 20
98.91715687072712
  0
LWPOLYLINE
  5
4C17
330
4B6C
100
AcDbEntity
  8
0
 62
     0
100
AcDbPolyline
 90
        4
 70
     0
 43
0.0
 10
3816.371757325075
 20
-382.8327193586588
 10
3761.02304877603
 20
-382.8327193586588
 10
3761.02304877603
 20
591.167280641341
 10
3816.371757325075
 20
591.167280641341
  0
LWPOLYLINE
  5
4C19
330
4B6C
100
AcDbEntity
  8
2MM
 62
     0
100
AcDbPolyline
 90
      128
 70
     1
 43
0.0
 10
3696.850492240511
 20
123.3876333823459
 10
3696.856001637466
 20
123.5922637846554
 10
3696.872352470335
 20
123.7942078839944
 10
3696.899278702132
 20
123.9932158291648
 10
3696.936514295869
 20
124.1890377689681
 10
3696.983793214561
 20
124.3814238522075
 10
3697.040849421217
 20
124.5701242276843
 10
3697.107416878852
 20
124.7548890442004
 10
3697.183229550478
 20
124.9354684505588
 10
3697.268021399106
 20
125.1116125955603
 10
3697.361526387749
 20
125.2830716280088
 10
3697.46347847942
 20
125.4495956967047
 10
3697.573611637132
 20
125.6109349504504
 10
3697.691659823897
 20
125.7668395380489
 10
3697.817357002727
 20
125.9170596083011
 10
3697.950437136635
 20
126.06134531001
 10
3698.090634188633
 20
126.1994467919774
 10
3698.237682121733
 20
126.3311142030051
 10
3698.39131489895
 20
126.4560976918959
 10
3698.551266483293
 20
126.5741474074508
 10
3698.717270837777
 20
126.685013498473
 10
3698.889061925414
 20
126.7884461137639
 10
3699.066373709215
 20
126.8841954021256
 10
3699.248940152194
 20
126.9720115123607
 10
3699.436495217363
 20
127.051644593271
 10
3699.628772867735
 20
127.1228447936582
 10
3699.825507066321
 20
127.1853622623251
 10
3700.026431776136
 20
127.2389471480734
 10
3700.23128096019
 20
127.283349599705
 10
3700.439788581496
 20
127.3183197660223
 10
3700.651688603068
 20
127.3436077958275
 10
3700.866714987916
 20
127.3589638379224
 10
3701.084601699055
 20
127.3641380411092
 10
3701.302488410193
 20
127.3589638379224
 10
3701.517514795042
 20
127.3436077958275
 10
3701.729414816614
 20
127.3183197660223
 10
3701.93792243792
 20
127.283349599705
 10
3702.142771621974
 20
127.2389471480734
 10
3702.343696331789
 20
127.1853622623251
 10
3702.540430530375
 20
127.1228447936582
 10
3702.732708180747
 20
127.051644593271
 10
3702.920263245916
 20
126.9720115123607
 10
3703.102829688895
 20
126.8841954021256
 10
3703.280141472697
 20
126.7884461137639
 10
3703.451932560333
 20
126.685013498473
 10
3703.617936914817
 20
126.5741474074508
 10
3703.777888499161
 20
126.4560976918959
 10
3703.931521276376
 20
126.3311142030051
 10
3704.078569209477
 20
126.1994467919774
 10
3704.218766261475
 20
126.06134531001
 10
3704.351846395383
 20
125.9170596083011
 10
3704.477543574213
 20
125.7668395380489
 10
3704.595591760977
 20
125.6109349504504
 10
3704.705724918689
 20
125.4495956967047
 10
3704.807677010361
 20
125.2830716280088
 10
3704.901181999005
 20
125.1116125955603
 10
3704.985973847633
 20
124.9354684505588
 10
3705.061786519258
 20
124.7548890442004
 10
3705.128353976892
 20
124.5701242276843
 10
3705.185410183549
 20
124.3814238522075
 10
3705.23268910224
 20
124.1890377689681
 10
3705.269924695978
 20
123.9932158291648
 10
3705.296850927775
 20
123.7942078839944
 10
3705.313201760645
 20
123.5922637846554
 10
3705.318711157599
 20
123.3876333823459
 10
3705.313201760645
 20
123.1830029800359
 10
3705.296850927775
 20
122.9810588806967
 10
3705.269924695978
 20
122.7820509355268
 10
3705.23268910224
 20
122.5862289957239
 10
3705.185410183549
 20
122.3938429124838
 10
3705.128353976892
 20
122.2051425370078
 10
3705.061786519258
 20
122.0203777204908
 10
3704.985973847633
 20
121.8397983141327
 10
3704.901181999005
 20
121.6636541691308
 10
3704.807677010361
 20
121.4921951366831
 10
3704.705724918689
 20
121.3256710679869
 10
3704.595591760977
 20
121.1643318142407
 10
3704.477543574213
 20
121.0084272266429
 10
3704.351846395383
 20
120.8582071563907
 10
3704.218766261475
 20
120.7139214546819
 10
3704.078569209477
 20
120.5758199727148
 10
3703.931521276376
 20
120.4441525616869
 10
3703.777888499161
 20
120.3191690727958
 10
3703.617936914817
 20
120.2011193572409
 10
3703.451932560333
 20
120.0902532662187
 10
3703.280141472697
 20
119.9868206509279
 10
3703.102829688895
 20
119.891071362566
 10
3702.920263245916
 20
119.8032552523308
 10
3702.732708180747
 20
119.7236221714208
 10
3702.540430530375
 20
119.6524219710329
 10
3702.343696331789
 20
119.5899045023668
 10
3702.142771621974
 20
119.5363196166179
 10
3701.93792243792
 20
119.4919171649869
 10
3701.729414816614
 20
119.4569469986686
 10
3701.517514795042
 20
119.4316589688636
 10
3701.302488410193
 20
119.4163029267688
 10
3701.084601699055
 20
119.4111287235828
 10
3700.866714987916
 20
119.4163029267688
 10
3700.651688603068
 20
119.4316589688636
 10
3700.439788581496
 20
119.4569469986686
 10
3700.23128096019
 20
119.4919171649869
 10
3700.026431776136
 20
119.5363196166179
 10
3699.825507066321
 20
119.5899045023668
 10
3699.628772867735
 20
119.6524219710329
 10
3699.436495217363
 20
119.7236221714208
 10
3699.248940152194
 20
119.8032552523308
 10
3699.066373709215
 20
119.891071362566
 10
3698.889061925414
 20
119.9868206509279
 10
3698.717270837777
 20
120.0902532662187
 10
3698.551266483293
 20
120.2011193572409
 10
3698.39131489895
 20
120.3191690727958
 10
3698.237682121733
 20
120.4441525616869
 10
3698.090634188633
 20
120.5758199727148
 10
3697.950437136635
 20
120.7139214546819
 10
3697.817357002727
 20
120.8582071563907
 10
3697.691659823897
 20
121.0084272266429
 10
3697.573611637132
 20
121.1643318142407
 10
3697.46347847942
 20
121.3256710679869
 10
3697.361526387749
 20
121.4921951366831
 10
3697.268021399106
 20
121.6636541691308
 10
3697.183229550478
 20
121.8397983141327
 10
3697.107416878852
 20
122.0203777204908
 10
3697.040849421217
 20
122.2051425370078
 10
3696.983793214561
 20
122.3938429124838
 10
3696.936514295869
 20
122.5862289957239
 10
3696.899278702132
 20
122.7820509355268
 10
3696.872352470335
 20
122.9810588806967
 10
3696.856001637466
 20
123.1830029800359
  0
LWPOLYLINE
  5
4C1A
330
4B6C
100
AcDbEntity
  8
2MM
 62
     0
100
AcDbPolyline
 90
      128
 70
     1
 43
0.0
 10
3696.850492240511
 20
84.94692790033615
 10
3696.856001637466
 20
84.74229749802702
 10
3696.872352470335
 20
84.540353398688
 10
3696.899278702132
 20
84.3413454535181
 10
3696.936514295869
 20
84.14552351371412
 10
3696.983793214561
 20
83.95313743047518
 10
3697.040849421217
 20
83.76443705499822
 10
3697.107416878852
 20
83.57967223848209
 10
3697.183229550478
 20
83.39909283212397
 10
3697.268021399106
 20
83.22294868712209
 10
3697.361526387749
 20
83.05148965467413
 10
3697.46347847942
 20
82.88496558597808
 10
3697.573611637132
 20
82.72362633223201
 10
3697.691659823897
 20
82.56772174463412
 10
3697.817357002727
 20
82.41750167438112
 10
3697.950437136635
 20
82.27321597267211
 10
3698.090634188633
 20
82.13511449070518
 10
3698.237682121733
 20
82.00344707967714
 10
3698.39131489895
 20
81.87846359078708
 10
3698.551266483293
 20
81.76041387523207
 10
3698.717270837777
 20
81.64954778420918
 10
3698.889061925414
 20
81.54611516891817
 10
3699.066373709215
 20
81.45036588055608
 10
3699.248940152194
 20
81.36254977032217
 10
3699.436495217363
 20
81.28291668941097
 10
3699.628772867735
 20
81.21171648902407
 10
3699.825507066321
 20
81.14919902035707
 10
3700.026431776136
 20
81.09561413460903
 10
3700.23128096019
 20
81.05121168297717
 10
3700.439788581496
 20
81.01624151666021
 10
3700.651688603068
 20
80.99095348685523
 10
3700.866714987916
 20
80.97559744476019
 10
3701.084601699055
 20
80.97042324157303
 10
3701.302488410193
 20
80.97559744476019
 10
3701.517514795042
 20
80.99095348685523
 10
3701.729414816614
 20
81.01624151666021
 10
3701.93792243792
 20
81.05121168297717
 10
3702.142771621974
 20
81.09561413460903
 10
3702.343696331789
 20
81.14919902035707
 10
3702.540430530375
 20
81.21171648902407
 10
3702.732708180747
 20
81.28291668941097
 10
3702.920263245916
 20
81.36254977032217
 10
3703.102829688895
 20
81.45036588055608
 10
3703.280141472697
 20
81.54611516891817
 10
3703.451932560333
 20
81.64954778420918
 10
3703.617936914817
 20
81.76041387523207
 10
3703.777888499161
 20
81.87846359078708
 10
3703.931521276376
 20
82.00344707967714
 10
3704.078569209477
 20
82.13511449070518
 10
3704.218766261475
 20
82.27321597267211
 10
3704.351846395383
 20
82.41750167438112
 10
3704.477543574213
 20
82.56772174463412
 10
3704.595591760977
 20
82.72362633223201
 10
3704.705724918689
 20
82.88496558597808
 10
3704.807677010361
 20
83.05148965467413
 10
3704.901181999005
 20
83.22294868712209
 10
3704.985973847633
 20
83.39909283212397
 10
3705.061786519258
 20
83.57967223848209
 10
3705.128353976892
 20
83.76443705499822
 10
3705.185410183549
 20
83.95313743047518
 10
3705.23268910224
 20
84.14552351371412
 10
3705.269924695978
 20
84.3413454535181
 10
3705.296850927775
 20
84.540353398688
 10
3705.313201760645
 20
84.74229749802702
 10
3705.318711157599
 20
84.94692790033615
 10
3705.313201760645
 20
85.15155830264609
 10
3705.296850927775
 20
85.35350240198523
 10
3705.269924695978
 20
85.55251034715514
 10
3705.23268910224
 20
85.74833228695821
 10
3705.185410183549
 20
85.94071837019919
 10
3705.128353976892
 20
86.12941874567411
 10
3705.061786519258
 20
86.31418356219205
 10
3704.985973847633
 20
86.49476296855016
 10
3704.901181999005
 20
86.67090711355205
 10
3704.807677010361
 20
86.8423661459991
 10
3704.705724918689
 20
87.00889021469606
 10
3704.595591760977
 20
87.17022946844213
 10
3704.477543574213
 20
87.32613405603911
 10
3704.351846395383
 20
87.47635412629108
 10
3704.218766261475
 20
87.62063982800009
 10
3704.078569209477
 20
87.75874130996816
 10
3703.931521276376
 20
87.89040872099509
 10
3703.777888499161
 20
88.01539220988615
 10
3703.617936914817
 20
88.13344192544116
 10
3703.451932560333
 20
88.24430801646315
 10
3703.280141472697
 20
88.34774063175506
 10
3703.102829688895
 20
88.44348992011703
 10
3702.920263245916
 20
88.53130603035209
 10
3702.732708180747
 20
88.61093911126204
 10
3702.540430530375
 20
88.68213931165007
 10
3702.343696331789
 20
88.74465678031617
 10
3702.142771621974
 20
88.7982416660651
 10
3701.93792243792
 20
88.84264411769606
 10
3701.729414816614
 20
88.87761428401416
 10
3701.517514795042
 20
88.90290231381811
 10
3701.302488410193
 20
88.91825835591305
 10
3701.084601699055
 20
88.92343255910009
 10
3700.866714987916
 20
88.91825835591305
 10
3700.651688603068
 20
88.90290231381811
 10
3700.439788581496
 20
88.87761428401416
 10
3700.23128096019
 20
88.84264411769606
 10
3700.026431776136
 20
88.7982416660651
 10
3699.825507066321
 20
88.74465678031617
 10
3699.628772867735
 20
88.68213931165007
 10
3699.436495217363
 20
88.61093911126204
 10
3699.248940152194
 20
88.53130603035209
 10
3699.066373709215
 20
88.44348992011703
 10
3698.889061925414
 20
88.34774063175506
 10
3698.717270837777
 20
88.24430801646315
 10
3698.551266483293
 20
88.13344192544116
 10
3698.39131489895
 20
88.01539220988615
 10
3698.237682121733
 20
87.89040872099509
 10
3698.090634188633
 20
87.75874130996816
 10
3697.950437136635
 20
87.62063982800009
 10
3697.817357002727
 20
87.47635412629108
 10
3697.691659823897
 20
87.32613405603911
 10
3697.573611637132
 20
87.17022946844213
 10
3697.46347847942
 20
87.00889021469606
 10
3697.361526387749
 20
86.8423661459991
 10
3697.268021399106
 20
86.67090711355205
 10
3697.183229550478
 20
86.49476296855016
 10
3697.107416878852
 20
86.31418356219205
 10
3697.040849421217
 20
86.12941874567411
 10
3696.983793214561
 20
85.94071837019919
 10
3696.936514295869
 20
85.74833228695821
 10
3696.899278702132
 20
85.55251034715514
 10
3696.872352470335
 20
85.35350240198523
 10
3696.856001637466
 20
85.15155830264609
  0
LWPOLYLINE
  5
4C1B
330
4B6C
100
AcDbEntity
  8
0
 62
     5
100
AcDbPolyline
 90
        4
 70
     1
 43
0.0
 10
3604.48603661529
 20
-531.1531732667381
 10
3854.48603661529
 20
-531.1531732667381
 10
3854.48603661529
 20
638.8468267332618
 10
3604.48603661529
 20
638.8468267332618
  0
LWPOLYLINE
  5
4C1D
330
4B6C
100
AcDbEntity
  8
0
 62
     5
100
AcDbPolyline
 90
        6
 70
     0
 43
0.0
 10
3816.371757325075
 20
591.167280641341
 10
3816.371757325075
 20
564.1672806413411
 10
3788.02304877603
 20
564.1672806413411
 10
3788.02304877603
 20
-355.8327193586588
 10
3816.371757325075
 20
-355.8327193586588
 10
3816.371757325075
 20
-382.8327193586588
  0
LWPOLYLINE
  5
4C62
330
4B6C
100
AcDbEntity
  8
KESIM
 62
     1
100
AcDbPolyline
 90
       33
 70
     0
 43
0.0
 10
3761.108161648355
 20
-276.0868166815717
 42
-0.4200038793789935
 10
3721.426018058726
 20
-286.2468802864689
 42
-0.323963627224975
 10
3708.258633864754
 20
-337.9405984292539
 42
-0.4272112704719272
 10
3668.161227754163
 20
-320.3562198577777
 42
-0.1735461201868293
 10
3682.505025359962
 20
-191.3822342668698
 42
-0.2630796211529018
 10
3667.349994977533
 20
-170.6026909175052
 42
-0.1517970066203612
 10
3676.196975095101
 20
-63.47793931129467
 42
-0.0535607895394362
 10
3697.167605925844
 20
-24.30034996269183
 42
-0.291388246681886
 10
3701.44430932725
 20
15.02852216729911
 42
-0.1724436475489812
 10
3676.392000175963
 20
10.01282908848225
 42
-0.5895183810507464
 10
3666.73762103494
 20
35.54749646904316
 42
-0.1340301036342817
 10
3687.364553852129
 20
49.09085781144722
 42
0.2258731459603561
 10
3702.353651537654
 20
71.50733727959232
 42
-0.3479920715681089
 10
3688.240423934476
 20
81.88565390561809
 42
-0.4334131039449596
 10
3677.978022050265
 20
91.12006587997006
 42
-0.5476456014802502
 10
3671.877692206907
 20
98.91715687072712
 42
-0.2686169850929393
 10
3663.718402821906
 20
104.1672806424917
 42
-0.2686169850933465
 10
3671.877692206907
 20
109.4174044142694
 42
-0.5476456014802502
 10
3677.978022050265
 20
117.2144954050264
 42
-0.4334131039449596
 10
3688.240423934476
 20
126.4489073793784
 42
-0.3479920715681089
 10
3702.353651537654
 20
136.8272240054042
 42
0.2258731459603561
 10
3687.364553852129
 20
159.2437034735493
 42
-0.1340301036342817
 10
3666.73762103494
 20
172.7870648159533
 42
-0.5895183810507464
 10
3676.392000175963
 20
198.3217321965142
 42
-0.1724436475489812
 10
3701.44430932725
 20
193.3060391176974
 42
-0.291388246681886
 10
3697.167605925844
 20
232.6349112476883
 42
-0.0535607895394362
 10
3676.196975095101
 20
271.8125005962912
 42
-0.1567891495259616
 10
3668.161568268006
 20
382.5443661802673
 42
-0.2680527198089813
 10
3682.505025359962
 20
399.7167955518663
 42
-0.1735461201868293
 10
3668.161227754163
 20
528.6907811427742
 42
-0.4272112704719272
 10
3708.258633864754
 20
546.2751597142504
 42
-0.323963627224975
 10
3721.426018058726
 20
494.5814415714655
 42
-0.4200038793789935
 10
3761.108161648355
 20
484.4213779665682
  0
LWPOLYLINE
  5
4C6B
330
4B6C
100
AcDbEntity
  8
5MM
 62
     0
100
AcDbPolyline
 90
      481
 70
     0
 43
0.0
 10
3734.811226461343
 20
110.9035784529021
 10
3735.410510417085
 20
111.6128914528203
 10
3736.033157864496
 20
112.3204173230062
 10
3736.648904282031
 20
113.031941041891
 10
3737.257741009312
 20
113.7474192747287
 10
3737.859659385963
 20
114.4668086867723
 10
3738.454650751608
 20
115.1900659432766
 10
3739.042706445868
 20
115.9171477094943
 10
3739.623817808368
 20
116.6480106506807
 10
3740.197976178731
 20
117.3826114320887
 10
3740.76517289658
 20
118.1209067189728
 10
3741.325399301537
 20
118.8628531765863
 10
3741.878646733227
 20
119.6084074701839
 10
3742.424906531271
 20
120.3575262650188
 10
3742.964170035294
 20
121.110166226345
 10
3743.496428584918
 20
121.8662840194159
 10
3744.021673519767
 20
122.6258363094866
 10
3744.539896179463
 20
123.3887797618098
 10
3745.051087903629
 20
124.1550710416403
 10
3745.555240031892
 20
124.9246668142314
 10
3746.052343903869
 20
125.6975237448375
 10
3746.542390859187
 20
126.4735984987119
 10
3747.025372237469
 20
127.2528477411084
 10
3747.501279378337
 20
128.0352281372814
 10
3747.970103621415
 20
128.8206963524849
 10
3748.431836306326
 20
129.6092090519719
 10
3748.886468772691
 20
130.4007229009975
 10
3749.333992360136
 20
131.1951945648143
 10
3749.774398408284
 20
131.9925807086773
 10
3750.207678256757
 20
132.7928379978395
 10
3750.633823245177
 20
133.5959230975557
 10
3751.05282471317
 20
134.4017926730788
 10
3751.464674000357
 20
135.210403389663
 10
3751.869362446362
 20
136.021711912563
 10
3752.266881390808
 20
136.8356749070313
 10
3752.657222173318
 20
137.6522490383229
 10
3753.040376133515
 20
138.4713909716911
 10
3753.416334611023
 20
139.2930573723903
 10
3753.785088945464
 20
140.1172049056737
 10
3754.146630476462
 20
140.9437902367955
 10
3754.500950543639
 20
141.7727700310098
 10
3754.848040486619
 20
142.6041009535704
 10
3755.187891645026
 20
143.4377396697307
 10
3755.520495358481
 20
144.2736428447455
 10
3755.845842966608
 20
145.1117671438675
 10
3756.163925809032
 20
145.9520692323515
 10
3756.474735225373
 20
146.794505775451
 10
3756.778262555257
 20
147.6390334384204
 10
3757.074499138305
 20
148.4856088865131
 10
3757.363436314141
 20
149.3341887849823
 10
3757.645065422388
 20
150.1847297990835
 10
3757.919377802669
 20
151.0371885940691
 10
3758.186364794609
 20
151.8915218351937
 10
3758.446017737828
 20
152.7476861877114
 10
3758.698327971951
 20
153.6056383168759
 10
3758.943286836601
 20
154.4653348879403
 10
3759.1808856714
 20
155.3267325661595
 10
3759.411115815972
 20
156.1897880167871
 10
3759.633968609942
 20
157.0544579050769
 10
3759.849435392929
 20
157.9206988962827
 10
3760.05750750456
 20
158.7884676556587
 10
3760.258176284456
 20
159.6577208484581
 10
3760.45143307224
 20
160.5284151399354
 10
3760.637269207537
 20
161.4005071953444
 10
3760.815676029968
 20
162.2739536799387
 10
3760.986644879158
 20
163.1487112589725
 10
3761.150167094728
 20
164.0247365976994
 10
3761.306234016304
 20
164.9019863613739
 10
3761.454836983507
 20
165.780417215249
 10
3761.59596733596
 20
166.6599858245791
 10
3761.729616413287
 20
167.5406488546181
 10
3761.855775555111
 20
168.4223629706197
 10
3761.974436101055
 20
169.3050848378378
 10
3762.085589390742
 20
170.1887711215263
 10
3762.189226763795
 20
171.0733784869395
 10
3762.285339559838
 20
171.9588635993305
 10
3762.373919118494
 20
172.8451831239534
 10
3762.454956779385
 20
173.7322937260628
 10
3762.528443882136
 20
174.6201520709119
 10
3762.594371766368
 20
175.5087148237547
 10
3762.652731771705
 20
176.3979386498453
 10
3762.70351523777
 20
177.2877802144368
 10
3762.746713504187
 20
178.1781961827843
 10
3762.782317910578
 20
179.0691432201407
 10
3762.810319796567
 20
179.9605779917603
 10
3762.830710501777
 20
180.852457162897
 10
3762.843481365831
 20
181.7447373988047
 10
3762.848623728352
 20
182.637375364737
 10
3762.846128928963
 20
183.5303277259484
 10
3762.835988307286
 20
184.4235511476918
 10
3762.818193202947
 20
185.3170022952219
 10
3762.792734955567
 20
186.2106378337925
 10
3762.759604904771
 20
187.104414428657
 10
3762.718794390179
 20
187.9982887450699
 10
3762.670294751418
 20
188.8922174482843
 10
3762.614097328107
 20
189.7861572035551
 10
3762.550193459873
 20
190.6800646761354
 10
3762.478574486336
 20
191.5738965312792
 10
3762.399231747121
 20
192.4676094342408
 10
3762.312156581851
 20
193.3611600502735
 10
3762.217340330149
 20
194.2545050446315
 10
3762.114774331637
 20
195.1476010825688
 10
3762.00444992594
 20
196.0404048293394
 10
3761.88635845268
 20
196.9328729501964
 10
3761.76049125148
 20
197.8249621103947
 10
3761.626839661963
 20
198.716628975187
 10
3761.485395023754
 20
199.6078302098285
 10
3761.336148676474
 20
200.4985224795723
 10
3761.179091959746
 20
201.3886624496724
 10
3761.014216213195
 20
202.2782067853827
 10
3760.841512776443
 20
203.1671121519571
 10
3760.660972989113
 20
204.0553352146495
 10
3760.472588190829
 20
204.9428326387135
 10
3760.276349721213
 20
205.8295610894038
 10
3760.07224891989
 20
206.7154772319734
 10
3759.86027712648
 20
207.6005377316763
 10
3759.640425680608
 20
208.4846992537669
 10
3759.412685921898
 20
209.3679184634985
 10
3759.177049189972
 20
210.2501520261258
 10
3758.933506824453
 20
211.1313566069017
 10
3758.682050164965
 20
212.0114888710806
 10
3758.42267055113
 20
212.8905054839163
 10
3758.155359322573
 20
213.768363110663
 10
3757.880107818915
 20
214.6450184165737
 10
3757.59690737978
 20
215.5204280669035
 10
3757.305749344791
 20
216.3945487269051
 10
3757.006625053571
 20
217.267337061833
 10
3756.699525845744
 20
218.1387497369414
 10
3756.384443060932
 20
219.0087434174835
 10
3756.170496959709
 20
219.6545448225413
 10
3755.944256792697
 20
220.2945216462036
 10
3755.705861905247
 20
220.9285667325362
 10
3755.455451642709
 20
221.5565729256053
 10
3755.193165350434
 20
222.1784330694768
 10
3754.919142373772
 20
222.7940400082173
 10
3754.633522058072
 20
223.4032865858926
 10
3754.336443748687
 20
224.0060656465689
 10
3754.028046790965
 20
224.6022700343123
 10
3753.708470530257
 20
225.1917925931888
 10
3753.377854311914
 20
225.774526167265
 10
3753.036337481284
 20
226.3503636006064
 10
3752.68405938372
 20
226.9191977372793
 10
3752.321159364571
 20
227.4809214213502
 10
3751.947776769186
 20
228.0354274968846
 10
3751.564050942918
 20
228.5826088079495
 10
3751.170121231115
 20
229.1223581986097
 10
3750.766126979129
 20
229.6545685129323
 10
3750.352207532309
 20
230.1791325949833
 10
3749.928502236006
 20
230.6959432888291
 10
3749.49515043557
 20
231.2048934385351
 10
3749.052291476351
 20
231.7058758881676
 10
3748.600064703699
 20
232.1987834817929
 10
3748.138609462966
 20
232.6835090634773
 10
3747.668065099501
 20
233.159945477287
 10
3747.188570958653
 20
233.6279855672873
 10
3746.700266385775
 20
234.0875221775452
 10
3746.203290726215
 20
234.5384481521262
 10
3745.697783325324
 20
234.9806563350969
 10
3745.183883528453
 20
235.414039570523
 10
3744.661730680952
 20
235.838490702471
 10
3744.131464128172
 20
236.2539025750069
 10
3743.59322321546
 20
236.6601680321968
 10
3743.04714728817
 20
237.0571799181065
 10
3742.49337569165
 20
237.4448310768025
 10
3741.932047771251
 20
237.8230143523514
 10
3741.363302872325
 20
238.1916225888182
 10
3740.78728034022
 20
238.5505486302697
 10
3740.204119520285
 20
238.8996853207718
 10
3739.613959757874
 20
239.2389255043912
 10
3739.016940398335
 20
239.568162025193
 10
3738.413200787018
 20
239.8872877272437
 10
3737.802880269276
 20
240.1961954546103
 10
3737.186118190456
 20
240.494778051358
 10
3736.56305389591
 20
240.7829283615523
 10
3735.933826730987
 20
241.0605392292612
 10
3735.298576041039
 20
241.3275034985491
 10
3734.657441171414
 20
241.583714013483
 10
3734.010561467465
 20
241.8290636181289
 10
3733.358076274541
 20
242.063445156553
 10
3732.700124937992
 20
242.2867514728206
 10
3732.036846803168
 20
242.4988754109987
 10
3731.36838121542
 20
242.6997098151534
 10
3730.694867520099
 20
242.8891475293503
 10
3730.016445062553
 20
243.0670813976561
 10
3729.333253188134
 20
243.2334042641369
 10
3728.645431242192
 20
243.3880089728579
 10
3727.953118570077
 20
243.5307883678859
 10
3727.256454517139
 20
243.6616352932874
 10
3726.55557842873
 20
243.7804425931279
 10
3725.850629650197
 20
243.8871031114737
 10
3725.141747526893
 20
243.9815096923909
 10
3724.429071404168
 20
244.0635551799459
 10
3723.712740627372
 20
244.1331324182045
 10
3722.965113578454
 20
244.209825247091
 10
3722.220226570439
 20
244.2675366017988
 10
3721.478348782462
 20
244.3064786389548
 10
3720.739749393661
 20
244.3268635151852
 10
3720.004697583174
 20
244.3289033871175
 10
3719.273462530136
 20
244.3128104113787
 10
3718.546313413688
 20
244.2787967445948
 10
3717.823519412963
 20
244.2270745433934
 10
3717.1053497071
 20
244.1578559644014
 10
3716.392073475237
 20
244.0713531642449
 10
3715.683959896511
 20
243.9677782995512
 10
3714.981278150057
 20
243.847343526947
 10
3714.284297415016
 20
243.7102610030597
 10
3713.593286870522
 20
243.5567428845155
 10
3712.908515695714
 20
243.3870013279413
 10
3712.230253069729
 20
243.2012484899644
 10
3711.558768171702
 20
242.9996965272113
 10
3710.894330180773
 20
242.7825575963092
 10
3710.237208276079
 20
242.5500438538843
 10
3709.587671636756
 20
242.3023674565639
 10
3708.945989441942
 20
242.0397405609749
 10
3708.312430870773
 20
241.7623753237436
 10
3707.687265102388
 20
241.4704839014973
 10
3707.070761315923
 20
241.1642784508632
 10
3706.463188690515
 20
240.8439711284674
 10
3705.864816405303
 20
240.5097740909371
 10
3705.275913639422
 20
240.1618994948993
 10
3704.696749572012
 20
239.8005594969804
 10
3704.127593382207
 20
239.4259662538078
 10
3703.568714249146
 20
239.038331922008
 10
3703.020381351966
 20
238.6378686582078
 10
3702.482863869804
 20
238.2247886190342
 10
3701.956430981798
 20
237.7993039611142
 10
3701.441351867084
 20
237.3616268410742
 10
3700.937895704799
 20
236.9119694155412
 10
3700.446331674083
 20
236.4505438411423
 10
3699.966928954069
 20
235.9775622745044
 10
3699.499956723899
 20
235.4932368722539
 10
3699.045684162705
 20
234.9977797910179
 10
3698.604380449629
 20
234.4914031874227
 10
3698.176314763805
 20
233.9743192180965
 10
3697.761756284371
 20
233.446740039665
 10
3697.360974190465
 20
232.908877808755
 10
3696.974237661225
 20
232.3609446819943
 10
3696.601815875786
 20
231.8031528160089
 10
3696.243978013285
 20
231.2357143674259
 10
3695.900993252863
 20
230.6588414928723
 10
3695.573130773652
 20
230.0727463489744
 10
3695.260659754793
 20
229.4776410923598
 10
3694.963849375422
 20
228.873737879655
 10
3694.682968814677
 20
228.2612488674864
 10
3694.418287251694
 20
227.6403862124819
 10
3694.17007386561
 20
227.0113620712674
 10
3693.938597835564
 20
226.3743886004698
 10
3693.724128340692
 20
225.7296779567165
 10
3693.526934560131
 20
225.0774422966339
 10
3693.347285673019
 20
224.4178937768491
 10
3693.185450858493
 20
223.7512445539888
 10
3693.04169929569
 20
223.07770678468
 10
3692.916300163747
 20
222.3974926255494
 10
3692.809522641802
 20
221.710814233224
 10
3692.721635908991
 20
221.0178837643306
 10
3692.652909144452
 20
220.3189133754959
 10
3692.603611527323
 20
219.6141152233464
 10
3692.621392609684
 20
218.733627819927
 10
3692.65657041297
 20
217.8547633068037
 10
3692.709072947178
 20
216.9777359112384
 10
3692.778828222304
 20
216.1027598604918
 10
3692.865764248347
 20
215.2300493818247
 10
3692.969809035302
 20
214.3598187024984
 10
3693.090890593168
 20
213.4922820497734
 10
3693.228936931941
 20
212.6276536509108
 10
3693.383876061619
 20
211.766147733172
 10
3693.555635992198
 20
210.9079785238173
 10
3693.744144733677
 20
210.0533602501079
 10
3693.949330296051
 20
209.2025071393047
 10
3694.171120689317
 20
208.3556334186688
 10
3694.409443923474
 20
207.5129533154607
 10
3694.66422800852
 20
206.6746810569415
 10
3694.935400954448
 20
205.8410308703725
 10
3695.222890771258
 20
205.0122169830144
 10
3695.526625468947
 20
204.1884536221279
 10
3695.846533057512
 20
203.3699550149744
 10
3696.18254154695
 20
202.5569353888144
 10
3696.534578947258
 20
201.7496089709091
 10
3696.902573268433
 20
200.9481899885192
 10
3697.286452520472
 20
200.1528926689058
 10
3697.686144713373
 20
199.3639312393298
 10
3698.101577857133
 20
198.5815199270523
 10
3698.532679961748
 20
197.8058729593344
 10
3698.979379037216
 20
197.0372045634363
 10
3699.441603093534
 20
196.2757289666194
 10
3699.9192801407
 20
195.5216603961447
 10
3700.412338188709
 20
194.775213079273
 10
3700.92070524756
 20
194.0366012432655
 10
3701.44430932725
 20
193.3060391153827
 10
3700.837190080618
 20
193.6609156700291
 10
3700.22380179797
 20
194.0043229013901
 10
3699.604331047886
 20
194.3362138945432
 10
3698.978964398957
 20
194.6565417345658
 10
3698.347888419768
 20
194.9652595065364
 10
3697.711289678903
 20
195.2623202955332
 10
3697.06935474495
 20
195.5476771866334
 10
3696.422270186494
 20
195.8212832649158
 10
3695.770222572122
 20
196.0830916154573
 10
3695.113398470418
 20
196.3330553233363
 10
3694.451984449969
 20
196.5711274736311
 10
3693.786167079363
 20
196.7972611514187
 10
3693.116132927183
 20
197.0114094417774
 10
3692.442068562016
 20
197.2135254297855
 10
3691.764160552448
 20
197.4035622005208
 10
3691.082595467065
 20
197.5814728390606
 10
3690.397559874453
 20
197.7472104304834
 10
3689.709240343199
 20
197.9007280598671
 10
3689.017823441887
 20
198.0419788122892
 10
3688.323495739104
 20
198.170915772828
 10
3687.626443803436
 20
198.2874920265615
 10
3686.926854203469
 20
198.391660658567
 10
3686.224913507789
 20
198.483374753923
 10
3685.520808284981
 20
198.5625873977074
 10
3684.814725103632
 20
198.6292516749973
 10
3684.106850532329
 20
198.6833206708719
 10
3683.397371139656
 20
198.7247474704085
 10
3682.686473494199
 20
198.7534851586844
 10
3681.974344164545
 20
198.7694868207785
 10
3681.261169719281
 20
198.7727055417679
 10
3680.547136726989
 20
198.7630944067314
 10
3679.83243175626
 20
198.7406065007459
 10
3679.286779473558
 20
198.7172760147667
 10
3678.746748917539
 20
198.6787114963143
 10
3678.212526167365
 20
198.6251669976375
 10
3677.684297302199
 20
198.5568965709843
 10
3677.162248401204
 20
198.4741542686038
 10
3676.646565543544
 20
198.3771941427443
 10
3676.137434808383
 20
198.2662702456548
 10
3675.635042274881
 20
198.1416366295828
 10
3675.139574022205
 20
198.0035473467775
 10
3674.651216129515
 20
197.8522564494875
 10
3674.170154675975
 20
197.688017989961
 10
3673.696575740749
 20
197.5110860204468
 10
3673.230665403
 20
197.3217145931927
 10
3672.77260974189
 20
197.1201577604485
 10
3672.322594836585
 20
196.9066695744615
 10
3671.880806766245
 20
196.6815040874803
 10
3671.447431610033
 20
196.4449153517542
 10
3671.022655447114
 20
196.1971574195314
 10
3670.606664356651
 20
195.9384843430603
 10
3670.199644417807
 20
195.6691501745895
 10
3669.801781709745
 20
195.389408966367
 10
3669.413262311628
 20
195.0995147706418
 10
3669.034272302619
 20
194.7997216396628
 10
3668.664997761882
 20
194.4902836256778
 10
3668.305624768578
 20
194.1714547809357
 10
3667.956339401874
 20
193.8434891576847
 10
3667.617327740928
 20
193.5066408081736
 10
3667.288775864907
 20
193.1611637846511
 10
3666.970869852974
 20
192.8073121393655
 10
3666.663795784291
 20
192.4453399245646
 10
3666.367739738021
 20
192.0755011924983
 10
3666.082887793328
 20
191.6980499954143
 10
3665.809426029374
 20
191.3132403855611
 10
3665.547540525324
 20
190.9213264151871
 10
3665.297417360338
 20
190.5225621365413
 10
3665.059242613583
 20
190.1172016018717
 10
3664.83320236422
 20
189.7054988634271
 10
3664.619482691412
 20
189.2877079734564
 10
3664.418269674323
 20
188.8640829842071
 10
3664.229749392116
 20
188.4348779479288
 10
3664.054107923953
 20
188.000346916869
 10
3663.891531348999
 20
187.5607439432771
 10
3663.742205746416
 20
187.1163230794011
 10
3663.606317195367
 20
186.6673383774898
 10
3663.484051775016
 20
186.2140438897915
 10
3663.375595564526
 20
185.7566936685547
 10
3663.281134643059
 20
185.2955417660284
 10
3663.20085508978
 20
184.8308422344603
 10
3663.13494298385
 20
184.3628491260993
 10
3663.083584404434
 20
183.8918164931942
 10
3663.046965430694
 20
183.4179983879935
 10
3663.025272141793
 20
182.941648862745
 10
3663.018690616896
 20
182.4630219696979
 10
3663.027406935164
 20
181.9823717611004
 10
3663.051607175762
 20
181.499952289201
 10
3663.091477417852
 20
181.0160176062487
 10
3663.147203740596
 20
180.5308217644914
 10
3663.218972223159
 20
180.0446188161783
 10
3663.306968944705
 20
179.5576628135567
 10
3663.411379984395
 20
179.0702078088763
 10
3663.532391421393
 20
178.5825078543851
 10
3663.670189334862
 20
178.0948170023318
 10
3663.824959803965
 20
177.6073893049647
 10
3663.996888907866
 20
177.1204788145328
 10
3664.342804745527
 20
176.4723384857639
 10
3664.704322168842
 20
175.8335530484935
 10
3665.08120369109
 20
175.2043258049791
 10
3665.473211825545
 20
174.5848600574787
 10
3665.880109085487
 20
173.9753591082498
 10
3666.301657984192
 20
173.3760262595508
 10
3666.73762103494
 20
172.7870648136385
 10
3667.187760751004
 20
172.2086780727714
 10
3667.651839645664
 20
171.6410693392073
 10
3668.129620232198
 20
171.0844419152034
 10
3668.620865023881
 20
170.5389991030179
 10
3669.125336533991
 20
170.0049442049087
 10
3669.642797275808
 20
169.482480523133
 10
3670.173009762604
 20
168.971811359949
 10
3670.715736507662
 20
168.4731400176148
 10
3671.270740024255
 20
167.9866697983873
 10
3671.837782825663
 20
167.5126040045247
 10
3672.416627425163
 20
167.0511459382851
 10
3673.00703633603
 20
166.6024989019255
 10
3673.608772071543
 20
166.1668661977045
 10
3674.22159714498
 20
165.7444511278795
 10
3674.845274069618
 20
165.3354569947081
 10
3675.479565358733
 20
164.9400871004483
 10
3676.124233525604
 20
164.5585447473578
 10
3676.779041083507
 20
164.1910332376944
 10
3677.44375054572
 20
163.8377558737158
 10
3678.11812442552
 20
163.4989159576799
 10
3678.801925236185
 20
163.174716791844
 10
3679.494915490991
 20
162.8653616784666
 10
3680.196857703217
 20
162.5710539198052
 10
3680.907514386138
 20
162.2919968181176
 10
3681.626648053034
 20
162.028393675661
 10
3682.152888101472
 20
161.8261459803427
 10
3682.674165590073
 20
161.6160404072035
 10
3683.190409766172
 20
161.3981629816975
 10
3683.701549877106
 20
161.1725997292787
 10
3684.207515170212
 20
160.939436675401
 10
3684.708234892825
 20
160.6987598455187
 10
3685.203638292281
 20
160.4506552650855
 10
3685.693654615918
 20
160.1952089595555
 10
3686.178213111071
 20
159.9325069543823
 10
3686.657243025076
 20
159.6626352750203
 10
3687.13067360527
 20
159.3856799469236
 10
3687.598434098988
 20
159.1017269955455
 10
3688.060453753568
 20
158.8108624463408
 10
3688.516661816345
 20
158.5131723247627
 10
3688.966987534656
 20
158.2087426562658
 10
3689.411360155837
 20
157.8976594663038
 10
3689.849708927223
 20
157.5800087803306
 10
3690.281963096152
 20
157.2558766238004
 10
3690.70805190996
 20
156.9253490221667
 10
3691.127904615982
 20
156.5885120008844
 10
3691.541450461555
 20
156.2454515854065
 10
3691.948618694016
 20
155.8962538011872
 10
3692.3493385607
 20
155.5410046736807
 10
3692.743539308943
 20
155.1797902283415
 10
3693.131150186083
 20
154.8126964906224
 10
3693.512100439455
 20
154.4398094859777
 10
3693.886319316395
 20
154.0612152398626
 10
3694.25373606424
 20
153.6769997777295
 10
3694.614279930326
 20
153.2872491250328
 10
3694.96788016199
 20
152.892049307227
 10
3695.314466006565
 20
152.4914863497657
 10
3695.653966711392
 20
152.0856462781029
 10
3695.986311523803
 20
151.6746151176923
 10
3696.311429691137
 20
151.2584788939887
 10
3696.629250460729
 20
150.8373236324451
 10
3696.939703079916
 20
150.4112353585161
 10
3697.242716796034
 20
149.9803000976554
 10
3697.538220856418
 20
149.544603875317
 10
3697.826144508407
 20
149.1042327169551
 10
3698.106416999333
 20
148.6592726480235
 10
3698.378967576537
 20
148.2098096939763
 10
3698.643725487352
 20
147.755929880267
 10
3698.900619979115
 20
147.2977192323503
 10
3699.149580299163
 20
146.8352637756794
 10
3699.390535694831
 20
146.3686495357087
 10
3699.623415413456
 20
145.8979625378928
 10
3699.848148702375
 20
145.4232888076843
 10
3700.064664808922
 20
144.9447143705383
 10
3700.272892980436
 20
144.4623252519084
 10
3700.472762464251
 20
143.9762074772484
 10
3700.664202507705
 20
143.4864470720123
 10
3700.847142358133
 20
142.9931300616543
 10
3701.021511262871
 20
142.4963424716284
 10
3701.187238469256
 20
141.9961703273883
 10
3701.344253224624
 20
141.4926996543883
 10
3701.492484776311
 20
140.9860164780818
 10
3701.631862371654
 20
140.4762068239237
 10
3701.762315257989
 20
139.9633567173671
 10
3701.883772682653
 20
139.4475521838667
 10
3701.996163892979
 20
138.9288792488759
 10
3702.099418136306
 20
138.4074239378486
 10
3702.19346465997
 20
137.8832722762395
 10
3702.278232711307
 20
137.3565102895017
 10
3702.353651537654
 20
136.8272240030899
  0
LWPOLYLINE
  5
4C6C
330
4B6C
100
AcDbEntity
  8
KESIM
 62
     1
100
AcDbPolyline
 90
      167
 70
     1
 43
0.0
 10
3761.02304877603
 20
469.5424010320675
 10
3760.533314720321
 20
468.6896143613682
 10
3759.847662896354
 20
467.6753985683163
 10
3759.082074984833
 20
466.7040955070905
 10
3758.237944942988
 20
465.7805109461753
 10
3757.31666667692
 20
464.9094494730607
 10
3756.319633844523
 20
464.0957145650943
 10
3755.248239699202
 20
463.344108708549
 10
3754.103876979053
 20
462.6594335494818
 10
3752.887937840005
 20
462.0464900596998
 10
3751.601813828609
 20
461.5100787040295
 10
3750.24689588767
 20
461.0549995980303
 10
3748.82457438687
 20
460.6860526487188
 10
3747.712412239714
 20
460.4783052759176
 10
3746.952174402262
 20
460.3629569477469
 10
3746.317919422385
 20
460.0830205349025
 10
3745.688796463864
 20
459.7959357042848
 10
3745.06486396893
 20
459.5017649189988
 10
3744.446180379629
 20
459.2005706420801
 10
3743.832804138332
 20
458.8924153366702
 10
3743.224793687088
 20
458.5773614658067
 10
3742.622207468096
 20
458.2554714925814
 10
3742.025103923566
 20
457.9268078800811
 10
3741.433541495684
 20
457.591433091407
 10
3740.847578626583
 20
457.2494095896167
 10
3740.267273758536
 20
456.9007998378166
 10
3739.692685333604
 20
456.5456662990436
 10
3739.123871794094
 20
456.1840714364354
 10
3738.560891582056
 20
455.8160777130378
 10
3738.003803139786
 20
455.4417475919565
 10
3737.452664909375
 20
455.0611435362504
 10
3736.907535333107
 20
454.6743280090408
 10
3736.368472853114
 20
454.2813634734015
 10
3735.835535911521
 20
453.8823123923495
 10
3735.30878295058
 20
453.4772372290413
 10
3734.788272412452
 20
453.0662004465543
 10
3734.274062739331
 20
452.6492645079313
 10
3733.766212373359
 20
452.2264918763094
 10
3733.264779756763
 20
451.7979450147045
 10
3732.769823331685
 20
451.3636863862434
 10
3732.281401540376
 20
450.9237784540184
 10
3731.799572824922
 20
450.4782836810834
 10
3731.324395627585
 20
450.0272645305371
 10
3730.855928390489
 20
449.5707834654488
 10
3730.394229555865
 20
449.1089029489561
 10
3729.939357565856
 20
448.6416854440427
 10
3729.49137086265
 20
448.1691934138673
 10
3729.050327888477
 20
447.6914893214766
 10
3728.616287085396
 20
447.2086356299377
 10
3728.189306895762
 20
446.7206948024176
 10
3727.769445761616
 20
446.2277293019444
 10
3727.356762125217
 20
445.7298015915768
 10
3726.951314428724
 20
445.2269741344616
 10
3726.553161114257
 20
444.7193093935912
 10
3726.162360624119
 20
444.2068698321428
 10
3725.778971400388
 20
443.6897179131308
 10
3725.403051885318
 20
443.167916099648
 10
3725.034660521024
 20
442.641526854825
 10
3724.67385574973
 20
442.1106126416887
 10
3724.32069601362
 20
441.575235923368
 10
3723.975239754908
 20
441.0354591629525
 10
3723.63754541563
 20
440.4913448234089
 10
3723.307671438139
 20
439.9429553679659
 10
3722.985676264509
 20
439.3903532596
 10
3722.671618337024
 20
438.8336009615279
 10
3722.365556097738
 20
438.2727609366539
 10
3722.067547988934
 20
437.7078956482294
 10
3721.777652452732
 20
437.1390675591886
 10
3721.495927931341
 20
436.5663391327331
 10
3721.222432866959
 20
435.9897728318819
 10
3720.957225701775
 20
435.4094311198029
 10
3720.700364877878
 20
434.8253764594674
 10
3720.451908837555
 20
434.2376713139751
 10
3720.211916022928
 20
433.6463781463931
 10
3719.980444876217
 20
433.0515594199456
 10
3719.757553839557
 20
432.4532775975401
 10
3719.543301355199
 20
431.8515951424013
 10
3719.337745865264
 20
431.246574517512
 10
3719.140945811946
 20
430.6382781859859
 10
3718.739495793705
 20
429.5225016492724
 10
3718.359047125647
 20
428.4021025859422
 10
3717.999614871189
 20
427.2773165673351
 10
3717.661214093797
 20
426.1483791648252
 10
3717.343859856918
 20
425.015525949749
 10
3717.047567223972
 20
423.8789924935191
 10
3716.772351258449
 20
422.7390143675555
 10
3716.518227023718
 20
421.5958271431261
 10
3716.285209583289
 20
420.4496663916744
 10
3716.073314000576
 20
419.3007676844879
 10
3715.88255533903
 20
418.1493665929815
 10
3715.71294866209
 20
416.9956986885924
 10
3715.564509033209
 20
415.8399995426021
 10
3715.437251515825
 20
414.6825047264902
 10
3715.331191173368
 20
413.5234498114336
 10
3715.246343069293
 20
412.3630703688784
 10
3715.182722267051
 20
411.2016019702862
 10
3715.140343830075
 20
410.0392801869467
 10
3715.119222821812
 20
408.8763405902502
 10
3715.119374305704
 20
407.7130187515636
 10
3715.140813345194
 20
406.5495502422936
 10
3715.183555003728
 20
405.3861706336737
 10
3715.247614344746
 20
404.2231154972555
 10
3715.33300643169
 20
403.060620404311
 10
3715.439746328016
 20
401.898920926216
 10
3715.567849097149
 20
400.7382526343381
 10
3715.717329802549
 20
399.5788511000435
 10
3715.888203507653
 20
398.4209518946729
 10
3716.080485275894
 20
397.2647905896961
 10
3716.294190170716
 20
396.1106027564324
 10
3716.529333255593
 20
394.9586239662099
 10
3716.882399546514
 20
393.3769109520902
 10
3717.67520809164
 20
392.3655312278953
 10
3718.538779048454
 20
391.1845766622011
 10
3719.356327034765
 20
389.9838820150724
 10
3720.127703876663
 20
388.7644888846021
 10
3720.852761403867
 20
387.5274388883161
 10
3721.531351451432
 20
386.2737736629175
 10
3722.163325861358
 20
385.0045348645307
 10
3722.748536484641
 20
383.720764167432
 10
3723.286835182874
 20
382.4235032636558
 10
3723.778073829965
 20
381.1137938620412
 10
3724.222104313909
 20
379.7926776866206
 10
3724.618778538216
 20
378.4611964753189
 10
3724.967948423303
 20
377.1203919784472
 10
3725.269465907776
 20
375.7713059566723
 10
3725.523182949486
 20
374.4149801789847
 10
3725.728951526328
 20
373.0524564206066
 10
3725.886623636865
 20
371.6847764608916
 10
3725.996051300717
 20
370.3129820810334
 10
3726.057086558721
 20
368.9381150617126
 10
3726.069581472801
 20
367.5612171806893
 10
3726.033388125641
 20
366.1833302110129
 10
3725.948358620127
 20
364.805495918586
 10
3725.814345078539
 20
363.4287560601194
 10
3725.631199641606
 20
362.054152381562
 10
3725.398774467292
 20
360.6827266161218
 10
3725.116921729553
 20
359.3155204830669
 10
3724.785493616855
 20
357.9535756861996
 10
3724.404342330606
 20
356.5979339128098
 10
3723.973320083586
 20
355.2496368329876
 10
3723.492279098324
 20
353.909726099064
 10
3722.961071605462
 20
352.579243345065
 10
3722.525341032528
 20
351.5901658489661
 10
3724.030042665702
 20
351.9922876084915
 10
3726.057591551701
 20
352.4305567875629
 10
3728.099381573176
 20
352.7706568771797
 10
3730.151103308761
 20
353.0130416667804
 10
3732.208447056347
 20
353.1581651747264
 10
3734.267102878784
 20
353.2064816820232
 10
3736.322760659311
 20
353.1584457595217
 10
3738.371110165012
 20
353.0145122870692
 10
3740.40784111581
 20
352.7751364634174
 10
3742.428643255984
 20
352.4407738062083
 10
3744.429206425103
 20
352.0118801419591
 10
3746.405220625443
 20
351.4889115864666
 10
3748.35237608275
 20
350.872324516726
 10
3750.266363298334
 20
350.1625755357343
 10
3752.142873090241
 20
349.3601214321139
 10
3753.517145760645
 20
348.689957840046
 10
3754.423041644564
 20
348.219740099867
 10
3755.3789014651
 20
347.517458125025
 10
3756.555664216865
 20
346.5241576637125
 10
3757.631384298397
 20
345.4813413001397
 10
3758.606857145801
 20
344.3933898423149
 10
3759.482877919697
 20
343.2646844326799
 10
3760.260241539658
 20
342.0996066347285
 10
3761.02304877603
 20
340.7557793922513
  0
LWPOLYLINE
  5
4C6D
330
4B6C
100
AcDbEntity
  8
KESIM
 62
     1
100
AcDbPolyline
 90
      135
 70
     1
 43
0.0
 10
3761.02304877603
 20
323.9830904783103
 10
3760.122997207238
 20
322.3657033578593
 10
3758.955273328684
 20
320.6959087847035
 10
3757.598270555295
 20
319.124482325096
 10
3756.054718148715
 20
317.6662219738703
 10
3754.619197809953
 20
316.5606832021295
 10
3753.387499154371
 20
315.736541718864
 10
3752.075913564749
 20
314.9790685437102
 10
3750.68524163875
 20
314.2926440334834
 10
3749.216283593848
 20
313.6816483052488
 10
3748.060188917491
 20
313.2845422209413
 10
3747.217974362041
 20
313.0431737627108
 10
3746.385114382704
 20
312.7866765786457
 10
3745.561768369201
 20
312.515259655306
 10
3744.748095711317
 20
312.2291319792485
 10
3743.944255798842
 20
311.9285025370517
 10
3743.150408021549
 20
311.6135803152627
 10
3742.366711769181
 20
311.2845743004489
 10
3741.593326431511
 20
310.9416934791767
 10
3740.830411398318
 20
310.5851468379942
 10
3740.078126059358
 20
310.2151433634739
 10
3739.336629804418
 20
309.8318920421796
 10
3738.606082023233
 20
309.4356018606612
 10
3737.886642105645
 20
309.0264818055052
 10
3737.178469441334
 20
308.6047408632412
 10
3736.481723420121
 20
308.1705880204477
 10
3735.796563431751
 20
307.724232263694
 10
3735.123148866014
 20
307.2658825795274
 10
3734.461639112698
 20
306.795747954521
 10
3733.812193561514
 20
306.3140373752142
 10
3733.174971602239
 20
305.820959828208
 10
3732.550132624714
 20
305.3167243000375
 10
3731.937836018631
 20
304.8015397772777
 10
3731.33824117378
 20
304.2756152464686
 10
3730.751507479951
 20
303.7391596941928
 10
3730.177794326902
 20
303.1923821070126
 10
3729.617261104394
 20
302.6354914714742
 10
3729.070067202186
 20
302.0686967741338
 10
3728.536372010064
 20
301.4922070015997
 10
3728.016334917817
 20
300.9062311403863
 10
3727.510115315167
 20
300.3109781770626
 10
3727.017872591905
 20
299.7066570982269
 10
3726.539766137811
 20
299.0934768903824
 10
3726.075955342622
 20
298.4716465401215
 10
3725.626599596168
 20
297.841375034028
 10
3725.191858288184
 20
297.202871358663
 10
3724.771890808388
 20
296.5563445004974
 10
3724.366856546611
 20
295.9020034462171
 10
3723.976914892631
 20
295.2400571823183
 10
3723.602225236188
 20
294.5707146954033
 10
3723.242946967044
 20
293.8941849719898
 10
3722.899239474982
 20
293.2106769986186
 10
3722.571262149776
 20
292.5203997619533
 10
3722.259174381171
 20
291.8235622484354
 10
3721.963135558958
 20
291.1203734446816
 10
3721.683305072912
 20
290.4110423373061
 10
3721.419842312774
 20
289.6957779127642
 10
3721.172906668362
 20
288.9747891577357
 10
3720.942657529379
 20
288.248285058663
 10
3720.729254285636
 20
287.5164746021988
 10
3720.532856326891
 20
286.7795667748125
 10
3720.353623042921
 20
286.0377705632042
 10
3720.191713823492
 20
285.2912949538008
 10
3720.047288058371
 20
284.5403489332905
 10
3719.92050513732
 20
283.7851414880996
 10
3719.81152445011
 20
283.0258816048721
 10
3719.72050538652
 20
282.26277827012
 10
3719.647607336321
 20
281.4960404705168
 10
3719.592989689266
 20
280.7258771925127
 10
3719.556811835132
 20
279.9524974226539
 10
3719.53923316369
 20
279.1761101476105
 10
3719.540413064707
 20
278.3969243538786
 10
3719.560510927953
 20
277.6151490279838
 10
3719.599686143195
 20
276.8309931565456
 10
3719.658098100203
 20
276.0446657261375
 10
3719.665293630728
 20
274.8581043517952
 10
3719.701886511458
 20
273.674196787116
 10
3719.76771526224
 20
272.4933426474668
 10
3719.86261840291
 20
271.3159415483524
 10
3719.98643445332
 20
270.1423931050348
 10
3720.139001933298
 20
268.9730969331492
 10
3720.320159362695
 20
267.8084526480674
 10
3720.529745261356
 20
266.6488598651826
 10
3720.767598149133
 20
265.4947181998931
 10
3721.033556545851
 20
264.3464272677223
 10
3721.32745897134
 20
263.2043866840896
 10
3721.649143945469
 20
262.0689960644353
 10
3721.998449988063
 20
260.9406550241245
 10
3722.375215618983
 20
259.8197631786616
 10
3722.779279358049
 20
258.7067201434515
 10
3723.210479725146
 20
257.6019255338592
 10
3723.668655240051
 20
256.5057789654064
 10
3724.153644422655
 20
255.4186800535204
 10
3724.665285792778
 20
254.3410284136263
 10
3725.203417870281
 20
253.2732236611334
 10
3725.767879174975
 20
252.2156654115029
 10
3726.358508226744
 20
251.1687532801393
 10
3726.975143545388
 20
250.1328868825297
 10
3727.617623650803
 20
249.1084658340469
 10
3728.285787062778
 20
248.0958897501408
 10
3728.979472301184
 20
247.095558246265
 10
3729.698517885842
 20
246.1078709378222
 10
3730.442762336622
 20
245.1332274402699
 10
3731.212044173355
 20
244.172027369023
 10
3732.006201915875
 20
243.2246703395336
 10
3732.825074084024
 20
242.2915559672309
 10
3732.875294600801
 20
242.2368668872549
 10
3734.661454306179
 20
241.5952540749526
 10
3736.567834224345
 20
240.7940974136653
 10
3738.418742280738
 20
239.8980485922499
 10
3740.210411636864
 20
238.9100019304314
 10
3741.939075461445
 20
237.8328522896204
 10
3743.600967036339
 20
236.6694950522979
 10
3745.192319862217
 20
235.4228260821427
 10
3746.709367758415
 20
234.0957416666024
 10
3748.148344951991
 20
232.691138444548
 10
3749.505486152162
 20
231.2119133220302
 10
3750.777026606
 20
229.6609633812657
 10
3751.959202134145
 20
228.0411857868005
 10
3753.048249145766
 20
226.3554776930714
 10
3754.040404632747
 20
224.6067361586518
 10
3754.931906145763
 20
222.7978580695216
 10
3755.718991754582
 20
220.9317400742063
 10
3756.170496959713
 20
219.6545448224927
 10
3756.384443060936
 20
219.0087434174546
 10
3756.856848269175
 20
217.7043575048741
 10
3757.455109247893
 20
215.958744665026
 10
3758.021521992228
 20
214.207888684691
 10
3758.556155769892
 20
212.4521362542584
 10
3759.059079849321
 20
210.6918340628471
 10
3759.530363498582
 20
208.9273288030022
 10
3759.970075986491
 20
207.158967166586
 10
3760.378286582108
 20
205.3870958467344
 10
3760.755064554953
 20
203.612061537219
 10
3761.02304877603
 20
202.2327455446995
  0
LWPOLYLINE
  5
4CC7
330
4B6C
100
AcDbEntity
  8
KESIM
 62
     1
100
AcDbPolyline
 90
      167
 70
     1
 43
0.0
 10
3761.02304877603
 20
-261.2078397493851
 10
3760.533314720321
 20
-260.355053078686
 10
3759.847662896354
 20
-259.340837285634
 10
3759.082074984833
 20
-258.3695342244082
 10
3758.237944942988
 20
-257.445949663493
 10
3757.31666667692
 20
-256.5748881903784
 10
3756.319633844523
 20
-255.761153282412
 10
3755.248239699202
 20
-255.0095474258667
 10
3754.103876979053
 20
-254.3248722667995
 10
3752.887937840005
 20
-253.7119287770176
 10
3751.601813828609
 20
-253.1755174213472
 10
3750.24689588767
 20
-252.720438315348
 10
3748.82457438687
 20
-252.3514913660364
 10
3747.712412239714
 20
-252.1437439932353
 10
3746.952174402262
 20
-252.0283956650646
 10
3746.317919422385
 20
-251.7484592522202
 10
3745.688796463864
 20
-251.4613744216025
 10
3745.06486396893
 20
-251.1672036363165
 10
3744.446180379629
 20
-250.8660093593978
 10
3743.832804138332
 20
-250.5578540539878
 10
3743.224793687088
 20
-250.2428001831244
 10
3742.622207468096
 20
-249.9209102098991
 10
3742.025103923566
 20
-249.5922465973988
 10
3741.433541495684
 20
-249.2568718087247
 10
3740.847578626583
 20
-248.9148483069344
 10
3740.267273758536
 20
-248.5662385551343
 10
3739.692685333604
 20
-248.2111050163614
 10
3739.123871794094
 20
-247.8495101537531
 10
3738.560891582056
 20
-247.4815164303556
 10
3738.003803139786
 20
-247.1071863092742
 10
3737.452664909375
 20
-246.7265822535681
 10
3736.907535333107
 20
-246.3397667263586
 10
3736.368472853114
 20
-245.9468021907191
 10
3735.835535911521
 20
-245.5477511096672
 10
3735.30878295058
 20
-245.1426759463591
 10
3734.788272412452
 20
-244.731639163872
 10
3734.274062739331
 20
-244.314703225249
 10
3733.766212373359
 20
-243.8919305936271
 10
3733.264779756763
 20
-243.4633837320222
 10
3732.769823331685
 20
-243.029125103561
 10
3732.281401540376
 20
-242.5892171713361
 10
3731.799572824922
 20
-242.1437223984011
 10
3731.324395627585
 20
-241.6927032478549
 10
3730.855928390489
 20
-241.2362221827665
 10
3730.394229555865
 20
-240.7743416662738
 10
3729.939357565856
 20
-240.3071241613604
 10
3729.49137086265
 20
-239.834632131185
 10
3729.050327888477
 20
-239.3569280387944
 10
3728.616287085396
 20
-238.8740743472554
 10
3728.189306895762
 20
-238.3861335197353
 10
3727.769445761616
 20
-237.8931680192621
 10
3727.356762125217
 20
-237.3952403088945
 10
3726.951314428724
 20
-236.8924128517793
 10
3726.553161114257
 20
-236.384748110909
 10
3726.162360624119
 20
-235.8723085494605
 10
3725.778971400388
 20
-235.3551566304485
 10
3725.403051885318
 20
-234.8333548169658
 10
3725.034660521024
 20
-234.3069655721428
 10
3724.67385574973
 20
-233.7760513590064
 10
3724.32069601362
 20
-233.2406746406857
 10
3723.975239754908
 20
-232.7008978802703
 10
3723.63754541563
 20
-232.1567835407265
 10
3723.307671438139
 20
-231.6083940852836
 10
3722.985676264509
 20
-231.0557919769177
 10
3722.671618337024
 20
-230.4990396788456
 10
3722.365556097738
 20
-229.9381996539716
 10
3722.067547988934
 20
-229.3733343655471
 10
3721.777652452732
 20
-228.8045062765063
 10
3721.495927931341
 20
-228.2317778500509
 10
3721.222432866959
 20
-227.6552115491996
 10
3720.957225701775
 20
-227.0748698371205
 10
3720.700364877878
 20
-226.4908151767851
 10
3720.451908837555
 20
-225.9031100312928
 10
3720.211916022928
 20
-225.3118168637108
 10
3719.980444876217
 20
-224.7169981372633
 10
3719.757553839557
 20
-224.1187163148578
 10
3719.543301355199
 20
-223.517033859719
 10
3719.337745865264
 20
-222.9120132348297
 10
3719.140945811946
 20
-222.3037169033037
 10
3718.739495793705
 20
-221.1879403665902
 10
3718.359047125647
 20
-220.0675413032599
 10
3717.999614871189
 20
-218.9427552846528
 10
3717.661214093797
 20
-217.8138178821429
 10
3717.343859856918
 20
-216.6809646670667
 10
3717.047567223972
 20
-215.5444312108368
 10
3716.772351258449
 20
-214.4044530848733
 10
3716.518227023718
 20
-213.2612658604438
 10
3716.285209583289
 20
-212.1151051089921
 10
3716.073314000576
 20
-210.9662064018056
 10
3715.88255533903
 20
-209.8148053102992
 10
3715.71294866209
 20
-208.6611374059101
 10
3715.564509033209
 20
-207.5054382599198
 10
3715.437251515825
 20
-206.3479434438079
 10
3715.331191173368
 20
-205.1888885287513
 10
3715.246343069293
 20
-204.0285090861961
 10
3715.182722267051
 20
-202.8670406876038
 10
3715.140343830075
 20
-201.7047189042645
 10
3715.119222821812
 20
-200.541779307568
 10
3715.119374305704
 20
-199.3784574688812
 10
3715.140813345194
 20
-198.2149889596113
 10
3715.183555003728
 20
-197.0516093509915
 10
3715.247614344746
 20
-195.8885542145733
 10
3715.33300643169
 20
-194.7260591216288
 10
3715.439746328016
 20
-193.5643596435337
 10
3715.567849097149
 20
-192.4036913516559
 10
3715.717329802549
 20
-191.2442898173611
 10
3715.888203507653
 20
-190.0863906119906
 10
3716.080485275894
 20
-188.9302293070138
 10
3716.294190170716
 20
-187.77604147375
 10
3716.529333255593
 20
-186.6240626835275
 10
3716.882399546514
 20
-185.0423496694079
 10
3717.67520809164
 20
-184.0309699452129
 10
3718.538779048454
 20
-182.8500153795187
 10
3719.356327034765
 20
-181.6493207323901
 10
3720.127703876663
 20
-180.4299276019197
 10
3720.852761403867
 20
-179.1928776056338
 10
3721.531351451432
 20
-177.9392123802352
 10
3722.163325861358
 20
-176.6699735818483
 10
3722.748536484641
 20
-175.3862028847496
 10
3723.286835182874
 20
-174.0889419809734
 10
3723.778073829965
 20
-172.7792325793589
 10
3724.222104313909
 20
-171.4581164039383
 10
3724.618778538216
 20
-170.1266351926365
 10
3724.967948423303
 20
-168.7858306957649
 10
3725.269465907776
 20
-167.43674467399
 10
3725.523182949486
 20
-166.0804188963024
 10
3725.728951526328
 20
-164.7178951379243
 10
3725.886623636865
 20
-163.3502151782092
 10
3725.996051300717
 20
-161.978420798351
 10
3726.057086558721
 20
-160.6035537790303
 10
3726.069581472801
 20
-159.2266558980069
 10
3726.033388125641
 20
-157.8487689283306
 10
3725.948358620127
 20
-156.4709346359037
 10
3725.814345078539
 20
-155.0941947774371
 10
3725.631199641606
 20
-153.7195910988796
 10
3725.398774467292
 20
-152.3481653334395
 10
3725.116921729553
 20
-150.9809592003845
 10
3724.785493616855
 20
-149.6190144035173
 10
3724.404342330606
 20
-148.2633726301275
 10
3723.973320083586
 20
-146.9150755503052
 10
3723.492279098324
 20
-145.5751648163816
 10
3722.961071605462
 20
-144.2446820623827
 10
3722.525341032528
 20
-143.2556045662838
 10
3724.030042665702
 20
-143.6577263258091
 10
3726.057591551701
 20
-144.0959955048806
 10
3728.099381573176
 20
-144.4360955944973
 10
3730.151103308761
 20
-144.6784803840981
 10
3732.208447056347
 20
-144.823603892044
 10
3734.267102878784
 20
-144.8719203993408
 10
3736.322760659311
 20
-144.8238844768394
 10
3738.371110165012
 20
-144.6799510043868
 10
3740.40784111581
 20
-144.4405751807351
 10
3742.428643255984
 20
-144.106212523526
 10
3744.429206425103
 20
-143.6773188592768
 10
3746.405220625443
 20
-143.1543503037842
 10
3748.35237608275
 20
-142.5377632340437
 10
3750.266363298334
 20
-141.828014253052
 10
3752.142873090241
 20
-141.0255601494315
 10
3753.517145760645
 20
-140.3553965573637
 10
3754.423041644564
 20
-139.8851788171846
 10
3755.3789014651
 20
-139.1828968423426
 10
3756.555664216865
 20
-138.1895963810302
 10
3757.631384298397
 20
-137.1467800174573
 10
3758.606857145801
 20
-136.0588285596325
 10
3759.482877919697
 20
-134.9301231499975
 10
3760.260241539658
 20
-133.7650453520462
 10
3761.02304877603
 20
-132.4212181095689
  0
LWPOLYLINE
  5
4CC8
330
4B6C
100
AcDbEntity
  8
KESIM
 62
     1
100
AcDbPolyline
 90
      135
 70
     1
 43
0.0
 10
3761.02304877603
 20
-115.648529195628
 10
3760.122997207238
 20
-114.031142075177
 10
3758.955273328684
 20
-112.3613475020212
 10
3757.598270555295
 20
-110.7899210424136
 10
3756.054718148715
 20
-109.331660691188
 10
3754.619197809953
 20
-108.2261219194471
 10
3753.387499154371
 20
-107.4019804361816
 10
3752.075913564749
 20
-106.6445072610279
 10
3750.68524163875
 20
-105.9580827508011
 10
3749.216283593848
 20
-105.3470870225664
 10
3748.060188917491
 20
-104.949980938259
 10
3747.217974362041
 20
-104.7086124800284
 10
3746.385114382704
 20
-104.4521152959634
 10
3745.561768369201
 20
-104.1806983726237
 10
3744.748095711317
 20
-103.8945706965662
 10
3743.944255798842
 20
-103.5939412543694
 10
3743.150408021549
 20
-103.2790190325804
 10
3742.366711769181
 20
-102.9500130177665
 10
3741.593326431511
 20
-102.6071321964943
 10
3740.830411398318
 20
-102.2505855553119
 10
3740.078126059358
 20
-101.8805820807915
 10
3739.336629804418
 20
-101.4973307594972
 10
3738.606082023233
 20
-101.1010405779789
 10
3737.886642105645
 20
-100.6919205228229
 10
3737.178469441334
 20
-100.2701795805588
 10
3736.481723420121
 20
-99.83602673776534
 10
3735.796563431751
 20
-99.38967098101166
 10
3735.123148866014
 20
-98.93132129684511
 10
3734.461639112698
 20
-98.46118667183867
 10
3733.812193561514
 20
-97.97947609253192
 10
3733.174971602239
 20
-97.48639854552568
 10
3732.550132624714
 20
-96.98216301735516
 10
3731.937836018631
 20
-96.46697849459537
 10
3731.33824117378
 20
-95.94105396378621
 10
3730.751507479951
 20
-95.40459841151051
 10
3730.177794326902
 20
-94.85782082433024
 10
3729.617261104394
 20
-94.30093018879182
 10
3729.070067202186
 20
-93.73413549145146
 10
3728.536372010064
 20
-93.15764571891737
 10
3728.016334917817
 20
-92.57166985770396
 10
3727.510115315167
 20
-91.97641689438023
 10
3727.017872591905
 20
-91.37209581554452
 10
3726.539766137811
 20
-90.75891560770008
 10
3726.075955342622
 20
-90.1370852574392
 10
3725.626599596168
 20
-89.50681375134564
 10
3725.191858288184
 20
-88.86831007598061
 10
3724.771890808388
 20
-88.22178321781507
 10
3724.366856546611
 20
-87.5674421635348
 10
3723.976914892631
 20
-86.90549589963598
 10
3723.602225236188
 20
-86.23615341272103
 10
3723.242946967044
 20
-85.55962368930744
 10
3722.899239474982
 20
-84.87611571593623
 10
3722.571262149776
 20
-84.18583847927095
 10
3722.259174381171
 20
-83.48900096575306
 10
3721.963135558958
 20
-82.78581216199928
 10
3721.683305072912
 20
-82.0764810546238
 10
3721.419842312774
 20
-81.36121663008191
 10
3721.172906668362
 20
-80.64022787505342
 10
3720.942657529379
 20
-79.91372377598065
 10
3720.729254285636
 20
-79.18191331951653
 10
3720.532856326891
 20
-78.44500549213018
 10
3720.353623042921
 20
-77.70320928052189
 10
3720.191713823492
 20
-76.95673367111846
 10
3720.047288058371
 20
-76.20578765060821
 10
3719.92050513732
 20
-75.45058020541728
 10
3719.81152445011
 20
-74.69132032218976
 10
3719.72050538652
 20
-73.92821698743773
 10
3719.647607336321
 20
-73.16147918783446
 10
3719.592989689266
 20
-72.39131590983038
 10
3719.556811835132
 20
-71.61793613997161
 10
3719.53923316369
 20
-70.8415488649282
 10
3719.540413064707
 20
-70.06236307119627
 10
3719.560510927953
 20
-69.28058774530143
 10
3719.599686143195
 20
-68.49643187386329
 10
3719.658098100203
 20
-67.71010444345518
 10
3719.665293630728
 20
-66.52354306911291
 10
3719.701886511458
 20
-65.33963550443366
 10
3719.76771526224
 20
-64.15878136478449
 10
3719.86261840291
 20
-62.98138026567006
 10
3719.98643445332
 20
-61.80783182235245
 10
3720.139001933298
 20
-60.63853565046684
 10
3720.320159362695
 20
-59.47389136538504
 10
3720.529745261356
 20
-58.31429858250027
 10
3720.767598149133
 20
-57.16015691721082
 10
3721.033556545851
 20
-56.01186598504
 10
3721.32745897134
 20
-54.86982540140729
 10
3721.649143945469
 20
-53.73443478175295
 10
3721.998449988063
 20
-52.60609374144218
 10
3722.375215618983
 20
-51.48520189597923
 10
3722.779279358049
 20
-50.37215886076916
 10
3723.210479725146
 20
-49.2673642511769
 10
3723.668655240051
 20
-48.17121768272404
 10
3724.153644422655
 20
-47.08411877083807
 10
3724.665285792778
 20
-46.00646713094394
 10
3725.203417870281
 20
-44.93866237845108
 10
3725.767879174975
 20
-43.88110412882059
 10
3726.358508226744
 20
-42.834191997457
 10
3726.975143545388
 20
-41.79832559984743
 10
3727.617623650803
 20
-40.77390455136455
 10
3728.285787062778
 20
-39.76132846745847
 10
3728.979472301184
 20
-38.7609969635827
 10
3729.698517885842
 20
-37.77330965513986
 10
3730.442762336622
 20
-36.79866615758758
 10
3731.212044173355
 20
-35.83746608634067
 10
3732.006201915875
 20
-34.89010905685126
 10
3732.825074084024
 20
-33.95699468454854
 10
3732.875294600801
 20
-33.9023056045726
 10
3734.661454306179
 20
-33.26069279227028
 10
3736.567834224345
 20
-32.45953613098291
 10
3738.418742280738
 20
-31.56348730956759
 10
3740.210411636864
 20
-30.57544064774908
 10
3741.939075461445
 20
-29.4982910069381
 10
3743.600967036339
 20
-28.33493376961556
 10
3745.192319862217
 20
-27.08826479946043
 10
3746.709367758415
 20
-25.76118038392005
 10
3748.148344951991
 20
-24.35657716186566
 10
3749.505486152162
 20
-22.87735203934787
 10
3750.777026606
 20
-21.32640209858335
 10
3751.959202134145
 20
-19.70662450411822
 10
3753.048249145766
 20
-18.02091641038913
 10
3754.040404632747
 20
-16.27217487596945
 10
3754.931906145763
 20
-14.46329678683926
 10
3755.718991754582
 20
-12.59717879152401
 10
3756.170496959713
 20
-11.31998353981035
 10
3756.384443060936
 20
-10.67418213477225
 10
3756.856848269175
 20
-9.36979622219178
 10
3757.455109247893
 20
-7.624183382343716
 10
3758.021521992228
 20
-5.873327402008641
 10
3758.556155769892
 20
-4.117574971576061
 10
3759.059079849321
 20
-2.357272780164834
 10
3759.530363498582
 20
-0.5927675203199101
 10
3759.970075986491
 20
1.175594116096362
 10
3760.378286582108
 20
2.947465435947947
 10
3760.755064554953
 20
4.722499745463295
 10
3761.02304877603
 20
6.101815737982775
  0
LWPOLYLINE
  5
4CCA
330
4B6C
100
AcDbEntity
  8
KESIM
 62
     1
100
AcDbPolyline
 90
        6
 70
     0
 43
0.0
 10
3761.02304877603
 20
44.99082614895826
 10
3761.02304877603
 20
163.3437351337244
 42
-0.1373055626426359
 10
3734.811226461343
 20
110.9035784529021
 42
-0.3099655191513202
 10
3741.959863232058
 20
104.1672806413411
 42
-0.317445246148543
 10
3734.782763942926
 20
97.4254999757233
 42
-0.1375541065746707
 10
3761.02304877603
 20
44.99082614895826
 42
-0.8576795886865944
  0
ENDSEC
  0
SECTION
  2
OBJECTS
  0
DICTIONARY
  5
4B42
330
0
100
AcDbDictionary
281
     1
  3
ACAD_COLOR
350
4B65
  3
ACAD_GROUP
350
4B43
  3
ACAD_LAYOUT
350
4B64
  3
ACAD_MATERIAL
350
4B46
  3
ACAD_MLINESTYLE
350
4B61
  3
ACAD_PLOTSETTINGS
350
4B63
  3
ACAD_PLOTSTYLENAME
350
4B44
  3
ACAD_TABLESTYLE
350
4B66
  3
ACAD_VISUALSTYLE
350
4B4A
  3
AcDbVariableDictionary
350
4B81
  0
DICTIONARY
  5
4B7E
330
4B6C
100
AcDbDictionary
280
     1
281
     1
  3
ACAD_SORTENTS
360
4B7F
  0
DICTIONARY
  5
4B65
102
{ACAD_REACTORS
330
4B42
102
}
330
4B42
100
AcDbDictionary
281
     1
  0
DICTIONARY
  5
4B43
102
{ACAD_REACTORS
330
4B42
102
}
330
4B42
100
AcDbDictionary
281
     1
  0
DICTIONARY
  5
4B64
102
{ACAD_REACTORS
330
4B42
102
}
330
4B42
100
AcDbDictionary
281
     1
  3
Layout1
350
4B6B
  3
Model
350
4B6F
  0
DICTIONARY
  5
4B46
102
{ACAD_REACTORS
330
4B42
102
}
330
4B42
100
AcDbDictionary
281
     1
  3
ByBlock
350
4B48
  3
ByLayer
350
4B47
  3
Global
350
4B49
  0
DICTIONARY
  5
4B61
102
{ACAD_REACTORS
330
4B42
102
}
330
4B42
100
AcDbDictionary
281
     1
  3
Standard
350
4B62
  0
DICTIONARY
  5
4B63
102
{ACAD_REACTORS
330
4B42
102
}
330
4B42
100
AcDbDictionary
281
     1
  0
ACDBDICTIONARYWDFLT
  5
4B44
102
{ACAD_REACTORS
330
4B42
102
}
330
4B42
100
AcDbDictionary
281
     1
  3
Normal
350
4B45
100
AcDbDictionaryWithDefault
340
4B45
  0
DICTIONARY
  5
4B66
102
{ACAD_REACTORS
330
4B42
102
}
330
4B42
100
AcDbDictionary
281
     1
  3
Standard
350
4B67
  0
DICTIONARY
  5
4B4A
102
{ACAD_REACTORS
330
4B42
102
}
330
4B42
100
AcDbDictionary
281
     1
  3
2dWireframe
350
4B50
  3
3D Hidden
350
4B52
  3
3dWireframe
350
4B51
  3
Basic
350
4B4F
  3
Brighten
350
4B56
  3
ColorChange
350
4B5A
  3
Conceptual
350
4B53
  3
Dim
350
4B55
  3
Facepattern
350
4B59
  3
Flat
350
4B4B
  3
FlatWithEdges
350
4B4C
  3
Gouraud
350
4B4D
  3
GouraudWithEdges
350
4B4E
  3
Linepattern
350
4B58
  3
Realistic
350
4B54
  3
Thicken
350
4B57
  0
DICTIONARY
  5
4B81
102
{ACAD_REACTORS
330
4B42
102
}
330
4B42
100
AcDbDictionary
281
     1
  3
CTABLESTYLE
350
4B82
  0
SORTENTSTABLE
  5
4B7F
102
{ACAD_REACTORS
330
4B7E
102
}
330
4B7E
100
AcDbSortentsTable
330
4B6C
331
4C05
  5
4C06
331
4C00
  5
4C01
331
4C15
  5
4C16
331
4C10
  5
4C11
331
4BFB
  5
4BFC
331
4C19
  5
4C1A
331
4C0B
  5
4C0C
331
4C06
  5
4C07
331
4BF6
  5
4BF7
331
4C16
  5
4C17
331
4C01
  5
4C02
331
4BFC
  5
4BFD
331
4C1A
  5
4C1B
331
4C11
  5
4C12
331
4C0C
  5
4C0D
331
4C07
  5
4C08
331
4BF7
  5
4BF8
331
4C17
  5
4C19
331
4C02
  5
4C03
331
4C1B
  5
4C1D
331
4C12
  5
4C13
331
4BFD
  5
4BFE
331
4BF8
  5
4BF9
331
4C6B
  5
4BF6
331
4C0D
  5
4C0E
331
4C08
  5
4C09
331
4C03
  5
4C04
331
4BF3
  5
4BF3
331
4C13
  5
4C14
331
4BFE
  5
4BFF
331
4C0E
  5
4C0F
331
4BF9
  5
4BFA
331
4C09
  5
4C0A
331
4C04
  5
4C05
331
4C62
  5
4C6B
331
4BFF
  5
4C00
331
4C14
  5
4C15
331
4BF4
  5
4BF4
331
4C1D
  5
4C62
331
4C0F
  5
4C10
331
4BFA
  5
4BFB
331
4C0A
  5
4C0B
  0
LAYOUT
  5
4B6B
102
{ACAD_REACTORS
330
4B64
102
}
330
4B64
100
AcDbPlotSettings
  1

  2
HP LaserJet 1020
  4

  6

 40
0.0
 41
0.0
 42
0.0
 43
0.0
 44
0.0
 45
0.0
 46
0.0
 47
0.0
 48
0.0
 49
0.0
140
0.0
141
0.0
142
1.0
143
1.0
 70
   688
 72
     0
 73
     0
 74
     5
  7

 75
    16
147
1.0
 76
     0
 77
     2
 78
   300
148
0.0
149
0.0
100
AcDbLayout
  1
Layout1
 70
     1
 71
     1
 10
0.0
 20
0.0
 11
12.0
 21
9.0
 12
0.0
 22
0.0
 32
0.0
 14
1.000000000000000E+20
 24
1.000000000000000E+20
 34
1.000000000000000E+20
 15
-1.000000000000000E+20
 25
-1.000000000000000E+20
 35
-1.000000000000000E+20
146
0.0
 13
0.0
 23
0.0
 33
0.0
 16
1.0
 26
0.0
 36
0.0
 17
0.0
 27
1.0
 37
0.0
 76
     0
330
4B68
  0
LAYOUT
  5
4B6F
102
{ACAD_REACTORS
330
4B64
102
}
330
4B64
100
AcDbPlotSettings
  1

  2
HP LaserJet 1020
  4

  6

 40
0.0
 41
0.0
 42
0.0
 43
0.0
 44
0.0
 45
0.0
 46
0.0
 47
0.0
 48
0.0
 49
0.0
140
0.0
141
0.0
142
1.0
143
1.0
 70
  1712
 72
     0
 73
     0
 74
     0
  7

 75
     0
147
1.0
 76
     0
 77
     2
 78
   300
148
0.0
149
0.0
100
AcDbLayout
  1
Model
 70
     1
 71
     0
 10
0.0
 20
0.0
 11
12.0
 21
9.0
 12
0.0
 22
0.0
 32
0.0
 14
0.0
 24
0.0
 34
0.0
 15
0.0
 25
0.0
 35
0.0
146
0.0
 13
0.0
 23
0.0
 33
0.0
 16
1.0
 26
0.0
 36
0.0
 17
0.0
 27
1.0
 37
0.0
 76
     0
330
4B6C
331
4B70
  0
MATERIAL
  5
4B48
102
{ACAD_REACTORS
330
4B46
102
}
330
4B46
100
AcDbMaterial
  1
ByBlock
  0
MATERIAL
  5
4B47
102
{ACAD_REACTORS
330
4B46
102
}
330
4B46
100
AcDbMaterial
  1
ByLayer
  0
MATERIAL
  5
4B49
102
{ACAD_REACTORS
330
4B46
102
}
330
4B46
100
AcDbMaterial
  1
Global
  0
MLINESTYLE
  5
4B62
102
{ACAD_REACTORS
330
4B61
102
}
330
4B61
100
AcDbMlineStyle
  2
STANDARD
 70
     0
  3

 62
   256
 51
90.0
 52
90.0
 71
     2
 49
0.5
 62
   256
  6
BYLAYER
 49
-0.5
 62
   256
  6
BYLAYER
  0
ACDBPLACEHOLDER
  5
4B45
102
{ACAD_REACTORS
330
4B44
102
}
330
4B44
  0
TABLESTYLE
  5
4B67
102
{ACAD_REACTORS
330
4B66
102
}
330
4B66
100
AcDbTableStyle
  3
Standard
 70
     0
 71
     0
 40
0.06
 41
0.06
280
     0
281
     0
  7
STANDARD
140
0.18
170
     2
 62
     0
 63
     7
283
     0
 90
      512
 91
        0
  1

274
    -2
284
     1
 64
     0
275
    -2
285
     1
 65
     0
276
    -2
286
     1
 66
     0
277
    -2
287
     1
 67
     0
278
    -2
288
     1
 68
     0
279
    -2
289
     1
 69
     0
  7
STANDARD
140
0.25
170
     5
 62
     0
 63
     7
283
     0
 90
      512
 91
        0
  1

274
    -2
284
     1
 64
     0
275
    -2
285
     1
 65
     0
276
    -2
286
     1
 66
     0
277
    -2
287
     1
 67
     0
278
    -2
288
     1
 68
     0
279
    -2
289
     1
 69
     0
  7
STANDARD
140
0.18
170
     5
 62
     0
 63
     7
283
     0
 90
      512
 91
        0
  1

274
    -2
284
     1
 64
     0
275
    -2
285
     1
 65
     0
276
    -2
286
     1
 66
     0
277
    -2
287
     1
 67
     0
278
    -2
288
     1
 68
     0
279
    -2
289
     1
 69
     0
  0
VISUALSTYLE
  5
4B50
102
{ACAD_REACTORS
330
4B4A
102
}
330
4B4A
100
AcDbVisualStyle
  2
2dWireframe
 70
     4
 71
     0
 72
     2
 73
     0
 90
        0
 40
-0.6
 41
-30.0
 62
     5
 63
     7
421
 16777215
 74
     1
 91
        4
 64
     7
 65
   257
 75
     1
175
     1
 42
1.0
 92
        0
 66
   257
 43
1.0
 76
     1
 77
     6
 78
     2
 67
     7
 79
     5
170
     0
171
     0
290
     0
174
     0
 93
        1
 44
0.0
173
     0
291
     0
 45
0.0
  0
VISUALSTYLE
  5
4B52
102
{ACAD_REACTORS
330
4B4A
102
}
330
4B4A
100
AcDbVisualStyle
  2
3D Hidden
 70
     6
 71
     1
 72
     2
 73
     2
 90
        0
 40
-0.6
 41
-30.0
 62
     5
 63
     7
421
 16777215
 74
     2
 91
        2
 64
     7
 65
   257
 75
     2
175
     1
 42
40.0
 92
        0
 66
   257
 43
1.0
 76
     1
 77
     6
 78
     2
 67
     7
 79
     3
170
     0
171
     0
290
     0
174
     0
 93
        1
 44
0.0
173
     0
291
     0
 45
0.0
  0
VISUALSTYLE
  5
4B51
102
{ACAD_REACTORS
330
4B4A
102
}
330
4B4A
100
AcDbVisualStyle
  2
3dWireframe
 70
     5
 71
     0
 72
     2
 73
     0
 90
        0
 40
-0.6
 41
-30.0
 62
     5
 63
     7
421
 16777215
 74
     1
 91
        4
 64
     7
 65
   257
 75
     1
175
     1
 42
1.0
 92
        0
 66
   257
 43
1.0
 76
     1
 77
     6
 78
     2
 67
     7
 79
     5
170
     0
171
     0
290
     0
174
     0
 93
        1
 44
0.0
173
     0
291
     0
 45
0.0
  0
VISUALSTYLE
  5
4B4F
102
{ACAD_REACTORS
330
4B4A
102
}
330
4B4A
100
AcDbVisualStyle
  2
Basic
 70
     7
 71
     1
 72
     0
 73
     1
 90
        0
 40
-0.6
 41
-30.0
 62
     5
 63
     7
421
 16777215
 74
     0
 91
        4
 64
     7
 65
   257
 75
     1
175
     1
 42
1.0
 92
        8
 66
     7
 43
1.0
 76
     1
 77
     6
 78
     2
 67
     7
 79
     5
170
     0
171
     0
290
     0
174
     0
 93
        1
 44
0.0
173
     0
291
     1
 45
0.0
  0
VISUALSTYLE
  5
4B56
102
{ACAD_REACTORS
330
4B4A
102
}
330
4B4A
100
AcDbVisualStyle
  2
Brighten
 70
    12
 71
     2
 72
     2
 73
     0
 90
        0
 40
-0.6
 41
-30.0
 62
     5
 63
     7
421
 16777215
 74
     1
 91
        4
 64
     7
 65
   257
 75
     1
175
     1
 42
1.0
 92
        8
 66
     7
 43
1.0
 76
     1
 77
     6
 78
     2
 67
     7
 79
     5
170
     0
171
     0
290
     0
174
     0
 93
        1
 44
50.0
173
     0
291
     1
 45
0.0
  0
VISUALSTYLE
  5
4B5A
102
{ACAD_REACTORS
330
4B4A
102
}
330
4B4A
100
AcDbVisualStyle
  2
ColorChange
 70
    16
 71
     2
 72
     2
 73
     3
 90
        0
 40
-0.6
 41
-30.0
 62
     5
 63
     8
421
  8421504
 74
     1
 91
        4
 64
     7
 65
   257
 75
     1
175
     1
 42
1.0
 92
        8
 66
     8
424
  8421504
 43
1.0
 76
     1
 77
     6
 78
     2
 67
     7
 79
     5
170
     0
171
     0
290
     0
174
     0
 93
        1
 44
0.0
173
     0
291
     1
 45
0.0
  0
VISUALSTYLE
  5
4B53
102
{ACAD_REACTORS
330
4B4A
102
}
330
4B4A
100
AcDbVisualStyle
  2
Conceptual
 70
     9
 71
     3
 72
     2
 73
     0
 90
        0
 40
-0.6
 41
-30.0
 62
     5
 63
     7
421
 16777215
 74
     2
 91
        2
 64
     7
 65
   257
 75
     1
175
     1
 42
40.0
 92
        8
 66
     7
 43
1.0
 76
     1
 77
     6
 78
     2
 67
     7
 79
     3
170
     0
171
     0
290
     0
174
     0
 93
        1
 44
0.0
173
     0
291
     0
 45
0.0
  0
VISUALSTYLE
  5
4B55
102
{ACAD_REACTORS
330
4B4A
102
}
330
4B4A
100
AcDbVisualStyle
  2
Dim
 70
    11
 71
     2
 72
     2
 73
     0
 90
        0
 40
-0.6
 41
-30.0
 62
     5
 63
     7
421
 16777215
 74
     1
 91
        4
 64
     7
 65
   257
 75
     1
175
     1
 42
1.0
 92
        8
 66
     7
 43
1.0
 76
     1
 77
     6
 78
     2
 67
     7
 79
     5
170
     0
171
     0
290
     0
174
     0
 93
        1
 44
-50.0
173
     0
291
     1
 45
0.0
  0
VISUALSTYLE
  5
4B59
102
{ACAD_REACTORS
330
4B4A
102
}
330
4B4A
100
AcDbVisualStyle
  2
Facepattern
 70
    15
 71
     2
 72
     2
 73
     0
 90
        0
 40
-0.6
 41
-30.0
 62
     5
 63
     7
421
 16777215
 74
     1
 91
        4
 64
     7
 65
   257
 75
     1
175
     1
 42
1.0
 92
        8
 66
     7
 43
1.0
 76
     1
 77
     6
 78
     2
 67
     7
 79
     5
170
     0
171
     0
290
     0
174
     0
 93
        1
 44
0.0
173
     0
291
     1
 45
0.0
  0
VISUALSTYLE
  5
4B4B
102
{ACAD_REACTORS
330
4B4A
102
}
330
4B4A
100
AcDbVisualStyle
  2
Flat
 70
     0
 71
     2
 72
     1
 73
     1
 90
        2
 40
-0.6
 41
30.0
 62
     5
 63
     7
421
 16777215
 74
     0
 91
        4
 64
     7
 65
   257
 75
     1
175
     1
 42
1.0
 92
        8
 66
     7
 43
1.0
 76
     1
 77
     6
 78
     2
 67
     7
 79
     5
170
     0
171
     0
290
     0
174
     0
 93
       13
 44
0.0
173
     0
291
     1
 45
0.0
  0
VISUALSTYLE
  5
4B4C
102
{ACAD_REACTORS
330
4B4A
102
}
330
4B4A
100
AcDbVisualStyle
  2
FlatWithEdges
 70
     1
 71
     2
 72
     1
 73
     1
 90
        2
 40
-0.6
 41
30.0
 62
     5
 63
     7
421
 16777215
 74
     1
 91
        4
 64
     7
 65
   257
 75
     1
175
     1
 42
1.0
 92
        0
 66
   257
 43
1.0
 76
     1
 77
     6
 78
     2
 67
     7
 79
     5
170
     0
171
     0
290
     0
174
     0
 93
       13
 44
0.0
173
     0
291
     1
 45
0.0
  0
VISUALSTYLE
  5
4B4D
102
{ACAD_REACTORS
330
4B4A
102
}
330
4B4A
100
AcDbVisualStyle
  2
Gouraud
 70
     2
 71
     2
 72
     2
 73
     1
 90
        2
 40
-0.6
 41
30.0
 62
     5
 63
     7
421
 16777215
 74
     0
 91
        4
 64
     7
 65
   257
 75
     1
175
     1
 42
1.0
 92
        0
 66
     7
 43
1.0
 76
     1
 77
     6
 78
     2
 67
     7
 79
     5
170
     0
171
     0
290
     0
174
     0
 93
       13
 44
0.0
173
     0
291
     1
 45
0.0
  0
VISUALSTYLE
  5
4B4E
102
{ACAD_REACTORS
330
4B4A
102
}
330
4B4A
100
AcDbVisualStyle
  2
GouraudWithEdges
 70
     3
 71
     2
 72
     2
 73
     1
 90
        2
 40
-0.6
 41
30.0
 62
     5
 63
     7
421
 16777215
 74
     1
 91
        4
 64
     7
 65
   257
 75
     1
175
     1
 42
1.0
 92
        0
 66
   257
 43
1.0
 76
     1
 77
     6
 78
     2
 67
     7
 79
     5
170
     0
171
     0
290
     0
174
     0
 93
       13
 44
0.0
173
     0
291
     1
 45
0.0
  0
VISUALSTYLE
  5
4B58
102
{ACAD_REACTORS
330
4B4A
102
}
330
4B4A
100
AcDbVisualStyle
  2
Linepattern
 70
    14
 71
     2
 72
     2
 73
     0
 90
        0
 40
-0.6
 41
-30.0
 62
     5
 63
     7
421
 16777215
 74
     1
 91
        4
 64
     7
 65
   257
 75
     7
175
     7
 42
1.0
 92
        8
 66
     7
 43
1.0
 76
     1
 77
     6
 78
     2
 67
     7
 79
     5
170
     0
171
     0
290
     0
174
     0
 93
        1
 44
0.0
173
     0
291
     1
 45
0.0
  0
VISUALSTYLE
  5
4B54
102
{ACAD_REACTORS
330
4B4A
102
}
330
4B4A
100
AcDbVisualStyle
  2
Realistic
 70
     8
 71
     2
 72
     2
 73
     0
 90
        0
 40
-0.6
 41
-30.0
 62
     5
 63
     7
421
 16777215
 74
     1
 91
        0
 64
     7
 65
   257
 75
     1
175
     1
 42
1.0
 92
        8
 66
     8
424
  7895160
 43
1.0
 76
     1
 77
     6
 78
     2
 67
     7
 79
     5
170
     0
171
     0
290
     0
174
     0
 93
       13
 44
0.0
173
     0
291
     0
 45
0.0
  0
VISUALSTYLE
  5
4B57
102
{ACAD_REACTORS
330
4B4A
102
}
330
4B4A
100
AcDbVisualStyle
  2
Thicken
 70
    13
 71
     2
 72
     2
 73
     0
 90
        0
 40
-0.6
 41
-30.0
 62
     5
 63
     7
421
 16777215
 74
     1
 91
        4
 64
     7
 65
   257
 75
     1
175
     1
 42
1.0
 92
       12
 66
     7
 43
1.0
 76
     1
 77
     6
 78
     2
 67
     7
 79
     5
170
     0
171
     0
290
     0
174
     0
 93
        1
 44
0.0
173
     0
291
     1
 45
0.0
  0
DICTIONARYVAR
  5
4B82
102
{ACAD_REACTORS
330
4B81
102
}
330
4B81
100
DictionaryVariables
280
     0
  1
STANDARD
  0
ENDSEC
  0
EOF
