  0
SECTION
  2
HEADER
  0
ENDSEC
  0
SECTION
  2
TABLES
  0
TABLE
  2
LTYPE
 70
5
  0
LTYPE
  2
CONTINUOUS
 70
0
  3
CONTINUOUS
 72
65
 73
0
 40
0.0
  0
LTYPE
  2
DASHED
 70
0
  3
DASHED
 72
65
 73
2
 40
0.75
 49
0.5
 49
-0.25
  0
LTYPE
  2
DOT
 70
0
  3
DOT
 72
65
 73
2
 40
0.25
 49
0.0
 49
-0.25
  0
LTYPE
  2
CENTRE
 70
0
  3
CENTRE
 72
65
 73
4
 40
2.0
 49
1.25
 49
-0.25
 49
0.25
 49
-0.25
  0
LTYPE
  2
DASHDOT
 70
0
  3
DASHDOT
 72
65
 73
4
 40
1.0
 49
0.5
 49
-0.25
 49
0.0
 49
-0.25
  0
ENDTAB
  0
TABLE
  2
LAYER
 70
18
  0
LAYER
  2
0
 70
0
 62
7
  6
CONTINUOUS
  0
LAYER
  2
BLACK
 70
0
 62
250
  6
CONTINUOUS
  0
LAYER
  2
DARK_BLUE
 70
0
 62
172
  6
CONTINUOUS
  0
LAYER
  2
DARK_GREEN
 70
0
 62
92
  6
CONTINUOUS
  0
LAYER
  2
DARK_CYAN
 70
0
 62
132
  6
CONTINUOUS
  0
LAYER
  2
DARK_RED
 70
0
 62
12
  6
CONTINUOUS
  0
LAYER
  2
DARK_MAGENTA
 70
0
 62
212
  6
CONTINUOUS
  0
LAYER
  2
BROWN
 70
0
 62
32
  6
CONTINUOUS
  0
LAYER
  2
LIGHT_GREY
 70
0
 62
9
  6
CONTINUOUS
  0
LAYER
  2
DARK_GREY
 70
0
 62
8
  6
CONTINUOUS
  0
LAYER
  2
BLUE
 70
0
 62
5
  6
CONTINUOUS
  0
LAYER
  2
GREEN
 70
0
 62
3
  6
CONTINUOUS
  0
LAYER
  2
CYAN
 70
0
 62
4
  6
CONTINUOUS
  0
LAYER
  2
RED
 70
0
 62
1
  6
CONTINUOUS
  0
LAYER
  2
MAGENTA
 70
0
 62
6
  6
CONTINUOUS
  0
LAYER
  2
YELLOW
 70
0
 62
2
  6
CONTINUOUS
  0
LAYER
  2
WHITE
 70
0
 62
7
  6
CONTINUOUS
  0
LAYER
  2
SHEET
 70
0
 62
3
  6
CONTINUOUS
  0
ENDTAB
  0
ENDSEC
  0
SECTION
  2
BLOCKS
  0
ENDSEC
  0
SECTION
  2
ENTITIES
  0
ARC
  8
CYAN
 10
37.0851226713
 20
31.9131205867
 40
50.1240710691
 50
47.0767545137
 51
51.0411351635
  0
LINE
  8
CYAN
 10
71.2205179596
 20
68.6173068474
 11
72.3803659596
 21
67.3447848474
  0
LINE
  8
CYAN
 10
72.3803659596
 20
67.3447848474
 11
73.2331639596
 21
65.9910948474
  0
LINE
  8
CYAN
 10
73.2331639596
 20
65.9910948474
 11
67.5652879596
 21
33.0972288474
  0
ARC
  8
CYAN
 10
66.9261311054
 20
33.2889779375
 40
0.667299931
 50
289.3439124126
 51
343.3005885037
  0
ARC
  8
CYAN
 10
66.7008520589
 20
33.6323231723
 40
1.0704555735
 50
272.252678948
 51
294.641438354
  0
LINE
  8
CYAN
 10
66.7429279596
 20
32.5626948474
 11
66.3301459596
 21
32.5717728474
  0
ARC
  8
CYAN
 10
66.3738992029
 20
34.5742816167
 40
2.0029866993
 50
242.9304304958
 51
268.7483313837
  0
ARC
  8
CYAN
 10
68.6532806096
 20
39.8861584575
 40
7.7799160185
 50
238.5687481669
 51
245.7861289199
  0
LINE
  8
CYAN
 10
64.5962479596
 20
33.2478168474
 11
63.3007639596
 21
34.1182368474
  0
LINE
  8
CYAN
 10
63.3007639596
 20
34.1182368474
 11
61.9294519596
 21
35.2097328474
  0
LINE
  8
CYAN
 10
61.9294519596
 20
35.2097328474
 11
60.6660079596
 21
36.3434148474
  0
ARC
  8
CYAN
 10
93.5029462466
 20
68.6385256881
 40
46.056907194
 50
221.039949898
 51
224.5233727449
  0
ARC
  8
CYAN
 10
112.1365822952
 20
80.0390860054
 40
67.6945027587
 50
216.5175269874
 51
217.9612806985
  0
LINE
  8
CYAN
 10
57.7322119596
 20
39.7562088474
 11
56.8810159596
 21
41.0762568474
  0
ARC
  8
CYAN
 10
98.1575395461
 20
65.13850898
 40
47.7780637645
 50
206.2299598165
 51
210.2401536504
  0
ARC
  8
CYAN
 10
50.5592301192
 20
42.505646253
 40
4.9766517546
 50
17.7373215057
 51
27.0845106203
  0
ARC
  8
CYAN
 10
43.1885649959
 20
40.3780330736
 40
12.5928401156
 50
20.4193782839
 51
24.5672993221
  0
ARC
  8
CYAN
 10
31.4567793345
 20
37.2604099355
 40
24.643544012
 50
19.8136954165
 51
23.2510307023
  0
ARC
  8
CYAN
 10
33.3311977206
 20
40.5673586435
 40
21.7377585438
 50
17.1815586832
 51
20.5269847673
  0
LINE
  8
CYAN
 10
53.6887639596
 20
48.1896708474
 11
53.1430159596
 21
50.0736228474
  0
LINE
  8
CYAN
 10
53.1430159596
 20
50.0736228474
 11
52.5476059596
 21
53.1473268474
  0
LINE
  8
CYAN
 10
52.5476059596
 20
53.1473268474
 11
52.3494919596
 21
54.3424188474
  0
ARC
  8
CYAN
 10
-32.9887916341
 20
33.6799236885
 40
87.8041078362
 50
13.6107768035
 51
16.085764536
  0
LINE
  8
CYAN
 10
51.3776119596
 20
58.0083288474
 11
50.6866159596
 21
59.4837708474
  0
LINE
  8
CYAN
 10
50.6866159596
 20
59.4837708474
 11
49.8717319596
 21
60.8321208474
  0
LINE
  8
CYAN
 10
49.8717319596
 20
60.8321208474
 11
48.8800939596
 21
62.0960988474
  0
LINE
  8
CYAN
 10
48.8800939596
 20
62.0960988474
 11
47.6583019596
 21
63.3178908474
  0
ARC
  8
CYAN
 10
36.7213340651
 20
50.1691604862
 40
17.1028178039
 50
50.2466920861
 51
55.0483560947
  0
LINE
  8
CYAN
 10
46.5192799596
 20
64.1872428474
 11
45.9073159596
 21
64.4414268474
  0
LINE
  8
CYAN
 10
45.9073159596
 20
64.4414268474
 11
45.7636699596
 21
63.8978148474
  0
ARC
  8
CYAN
 10
67.4623651213
 20
61.0721933643
 40
21.8818991061
 50
172.5806474575
 51
175.8570317423
  0
LINE
  8
CYAN
 10
45.6376459596
 20
62.6530608474
 11
45.3455479596
 21
61.1365008474
  0
LINE
  8
CYAN
 10
45.3455479596
 20
61.1365008474
 11
44.9931079596
 21
59.8714548474
  0
LINE
  8
CYAN
 10
44.9931079596
 20
59.8714548474
 11
44.5333339596
 21
58.7906388474
  0
LINE
  8
CYAN
 10
44.5333339596
 20
58.7906388474
 11
43.9518079596
 21
57.8668188474
  0
LINE
  8
CYAN
 10
43.9518079596
 20
57.8668188474
 11
43.2330439596
 21
57.0722268474
  0
LINE
  8
CYAN
 10
43.2330439596
 20
57.0722268474
 11
42.3615559596
 21
56.3806968474
  0
LINE
  8
CYAN
 10
42.3615559596
 20
56.3806968474
 11
41.3223919596
 21
55.7644608474
  0
LINE
  8
CYAN
 10
41.3223919596
 20
55.7644608474
 11
40.1011339596
 21
55.1957508474
  0
LINE
  8
CYAN
 10
40.1011339596
 20
55.1957508474
 11
38.6817619596
 21
54.6478668474
  0
LINE
  8
CYAN
 10
38.6817619596
 20
54.6478668474
 11
37.3601119596
 21
53.9210928474
  0
LINE
  8
CYAN
 10
37.3601119596
 20
53.9210928474
 11
36.2253619596
 21
53.0576148474
  0
LINE
  8
CYAN
 10
36.2253619596
 20
53.0576148474
 11
35.2614919596
 21
52.0686468474
  0
LINE
  8
CYAN
 10
35.2614919596
 20
52.0686468474
 11
34.4524819596
 21
50.9659368474
  0
LINE
  8
CYAN
 10
34.4524819596
 20
50.9659368474
 11
33.7833799596
 21
49.7617668474
  0
LINE
  8
CYAN
 10
33.7833799596
 20
49.7617668474
 11
33.2381659596
 21
48.4678848474
  0
LINE
  8
CYAN
 10
33.2381659596
 20
48.4678848474
 11
31.9255939596
 21
44.3891928474
  0
ARC
  8
CYAN
 10
31.2904655275
 20
44.594173897
 40
0.6673869611
 50
238.5210577347
 51
342.113058529
  0
LINE
  8
CYAN
 10
30.9419659596
 20
44.0250048474
 11
29.7132319596
 21
44.7779448474
  0
LINE
  8
CYAN
 10
29.7132319596
 20
44.7779448474
 11
28.7461579596
 21
45.7759908474
  0
LINE
  8
CYAN
 10
28.7461579596
 20
45.7759908474
 11
28.4722159596
 21
46.1946468474
  0
LINE
  8
CYAN
 10
28.4722159596
 20
46.1946468474
 11
28.0535599596
 21
47.0015208474
  0
LINE
  8
CYAN
 10
28.0535599596
 20
47.0015208474
 11
27.9809359596
 21
47.6182908474
  0
ARC
  8
CYAN
 10
278.0675024907
 20
53.9931006732
 40
250.1678016046
 50
180.4288972309
 51
181.460176873
  0
LINE
  8
CYAN
 10
27.9067099596
 20
52.1204448474
 11
28.0466179596
 21
54.2345508474
  0
LINE
  8
CYAN
 10
28.0466179596
 20
54.2345508474
 11
28.1272519596
 21
57.1560648474
  0
LINE
  8
CYAN
 10
28.1272519596
 20
57.1560648474
 11
28.2137599596
 21
57.7589508474
  0
ARC
  8
CYAN
 10
42.0844784991
 20
57.7351545139
 40
13.8707389517
 50
175.8217010813
 51
179.9017045776
  0
LINE
  8
CYAN
 10
28.2506059596
 20
58.7457828474
 11
28.3814359596
 21
59.9211168474
  0
LINE
  8
CYAN
 10
28.3814359596
 20
59.9211168474
 11
27.3177079596
 21
60.6030348474
  0
ARC
  8
CYAN
 10
28.3291489505
 20
62.2235931698
 40
1.9102937351
 50
159.6975479271
 51
238.0304270959
  0
ARC
  8
CYAN
 10
44.4530578536
 20
56.9909160474
 40
18.8606190159
 50
155.9191290244
 51
161.7850562134
  0
ARC
  8
CYAN
 10
96.4310335217
 20
29.2661102539
 40
77.7357947264
 50
151.4036142884
 51
152.8931466282
  0
LINE
  8
CYAN
 10
28.1779819596
 20
66.4732968474
 11
28.3008019596
 21
67.2283728474
  0
ARC
  8
CYAN
 10
74.7627219157
 20
57.886784441
 40
47.3917216396
 50
163.7969361809
 51
168.6317354241
  0
LINE
  8
CYAN
 10
29.2534579596
 20
71.1110868474
 11
30.0192139596
 21
73.0495068474
  0
LINE
  8
CYAN
 10
30.0192139596
 20
73.0495068474
 11
30.7091419596
 21
74.1863928474
  0
LINE
  8
CYAN
 10
30.7091419596
 20
74.1863928474
 11
33.2023879596
 21
68.8506648474
  0
LINE
  8
CYAN
 10
33.2023879596
 20
68.8506648474
 11
35.0163859596
 21
69.6981228474
  0
LINE
  8
CYAN
 10
35.0163859596
 20
69.6981228474
 11
32.3949799596
 21
75.3093948474
  0
LINE
  8
CYAN
 10
32.3949799596
 20
75.3093948474
 11
33.8277019596
 21
76.0618008474
  0
LINE
  8
CYAN
 10
33.8277019596
 20
76.0618008474
 11
35.9738479596
 21
77.0480988474
  0
LINE
  8
CYAN
 10
35.9738479596
 20
77.0480988474
 11
38.7741439596
 21
78.0893988474
  0
LINE
  8
CYAN
 10
38.7741439596
 20
78.0893988474
 11
40.1379799596
 21
78.4898988474
  0
ARC
  8
CYAN
 10
54.4530364552
 20
19.8118312481
 40
60.3989773064
 50
99.6537225891
 51
103.7100324295
  0
LINE
  8
CYAN
 10
44.3245399596
 20
79.3555128474
 11
47.5712599596
 21
79.5338688474
  0
ARC
  8
CYAN
 10
47.7238968122
 20
79.7987280682
 40
0.3056933359
 50
240.0453987596
 51
298.7290697959
  0
ARC
  8
CYAN
 10
44.5781852172
 20
34.1912676292
 40
45.4587997625
 50
80.507712544
 51
85.8463438246
  0
LINE
  8
CYAN
 10
52.0750159596
 20
79.0276368474
 11
53.4735619596
 21
78.7456848474
  0
LINE
  8
CYAN
 10
53.4735619596
 20
78.7456848474
 11
54.8272519596
 21
78.3895068474
  0
ARC
  8
CYAN
 10
69.1158118502
 20
118.1720414984
 40
42.270710983
 50
250.243403955
 51
253.8873782897
  0
ARC
  8
CYAN
 10
47.8583901703
 20
50.3373742931
 40
28.8429884322
 50
65.513474267
 51
70.7143854165
  0
ARC
  8
CYAN
 10
44.6344481686
 20
44.3623470889
 40
35.6198089156
 50
58.3850566206
 51
64.7776256104
  0
ARC
  8
CYAN
 10
34.6453171619
 20
29.004456683
 40
53.936748142
 50
51.0041697761
 51
57.9007405357
  0
LINE
  8
CYAN
 10
68.5857619596
 20
70.9236528474
 11
68.6012479596
 21
70.8894768474
  0
LINE
  8
CYAN
 10
49.0952959596
 20
73.1664528474
 11
64.5674119596
 21
59.9360688474
  0
LINE
  8
CYAN
 10
64.5674119596
 20
59.9360688474
 11
65.8687699596
 21
61.4579688474
  0
LINE
  8
CYAN
 10
65.8687699596
 20
61.4579688474
 11
50.3966539596
 21
74.6883528474
  0
LINE
  8
CYAN
 10
50.3966539596
 20
74.6883528474
 11
49.0952959596
 21
73.1664528474
  0
LINE
  8
CYAN
 10
136.1463739596
 20
78.0744468474
 11
138.2983939596
 21
73.1872788474
  0
ARC
  8
CYAN
 10
137.687442846
 20
72.918535016
 40
0.6674462601
 50
293.7855817542
 51
23.7436282949
  0
LINE
  8
CYAN
 10
137.9566339596
 20
72.3077808474
 11
136.7348419596
 21
71.7695088474
  0
ARC
  8
CYAN
 10
87.2149475578
 20
57.0700317066
 40
51.6555376487
 50
13.141600285
 51
16.5329860734
  0
LINE
  8
CYAN
 10
137.5176859596
 20
68.8143528474
 11
137.6810899596
 21
67.4494488474
  0
LINE
  8
CYAN
 10
137.6810899596
 20
67.4494488474
 11
137.4391879596
 21
63.3883788474
  0
LINE
  8
CYAN
 10
137.4391879596
 20
63.3883788474
 11
138.7159819596
 21
62.9996268474
  0
ARC
  8
CYAN
 10
138.5216059596
 20
62.3609628474
 40
0.6675879974
 50
343.0724869359
 51
73.0724869359
  0
LINE
  8
CYAN
 10
139.1602699596
 20
62.1665868474
 11
137.6047279596
 21
57.0588768474
  0
ARC
  8
CYAN
 10
136.9660639596
 20
57.2532528474
 40
0.6675879974
 50
253.0724869359
 51
343.0724869359
  0
LINE
  8
CYAN
 10
136.7716879596
 20
56.6145888474
 11
135.4943599596
 21
57.0033408474
  0
LINE
  8
CYAN
 10
135.4943599596
 20
57.0033408474
 11
135.0164299596
 21
55.9497588474
  0
LINE
  8
CYAN
 10
135.0164299596
 20
55.9497588474
 11
134.7814699596
 21
54.9671988474
  0
LINE
  8
CYAN
 10
134.7814699596
 20
54.9671988474
 11
134.7280699596
 21
54.6425268474
  0
ARC
  8
CYAN
 10
136.7033553519
 20
54.3150425508
 40
2.0022483226
 50
170.5865076022
 51
204.9345014155
  0
LINE
  8
CYAN
 10
134.8877359596
 20
53.4709308474
 11
135.2065339596
 21
52.7852748474
  0
LINE
  8
CYAN
 10
135.2065339596
 20
52.7852748474
 11
135.9530659596
 21
51.4951308474
  0
LINE
  8
CYAN
 10
135.9530659596
 20
51.4951308474
 11
136.4101699596
 21
50.3267388474
  0
LINE
  8
CYAN
 10
136.4101699596
 20
50.3267388474
 11
136.8982459596
 21
49.3441788474
  0
LINE
  8
CYAN
 10
136.8982459596
 20
49.3441788474
 11
137.4845779596
 21
47.7870348474
  0
ARC
  8
CYAN
 10
5.5401289279
 20
2.897667962
 40
139.3714206344
 50
16.5203442567
 51
18.7890303154
  0
ARC
  8
CYAN
 10
176.8093340829
 20
46.6567927803
 40
37.8768229464
 50
186.2568852565
 51
189.0527431409
  0
LINE
  8
CYAN
 10
139.4043079596
 20
40.6971168474
 11
139.4139199596
 21
40.3361328474
  0
ARC
  8
CYAN
 10
137.4119487226
 20
40.2837764316
 40
2.0026557438
 50
334.2897209527
 51
1.4980824789
  0
LINE
  8
CYAN
 10
139.2163399596
 20
39.4149828474
 11
138.7576339596
 21
38.6406828474
  0
ARC
  8
CYAN
 10
140.5728346035
 20
37.7963656828
 40
2.0019552572
 50
155.0551139369
 51
173.0272137647
  0
LINE
  8
CYAN
 10
138.5856859596
 20
38.0393988474
 11
138.4575259596
 21
36.9943608474
  0
LINE
  8
CYAN
 10
138.4575259596
 20
36.9943608474
 11
138.2028079596
 21
35.6780508474
  0
LINE
  8
CYAN
 10
138.2028079596
 20
35.6780508474
 11
137.8546399596
 21
34.4114028474
  0
LINE
  8
CYAN
 10
137.8546399596
 20
34.4114028474
 11
137.4071479596
 21
33.2018928474
  0
LINE
  8
CYAN
 10
137.4071479596
 20
33.2018928474
 11
136.8544579596
 21
32.0559288474
  0
LINE
  8
CYAN
 10
136.8544579596
 20
32.0559288474
 11
136.1912299596
 21
30.9804528474
  0
LINE
  8
CYAN
 10
136.1912299596
 20
30.9804528474
 11
135.4115899596
 21
29.9834748474
  0
LINE
  8
CYAN
 10
135.4115899596
 20
29.9834748474
 11
134.5096639596
 21
29.0708688474
  0
LINE
  8
CYAN
 10
134.5096639596
 20
29.0708688474
 11
133.4806459596
 21
28.2501108474
  0
LINE
  8
CYAN
 10
133.4806459596
 20
28.2501108474
 11
133.0828159596
 21
28.0007328474
  0
LINE
  8
CYAN
 10
133.0828159596
 20
28.0007328474
 11
132.4954159596
 21
27.5105208474
  0
ARC
  8
CYAN
 10
138.4563219565
 20
18.8042001827
 40
10.5514179057
 50
124.3980457071
 51
131.0904964387
  0
LINE
  8
CYAN
 10
131.5213999596
 20
26.7565128474
 11
130.1062999596
 21
25.9426968474
  0
ARC
  8
CYAN
 10
85.3155287987
 20
109.678725522
 40
94.9628120865
 50
294.6132513783
 51
298.1425230005
  0
LINE
  8
CYAN
 10
124.8666919596
 20
23.3442528474
 11
122.8492399596
 21
22.5437868474
  0
ARC
  8
CYAN
 10
156.0207387163
 20
-80.2132450193
 40
107.9784975253
 50
107.890851446
 51
113.5504006348
  0
LINE
  8
CYAN
 10
112.8773239596
 20
18.7716108474
 11
112.0832659596
 21
18.4966008474
  0
LINE
  8
CYAN
 10
112.0832659596
 20
18.4966008474
 11
110.9896339596
 21
17.9172108474
  0
LINE
  8
CYAN
 10
110.9896339596
 20
17.9172108474
 11
109.0325239596
 21
16.7648388474
  0
LINE
  8
CYAN
 10
109.0325239596
 20
16.7648388474
 11
107.8027219596
 21
15.8495628474
  0
LINE
  8
CYAN
 10
107.8027219596
 20
15.8495628474
 11
106.7571499596
 21
14.8184088474
  0
LINE
  8
CYAN
 10
106.7571499596
 20
14.8184088474
 11
105.9048859596
 21
13.6457448474
  0
LINE
  8
CYAN
 10
105.9048859596
 20
13.6457448474
 11
105.5177359596
 21
12.8468808474
  0
ARC
  8
CYAN
 10
103.6727589979
 20
13.7548621463
 40
2.0563000822
 50
272.411324007
 51
333.7964977461
  0
LINE
  8
CYAN
 10
103.7592739596
 20
11.7003828474
 11
103.2717319596
 21
11.6827608474
  0
LINE
  8
CYAN
 10
103.2717319596
 20
11.6827608474
 11
102.7217119596
 21
11.7340248474
  0
ARC
  8
CYAN
 10
102.5362114562
 20
9.7411610442
 40
2.0014785971
 50
84.6820959126
 51
103.6674438712
  0
ARC
  8
CYAN
 10
102.4894417046
 20
10.4214694241
 40
1.334374005
 50
108.6244995327
 51
151.4052106883
  0
LINE
  8
CYAN
 10
101.3178259596
 20
11.0601168474
 11
101.2035499596
 21
10.8507888474
  0
ARC
  8
CYAN
 10
102.3750898538
 20
10.2114050916
 40
1.3346599982
 50
151.3758977127
 51
175.011183757
  0
LINE
  8
CYAN
 10
101.0454859596
 20
10.3274688474
 11
100.8083899596
 21
8.2507428474
  0
ARC
  8
CYAN
 10
98.4870906214
 20
8.694013274
 40
2.3632433833
 50
332.7390657249
 51
349.1890713516
  0
ARC
  8
CYAN
 10
99.3631003416
 20
8.1430635871
 40
1.3351100698
 50
277.9207111596
 51
336.5400117922
  0
ARC
  8
CYAN
 10
99.5581853799
 20
7.8689693817
 40
1.0483373366
 50
234.0409151907
 51
269.3931428406
  0
LINE
  8
CYAN
 10
98.9425939596
 20
7.0204068474
 11
97.8233299596
 21
7.7300928474
  0
ARC
  8
CYAN
 10
98.9159854533
 20
9.4085800912
 40
2.0028019012
 50
226.4483273702
 51
236.9368244777
  0
LINE
  8
CYAN
 10
97.5360379596
 20
7.9570428474
 11
96.0856939596
 21
9.2915088474
  0
ARC
  8
CYAN
 10
97.4281278846
 20
10.7777292392
 40
2.0027430929
 50
216.7537109211
 51
227.9099607267
  0
LINE
  8
CYAN
 10
95.8234999596
 20
9.5793348474
 11
95.0545399596
 21
10.6099548474
  0
LINE
  8
CYAN
 10
95.0545399596
 20
10.6099548474
 11
94.3806319596
 21
11.9374788474
  0
LINE
  8
CYAN
 10
94.3806319596
 20
11.9374788474
 11
93.9016339596
 21
13.3643268474
  0
LINE
  8
CYAN
 10
93.9016339596
 20
13.3643268474
 11
93.6009919596
 21
14.8515168474
  0
LINE
  8
CYAN
 10
93.6009919596
 20
14.8515168474
 11
93.4616179596
 21
16.3589988474
  0
LINE
  8
CYAN
 10
93.4616179596
 20
16.3589988474
 11
93.5246299596
 21
17.8611408474
  0
LINE
  8
CYAN
 10
93.5246299596
 20
17.8611408474
 11
93.7115299596
 21
19.2372588474
  0
LINE
  8
CYAN
 10
93.7115299596
 20
19.2372588474
 11
93.9699859596
 21
20.5450248474
  0
LINE
  8
CYAN
 10
93.9699859596
 20
20.5450248474
 11
94.3096099596
 21
21.7988568474
  0
LINE
  8
CYAN
 10
94.3096099596
 20
21.7988568474
 11
94.7384119596
 21
23.0126388474
  0
LINE
  8
CYAN
 10
94.7384119596
 20
23.0126388474
 11
95.2665379596
 21
24.2002548474
  0
LINE
  8
CYAN
 10
95.2665379596
 20
24.2002548474
 11
95.9014639596
 21
25.3745208474
  0
LINE
  8
CYAN
 10
95.9014639596
 20
25.3745208474
 11
96.6528019596
 21
26.5503888474
  0
LINE
  8
CYAN
 10
96.6528019596
 20
26.5503888474
 11
97.4463259596
 21
27.6280008474
  0
ARC
  8
CYAN
 10
98.5225004837
 20
26.8379679236
 40
1.335029448
 50
131.7060018893
 51
143.7171507513
  0
LINE
  8
CYAN
 10
97.6342939596
 20
27.8346588474
 11
99.3543079596
 21
29.3971428474
  0
ARC
  8
CYAN
 10
109.3873067642
 20
16.205154166
 40
16.5737633138
 50
121.2742233635
 51
127.2543409786
  0
LINE
  8
CYAN
 10
100.7832919596
 20
30.3706248474
 11
102.2640739596
 21
30.9633648474
  0
LINE
  8
CYAN
 10
102.2640739596
 20
30.9633648474
 11
103.5878599596
 21
31.3526508474
  0
LINE
  8
CYAN
 10
103.5878599596
 20
31.3526508474
 11
104.8299439596
 21
31.5512988474
  0
LINE
  8
CYAN
 10
104.8299439596
 20
31.5512988474
 11
106.0656199596
 21
31.5726588474
  0
LINE
  8
CYAN
 10
106.0656199596
 20
31.5726588474
 11
107.3701819596
 21
31.4300808474
  0
LINE
  8
CYAN
 10
107.3701819596
 20
31.4300808474
 11
108.8183899596
 21
31.1374488474
  0
LINE
  8
CYAN
 10
108.8183899596
 20
31.1374488474
 11
110.4860719596
 21
30.7070448474
  0
LINE
  8
CYAN
 10
110.4860719596
 20
30.7070448474
 11
111.4173679596
 21
30.3599448474
  0
ARC
  8
CYAN
 10
153.5908952668
 20
164.8510149075
 40
140.9484101771
 50
252.5896893221
 51
253.6667212608
  0
LINE
  8
CYAN
 10
113.9527999596
 20
29.5909848474
 11
113.6804599596
 21
31.5982908474
  0
ARC
  8
CYAN
 10
115.0047812919
 20
31.7686536902
 40
1.3352342451
 50
163.62410045
 51
187.330362952
  0
ARC
  8
CYAN
 10
114.9629242896
 20
31.6493033985
 40
1.3347146893
 50
102.8908894439
 51
158.1938348964
  0
ARC
  8
CYAN
 10
115.2384918043
 20
31.0915656449
 40
1.9452250545
 50
86.0121023864
 51
107.1419538334
  0
ARC
  8
CYAN
 10
120.6856203514
 20
72.1578821303
 40
39.4847317089
 50
262.2686076642
 51
266.5999387397
  0
LINE
  8
CYAN
 10
118.3438819596
 20
32.7426528474
 11
119.8732579596
 21
32.7175548474
  0
LINE
  8
CYAN
 10
119.8732579596
 20
32.7175548474
 11
121.4389459596
 21
32.7981888474
  0
LINE
  8
CYAN
 10
121.4389459596
 20
32.7981888474
 11
123.1034239596
 21
32.9973708474
  0
LINE
  8
CYAN
 10
123.1034239596
 20
32.9973708474
 11
124.8709639596
 21
33.3519468474
  0
LINE
  8
CYAN
 10
124.8709639596
 20
33.3519468474
 11
126.4569439596
 21
33.8069148474
  0
LINE
  8
CYAN
 10
126.4569439596
 20
33.8069148474
 11
127.9873879596
 21
34.4215488474
  0
LINE
  8
CYAN
 10
127.9873879596
 20
34.4215488474
 11
129.5877859596
 21
35.2561908474
  0
ARC
  8
CYAN
 10
109.5815277641
 20
59.1184552922
 40
31.1393325461
 50
309.9766598298
 51
314.0328475787
  0
LINE
  8
CYAN
 10
131.2255639596
 20
36.7310988474
 11
132.0345739596
 21
37.6239468474
  0
ARC
  8
CYAN
 10
131.0466557805
 20
38.5202410707
 40
1.3339136641
 50
317.7839398715
 51
335.0058790625
  0
LINE
  8
CYAN
 10
132.2556499596
 20
37.9566288474
 11
133.1687899596
 21
39.9180108474
  0
LINE
  8
CYAN
 10
133.1687899596
 20
39.9180108474
 11
133.6696819596
 21
41.2092228474
  0
ARC
  8
CYAN
 10
132.4248814274
 20
41.6917684886
 40
1.3350575496
 50
338.8112299532
 51
353.7162334356
  0
LINE
  8
CYAN
 10
133.7519179596
 20
41.5456428474
 11
133.9014379596
 21
42.9025368474
  0
LINE
  8
CYAN
 10
133.9014379596
 20
42.9025368474
 11
133.8400279596
 21
44.2658388474
  0
ARC
  8
CYAN
 10
132.50516391
 20
44.2040461005
 40
1.336293521
 50
2.6504106528
 51
14.220172253
  0
LINE
  8
CYAN
 10
133.8005119596
 20
44.5323048474
 11
133.5142879596
 21
45.6654528474
  0
ARC
  8
CYAN
 10
132.2208651936
 20
45.3388400894
 40
1.3340233676
 50
14.1719565615
 51
27.7357379485
  0
LINE
  8
CYAN
 10
133.4016139596
 20
45.9596868474
 11
132.8515939596
 21
47.0052588474
  0
ARC
  8
CYAN
 10
131.6699139036
 20
46.3822880394
 40
1.3358369595
 50
27.797783961
 51
41.5925231015
  0
LINE
  8
CYAN
 10
132.6689659596
 20
47.2690548474
 11
131.9347159596
 21
48.0978228474
  0
ARC
  8
CYAN
 10
130.9363443126
 20
47.2123168931
 40
1.3344911917
 50
41.5714294328
 51
72.9530243857
  0
LINE
  8
CYAN
 10
131.3275579596
 20
48.4881768474
 11
130.3642219596
 21
48.7845468474
  0
ARC
  8
CYAN
 10
139.1989819887
 20
84.3526575761
 40
36.6489220248
 50
252.5903378862
 51
256.050613869
  0
LINE
  8
CYAN
 10
128.2335619596
 20
49.3826268474
 11
127.7326699596
 21
49.6282668474
  0
ARC
  8
CYAN
 10
128.3810647604
 20
50.9198598187
 40
1.445208712
 50
192.3037169024
 51
243.342812884
  0
ARC
  8
CYAN
 10
128.4749514882
 20
51.001779523
 40
1.5555543945
 50
170.7374040986
 51
194.515407178
  0
LINE
  8
CYAN
 10
126.9396799596
 20
51.2521608474
 11
127.0673059596
 21
51.9330108474
  0
ARC
  8
CYAN
 10
128.3804376434
 20
51.6869252299
 40
1.3359913735
 50
158.2067715595
 51
169.3856800107
  0
LINE
  8
CYAN
 10
127.1399299596
 20
52.1829228474
 11
127.6199959596
 21
53.3833548474
  0
ARC
  8
CYAN
 10
126.3813767777
 20
53.8798637562
 40
1.3344281825
 50
338.1562836865
 51
351.3509818183
  0
LINE
  8
CYAN
 10
127.7006299596
 20
53.6791908474
 11
127.8918019596
 21
54.8523888474
  0
ARC
  8
CYAN
 10
116.677677119
 20
58.1592365173
 40
11.6915284481
 50
343.5701412994
 51
350.6962755666
  0
ARC
  8
CYAN
 10
81.1695420083
 20
58.6809294322
 40
47.1076456669
 50
357.06526164
 51
0.227613304
  0
LINE
  8
CYAN
 10
128.2768159596
 20
58.8680688474
 11
128.1230239596
 21
60.2879748474
  0
LINE
  8
CYAN
 10
128.1230239596
 20
60.2879748474
 11
127.8816559596
 21
61.7014728474
  0
ARC
  8
CYAN
 10
90.6732502042
 20
53.9716489308
 40
38.0028372183
 50
11.7359246891
 51
16.0898196335
  0
ARC
  8
CYAN
 10
59.0870940452
 20
44.1741344355
 40
71.070098198
 50
16.621764389
 51
20.1279837108
  0
LINE
  8
CYAN
 10
125.8166779596
 20
68.6306568474
 11
125.4519559596
 21
69.9848808474
  0
LINE
  8
CYAN
 10
125.4519559596
 20
69.9848808474
 11
124.3107979596
 21
72.8732868474
  0
ARC
  8
CYAN
 10
235.4408426115
 20
103.2233300657
 40
115.1998782451
 50
191.1504817742
 51
195.2751994111
  0
ARC
  8
CYAN
 10
171.6849248392
 20
88.6909128353
 40
49.874430426
 50
182.4042538519
 51
188.9344084239
  0
ARC
  8
CYAN
 10
194.9718821144
 20
89.1543890447
 40
73.1621356484
 50
176.365112889
 51
182.0018638101
  0
LINE
  8
CYAN
 10
121.9569259596
 20
93.7927368474
 11
121.9457119596
 21
94.3267368474
  0
LINE
  8
CYAN
 10
121.9457119596
 20
94.3267368474
 11
121.8373099596
 21
95.0679288474
  0
LINE
  8
CYAN
 10
121.8373099596
 20
95.0679288474
 11
121.6525459596
 21
95.4369228474
  0
ARC
  8
CYAN
 10
120.339009618
 20
94.7525934337
 40
1.4811092017
 50
27.5187239813
 51
90.4791370017
  0
LINE
  8
CYAN
 10
120.3266239596
 20
96.2336508474
 11
119.6751439596
 21
96.2261748474
  0
ARC
  8
CYAN
 10
114.4522029139
 20
141.7425267077
 40
45.8150346485
 50
274.1626687314
 51
276.54598406
  0
LINE
  8
CYAN
 10
117.7778419596
 20
96.0483528474
 11
117.0937879596
 21
96.0894708474
  0
ARC
  8
CYAN
 10
117.2973444009
 20
98.0342698337
 40
1.9554227988
 50
244.3485852049
 51
264.024774308
  0
ARC
  8
CYAN
 10
117.1005301071
 20
97.7600591205
 40
1.6240987952
 50
194.0323327692
 51
246.4203345872
  0
LINE
  8
CYAN
 10
115.5248959596
 20
97.3662648474
 11
115.2803239596
 21
98.5186368474
  0
LINE
  8
CYAN
 10
115.2803239596
 20
98.5186368474
 11
115.1153179596
 21
99.9470868474
  0
LINE
  8
CYAN
 10
115.1153179596
 20
99.9470868474
 11
123.2235739596
 21
100.9082868474
  0
LINE
  8
CYAN
 10
123.2235739596
 20
100.9082868474
 11
122.9875459596
 21
102.8969028474
  0
LINE
  8
CYAN
 10
122.9875459596
 20
102.8969028474
 11
114.9081259596
 21
101.9389068474
  0
LINE
  8
CYAN
 10
114.9081259596
 20
101.9389068474
 11
114.9775459596
 21
104.2682148474
  0
ARC
  8
CYAN
 10
122.6254727383
 20
104.7765437268
 40
7.6648015148
 50
174.0011334883
 51
183.8026414651
  0
ARC
  8
CYAN
 10
116.7846088299
 20
105.3666666151
 40
1.7944036492
 50
133.7102892879
 51
173.2497846596
  0
LINE
  8
CYAN
 10
115.5446539596
 20
106.6637388474
 11
115.8575779596
 21
106.9440888474
  0
ARC
  8
CYAN
 10
116.749504617
 20
105.9512333464
 40
1.3346517179
 50
106.9888790338
 51
131.9347763735
  0
LINE
  8
CYAN
 10
116.3595379596
 20
107.2276428474
 11
117.0617479596
 21
107.4417768474
  0
LINE
  8
CYAN
 10
117.0617479596
 20
107.4417768474
 11
117.2913679596
 21
107.4903708474
  0
LINE
  8
CYAN
 10
117.2913679596
 20
107.4903708474
 11
120.9679579596
 21
107.8598988474
  0
ARC
  8
CYAN
 10
120.2653974816
 20
111.5492771756
 40
3.755676194
 50
280.7816265338
 51
291.3163830512
  0
ARC
  8
CYAN
 10
121.2117010538
 20
109.3178905855
 40
1.3348053638
 50
288.2924088569
 51
323.0859568318
  0
ARC
  8
CYAN
 10
161.1788393804
 20
79.6758461269
 40
48.4248721843
 50
141.2699830394
 51
143.4468151381
  0
ARC
  8
CYAN
 10
41.2940849398
 20
173.4245770227
 40
103.768475686
 50
322.3038998831
 51
324.4582082526
  0
ARC
  8
CYAN
 10
126.8136412286
 20
112.325724275
 40
1.3346413706
 50
132.4207810646
 51
144.3121402622
  0
LINE
  8
CYAN
 10
125.9133319596
 20
113.3109708474
 11
127.1025499596
 21
114.3971268474
  0
LINE
  8
CYAN
 10
127.1025499596
 20
114.3971268474
 11
128.3878879596
 21
115.2104088474
  0
ARC
  8
CYAN
 10
129.1026657278
 20
114.0819383803
 40
1.335796711
 50
110.292146264
 51
122.350335378
  0
LINE
  8
CYAN
 10
128.6394019596
 20
115.3348308474
 11
129.9412939596
 21
115.8148968474
  0
ARC
  8
CYAN
 10
130.4024882426
 20
114.5630212273
 40
1.3341262065
 50
97.9526359076
 51
110.2239305264
  0
LINE
  8
CYAN
 10
130.2179059596
 20
115.8843168474
 11
130.7358859596
 21
115.9537368474
  0
LINE
  8
CYAN
 10
130.7358859596
 20
115.9537368474
 11
138.7570999596
 21
113.2698528474
  0
ARC
  8
CYAN
 10
138.518832913
 20
112.5577810145
 40
0.7508778068
 50
328.364804789
 51
71.499193589
  0
LINE
  8
CYAN
 10
139.1581339596
 20
112.1639388474
 11
138.7811299596
 21
111.5514408474
  0
LINE
  8
CYAN
 10
138.7811299596
 20
111.5514408474
 11
139.8464599596
 21
110.8951548474
  0
ARC
  8
CYAN
 10
139.4529477552
 20
110.2557642071
 40
0.7507810905
 50
328.3551308727
 51
58.3898303198
  0
LINE
  8
CYAN
 10
140.0920999596
 20
109.8618648474
 11
137.3788459596
 21
105.4579668474
  0
ARC
  8
CYAN
 10
136.7393065999
 20
105.852104643
 40
0.7512357783
 50
238.3898198188
 51
328.3551413737
  0
LINE
  8
CYAN
 10
136.3455559596
 20
105.2123268474
 11
135.2764879596
 21
105.8707488474
  0
LINE
  8
CYAN
 10
135.2764879596
 20
105.8707488474
 11
134.2442659596
 21
104.3563248474
  0
LINE
  8
CYAN
 10
134.2442659596
 20
104.3563248474
 11
133.4955979596
 21
102.8872908474
  0
LINE
  8
CYAN
 10
133.4955979596
 20
102.8872908474
 11
132.9989779596
 21
101.3878188474
  0
ARC
  8
CYAN
 10
134.900241701
 20
100.7562600456
 40
2.0034146686
 50
161.624625853
 51
174.0378726981
  0
LINE
  8
CYAN
 10
132.9076639596
 20
100.9643568474
 11
132.7186279596
 21
99.1423488474
  0
LINE
  8
CYAN
 10
132.7186279596
 20
99.1423488474
 11
132.7672219596
 21
97.2706788474
  0
LINE
  8
CYAN
 10
132.7672219596
 20
97.2706788474
 11
132.9583939596
 21
95.3215788474
  0
LINE
  8
CYAN
 10
132.9583939596
 20
95.3215788474
 11
134.2923259596
 21
95.2729848474
  0
ARC
  8
CYAN
 10
134.2682959596
 20
94.6060188474
 40
0.6673987459
 50
357.9365930088
 51
87.9365930088
  0
LINE
  8
CYAN
 10
134.9352619596
 20
94.5819888474
 11
134.7419539596
 21
89.2457268474
  0
ARC
  8
CYAN
 10
134.0747303158
 20
89.270013784
 40
0.6676655196
 50
267.913686735
 51
357.9153543367
  0
LINE
  8
CYAN
 10
134.0504239596
 20
88.6027908474
 11
132.7164919596
 21
88.6513848474
  0
LINE
  8
CYAN
 10
132.7164919596
 20
88.6513848474
 11
132.4147819596
 21
84.9288708474
  0
LINE
  8
CYAN
 10
132.4147819596
 20
84.9288708474
 11
132.4249279596
 21
83.4010968474
  0
LINE
  8
CYAN
 10
132.4249279596
 20
83.4010968474
 11
132.5680399596
 21
81.8872068474
  0
LINE
  8
CYAN
 10
132.5680399596
 20
81.8872068474
 11
132.8489239596
 21
80.4801168474
  0
LINE
  8
CYAN
 10
132.8489239596
 20
80.4801168474
 11
133.2168499596
 21
79.4318748474
  0
ARC
  8
CYAN
 10
135.1061332762
 20
80.0968442127
 40
2.0028918362
 50
199.3904936879
 51
209.0151817538
  0
LINE
  8
CYAN
 10
133.3546219596
 20
79.1253588474
 11
134.0450839596
 21
77.8784688474
  0
LINE
  8
CYAN
 10
134.0450839596
 20
77.8784688474
 11
135.2668759596
 21
78.4162068474
  0
ARC
  8
CYAN
 10
135.535689846
 20
77.805436016
 40
0.6673094589
 50
23.7738432829
 51
113.7553667662
  0
ARC
  8
CYAN
 10
121.8431839596
 20
14.4600948474
 40
2.0026378385
 50
90.6722396314
 51
180.6722396314
  0
LINE
  8
CYAN
 10
121.8196879596
 20
16.4625948474
 11
133.8330859596
 21
16.6030368474
  0
ARC
  8
CYAN
 10
133.8563118983
 20
14.6008007143
 40
2.002370839
 50
0.6647784802
 51
90.6646012222
  0
LINE
  8
CYAN
 10
135.8585479596
 20
14.6240328474
 11
135.9370459596
 21
7.9501008474
  0
ARC
  8
CYAN
 10
133.9348098265
 20
7.9268749086
 40
2.002370839
 50
270.6647784802
 51
0.6646012222
  0
LINE
  8
CYAN
 10
133.9580419596
 20
5.9246388474
 11
121.9446439596
 21
5.7836628474
  0
ARC
  8
CYAN
 10
121.9211479596
 20
7.7861628474
 40
2.0026378385
 50
180.6722396314
 51
270.6722396314
  0
LINE
  8
CYAN
 10
119.9186479596
 20
7.7626668474
 11
119.8406839596
 21
14.4365988474
  0
ARC
  8
CYAN
 10
52.2063621771
 20
86.844954918
 40
2.0025469181
 50
171.5072713274
 51
210.3557489129
  0
LINE
  8
CYAN
 10
50.2257739596
 20
87.1406988474
 11
50.5536499596
 21
89.3386428474
  0
LINE
  8
CYAN
 10
50.5536499596
 20
89.3386428474
 11
51.1431859596
 21
91.3390068474
  0
LINE
  8
CYAN
 10
51.1431859596
 20
91.3390068474
 11
60.1010359596
 21
92.3140908474
  0
LINE
  8
CYAN
 10
60.1010359596
 20
92.3140908474
 11
59.8842319596
 21
94.3048428474
  0
LINE
  8
CYAN
 10
59.8842319596
 20
94.3048428474
 11
51.5858719596
 21
93.4013148474
  0
ARC
  8
CYAN
 10
161.6437621999
 20
81.8371852287
 40
110.6637623523
 50
172.1225296184
 51
174.0017613896
  0
ARC
  8
CYAN
 10
96.2144548341
 20
90.6200886766
 40
44.6489425024
 50
168.2497597024
 51
171.779393957
  0
ARC
  8
CYAN
 10
54.466113225
 20
99.3259444405
 40
2.0026577525
 50
148.326677813
 51
168.8661546344
  0
LINE
  8
CYAN
 10
52.7617399596
 20
100.3774908474
 11
53.0778679596
 21
100.8885288474
  0
ARC
  8
CYAN
 10
54.7814271198
 20
99.8361241502
 40
2.0024159056
 50
127.2774266629
 51
148.2935458823
  0
LINE
  8
CYAN
 10
53.5686139596
 20
101.4294708474
 11
54.0246499596
 21
101.7765708474
  0
ARC
  8
CYAN
 10
55.2382263806
 20
100.1822250679
 40
2.0036731755
 50
109.6962244906
 51
127.2774900523
  0
LINE
  8
CYAN
 10
54.5629219596
 20
102.0686688474
 11
55.5433459596
 21
102.4195068474
  0
ARC
  8
CYAN
 10
56.2174510583
 20
100.5338726328
 40
2.0025069476
 50
97.1132715806
 51
109.6717239269
  0
LINE
  8
CYAN
 10
55.9694779596
 20
102.5209668474
 11
56.8500439596
 21
102.6309708474
  0
LINE
  8
CYAN
 10
56.8500439596
 20
102.6309708474
 11
57.9671719596
 21
102.6555348474
  0
LINE
  8
CYAN
 10
57.9671719596
 20
102.6555348474
 11
59.0949799596
 21
102.5727648474
  0
LINE
  8
CYAN
 10
59.0949799596
 20
102.5727648474
 11
60.2259919596
 21
102.3880008474
  0
LINE
  8
CYAN
 10
60.2259919596
 20
102.3880008474
 11
61.3532659596
 21
102.1065828474
  0
LINE
  8
CYAN
 10
61.3532659596
 20
102.1065828474
 11
62.4687919596
 21
101.7333168474
  0
LINE
  8
CYAN
 10
62.4687919596
 20
101.7333168474
 11
63.5650939596
 21
101.2740768474
  0
LINE
  8
CYAN
 10
63.5650939596
 20
101.2740768474
 11
64.6352299596
 21
100.7331348474
  0
LINE
  8
CYAN
 10
64.6352299596
 20
100.7331348474
 11
65.6711899596
 21
100.1168988474
  0
LINE
  8
CYAN
 10
65.6711899596
 20
100.1168988474
 11
66.6665659596
 21
99.4296408474
  0
LINE
  8
CYAN
 10
66.6665659596
 20
99.4296408474
 11
67.6128139596
 21
98.6772348474
  0
LINE
  8
CYAN
 10
67.6128139596
 20
98.6772348474
 11
68.5035259596
 21
97.8650208474
  0
LINE
  8
CYAN
 10
68.5035259596
 20
97.8650208474
 11
69.3301579596
 21
96.9978048474
  0
LINE
  8
CYAN
 10
69.3301579596
 20
96.9978048474
 11
70.0863019596
 21
96.0809268474
  0
LINE
  8
CYAN
 10
70.0863019596
 20
96.0809268474
 11
70.7644819596
 21
95.1197268474
  0
LINE
  8
CYAN
 10
70.7644819596
 20
95.1197268474
 11
71.3566879596
 21
94.1195448474
  0
LINE
  8
CYAN
 10
71.3566879596
 20
94.1195448474
 11
71.8559779596
 21
93.0851868474
  0
LINE
  8
CYAN
 10
71.8559779596
 20
93.0851868474
 11
72.2548759596
 21
92.0225268474
  0
LINE
  8
CYAN
 10
72.2548759596
 20
92.0225268474
 11
72.5459059596
 21
90.9369048474
  0
LINE
  8
CYAN
 10
72.5459059596
 20
90.9369048474
 11
72.6687259596
 21
90.1626048474
  0
ARC
  8
CYAN
 10
70.6918744969
 20
89.8471095779
 40
2.0018688695
 50
352.8872866537
 51
9.0676403158
  0
LINE
  8
CYAN
 10
72.6783379596
 20
89.5992348474
 11
72.5272159596
 21
88.3929288474
  0
ARC
  8
CYAN
 10
70.5405390825
 20
88.6405162592
 40
2.0020450895
 50
336.6219690775
 51
352.8962022983
  0
LINE
  8
CYAN
 10
72.3782299596
 20
87.8461128474
 11
72.1528819596
 21
87.3254628474
  0
ARC
  8
CYAN
 10
70.3145330999
 20
88.1208547996
 40
2.0030414094
 50
305.9775394836
 51
336.6034819687
  0
LINE
  8
CYAN
 10
71.4912559596
 20
86.4998988474
 11
71.0282779596
 21
86.1634788474
  0
ARC
  8
CYAN
 10
69.8263622791
 20
87.8324560421
 40
2.056717331
 50
272.6455908379
 51
305.7595866422
  0
LINE
  8
CYAN
 10
69.9212959596
 20
85.7779308474
 11
69.2618059596
 21
85.7928828474
  0
LINE
  8
CYAN
 10
69.2618059596
 20
85.7928828474
 11
68.6119279596
 21
85.9205088474
  0
LINE
  8
CYAN
 10
68.6119279596
 20
85.9205088474
 11
67.4990719596
 21
86.3103288474
  0
LINE
  8
CYAN
 10
67.4990719596
 20
86.3103288474
 11
66.2911639596
 21
86.5490268474
  0
LINE
  8
CYAN
 10
66.2911639596
 20
86.5490268474
 11
65.0084959596
 21
86.6568948474
  0
LINE
  8
CYAN
 10
65.0084959596
 20
86.6568948474
 11
63.6692239596
 21
86.6547588474
  0
ARC
  8
CYAN
 10
65.3097656314
 20
53.3924414024
 40
33.3027497181
 50
92.8236158533
 51
97.6130183025
  0
ARC
  8
CYAN
 10
73.4172859767
 20
-0.1637916579
 40
87.4660670353
 50
98.2293400712
 51
100.9563159861
  0
ARC
  8
CYAN
 10
46.6870438069
 20
136.9177122148
 40
52.1974734982
 50
277.1762219401
 51
281.1640310866
  0
LINE
  8
CYAN
 10
53.2076299596
 20
85.1291208474
 11
52.1609899596
 21
85.0880028474
  0
ARC
  8
CYAN
 10
52.080131794
 20
87.1781780892
 40
2.0917386511
 50
220.0250900936
 51
272.2153753259
  0
ARC
  8
CYAN
 10
119.6785474508
 20
58.6710639247
 40
1.7964727773
 50
253.1107024582
 51
310.1596477808
  0
LINE
  8
CYAN
 10
119.1566299596
 20
56.9520768474
 11
118.7801599596
 21
57.0578088474
  0
LINE
  8
CYAN
 10
118.7801599596
 20
57.0578088474
 11
117.6550219596
 21
57.4802028474
  0
LINE
  8
CYAN
 10
117.6550219596
 20
57.4802028474
 11
118.1292139596
 21
55.8328128474
  0
LINE
  8
CYAN
 10
118.1292139596
 20
55.8328128474
 11
118.4383999596
 21
55.0670568474
  0
ARC
  8
CYAN
 10
28.1514541196
 20
28.4472327902
 40
94.1294195348
 50
13.1505666213
 51
16.4274041427
  0
LINE
  8
CYAN
 10
119.8123819596
 20
49.8626928474
 11
120.9546079596
 21
44.6220168474
  0
ARC
  8
CYAN
 10
120.3025652247
 20
44.4799421505
 40
0.6673417023
 50
261.4894193264
 51
12.2921473841
  0
LINE
  8
CYAN
 10
120.2038039596
 20
43.8199488474
 11
118.9595839596
 21
44.0057808474
  0
ARC
  8
CYAN
 10
119.2553058259
 20
45.9864431919
 40
2.0026169741
 50
225.9433668393
 51
261.5082088513
  0
LINE
  8
CYAN
 10
117.8627479596
 20
44.5472568474
 11
117.2187439596
 21
45.1704348474
  0
LINE
  8
CYAN
 10
117.2187439596
 20
45.1704348474
 11
116.1742399596
 21
46.3062528474
  0
LINE
  8
CYAN
 10
116.1742399596
 20
46.3062528474
 11
113.6404099596
 21
49.7558928474
  0
LINE
  8
CYAN
 10
113.6404099596
 20
49.7558928474
 11
80.2675459596
 21
37.7734668474
  0
LINE
  8
CYAN
 10
80.2675459596
 20
37.7734668474
 11
79.9642339596
 21
37.7611848474
  0
ARC
  8
CYAN
 10
79.8849119465
 20
39.7625092537
 40
2.0028957439
 50
220.1371062305
 51
272.2697164747
  0
ARC
  8
CYAN
 10
79.9835078913
 20
39.6337615736
 40
2.0018440623
 50
178.9101628395
 51
215.4957800011
  0
ARC
  8
CYAN
 10
86.640415023
 20
39.7981322095
 40
8.6593101164
 50
174.7616826857
 51
180.8356841016
  0
LINE
  8
CYAN
 10
78.0172699596
 20
40.5887148474
 11
78.2516959596
 21
42.1020708474
  0
ARC
  8
CYAN
 10
251.6567236429
 20
4.9564119792
 40
177.3389511602
 50
166.8320938159
 51
167.9092112359
  0
LINE
  8
CYAN
 10
78.9806059596
 20
45.3551988474
 11
79.3538719596
 21
46.4520348474
  0
ARC
  8
CYAN
 10
36.4589810057
 20
62.7727259184
 40
45.8948431415
 50
339.1691309066
 51
341.3690431664
  0
LINE
  8
CYAN
 10
79.9487479596
 20
48.1106388474
 11
80.3652679596
 21
49.0926648474
  0
LINE
  8
CYAN
 10
80.3652679596
 20
49.0926648474
 11
81.1737439596
 21
50.7987948474
  0
LINE
  8
CYAN
 10
81.1737439596
 20
50.7987948474
 11
82.0580479596
 21
52.3842408474
  0
LINE
  8
CYAN
 10
82.0580479596
 20
52.3842408474
 11
82.5915139596
 21
53.1681528474
  0
ARC
  8
CYAN
 10
141.7843514504
 20
10.0979956015
 40
73.2040330542
 50
141.8736416626
 51
143.9594472733
  0
LINE
  8
CYAN
 10
84.1983199596
 20
55.2940068474
 11
85.2145219596
 21
56.4089988474
  0
LINE
  8
CYAN
 10
85.2145219596
 20
56.4089988474
 11
86.3188339596
 21
57.4892808474
  0
ARC
  8
CYAN
 10
154.0577863749
 20
-16.0234059158
 40
99.9633972485
 50
130.8717457886
 51
132.6593081949
  0
LINE
  8
CYAN
 10
88.6449379596
 20
59.5665408474
 11
89.3936059596
 21
60.3333648474
  0
LINE
  8
CYAN
 10
89.3936059596
 20
60.3333648474
 11
90.9117679596
 21
61.7623488474
  0
LINE
  8
CYAN
 10
90.9117679596
 20
61.7623488474
 11
92.0908399596
 21
62.7475788474
  0
LINE
  8
CYAN
 10
92.0908399596
 20
62.7475788474
 11
92.0876359596
 21
62.7812208474
  0
LINE
  8
CYAN
 10
92.0876359596
 20
62.7812208474
 11
93.0717979596
 21
63.8353368474
  0
ARC
  8
CYAN
 10
65.3948267322
 20
91.5874162745
 40
39.1942935751
 50
314.9223623683
 51
319.4370527025
  0
LINE
  8
CYAN
 10
95.1704179596
 20
66.1000308474
 11
96.0718099596
 21
67.3752228474
  0
LINE
  8
CYAN
 10
96.0718099596
 20
67.3752228474
 11
96.6789679596
 21
68.8031388474
  0
LINE
  8
CYAN
 10
96.6789679596
 20
68.8031388474
 11
96.9021799596
 21
69.5144268474
  0
ARC
  8
CYAN
 10
93.9752543351
 20
70.4325828635
 40
3.0675566957
 50
342.5837251078
 51
352.4840331209
  0
LINE
  8
CYAN
 10
97.0164559596
 20
70.0313388474
 11
97.1750539596
 21
70.9546248474
  0
LINE
  8
CYAN
 10
97.1750539596
 20
70.9546248474
 11
97.1980159596
 21
71.8229088474
  0
LINE
  8
CYAN
 10
97.1980159596
 20
71.8229088474
 11
96.4728439596
 21
71.6210568474
  0
LINE
  8
CYAN
 10
96.4728439596
 20
71.6210568474
 11
95.8117519596
 21
71.3567268474
  0
LINE
  8
CYAN
 10
95.8117519596
 20
71.3567268474
 11
95.2761499596
 21
71.0731728474
  0
LINE
  8
CYAN
 10
95.2761499596
 20
71.0731728474
 11
93.5123479596
 21
70.5215508474
  0
LINE
  8
CYAN
 10
93.5123479596
 20
70.5215508474
 11
92.0411779596
 21
70.2630948474
  0
LINE
  8
CYAN
 10
92.0411779596
 20
70.2630948474
 11
90.9902659596
 21
70.2887268474
  0
ARC
  8
CYAN
 10
91.040283161
 20
72.2901080458
 40
2.0020060993
 50
255.1528923009
 51
268.5683995905
  0
LINE
  8
CYAN
 10
90.5272879596
 20
70.3549428474
 11
89.7358999596
 21
70.5648048474
  0
ARC
  8
CYAN
 10
90.2479394139
 20
72.4995116446
 40
2.0013182641
 50
243.9497488767
 51
255.1759780737
  0
LINE
  8
CYAN
 10
89.3690419596
 20
70.7015088474
 11
88.3047799596
 21
71.2210908474
  0
LINE
  8
CYAN
 10
88.3047799596
 20
71.2210908474
 11
86.9243899596
 21
72.1118028474
  0
LINE
  8
CYAN
 10
86.9243899596
 20
72.1118028474
 11
86.1127099596
 21
72.7216308474
  0
LINE
  8
CYAN
 10
86.1127099596
 20
72.7216308474
 11
85.4804539596
 21
73.0719348474
  0
ARC
  8
CYAN
 10
84.5095787391
 20
71.3200770897
 40
2.0028989732
 50
61.0048886427
 51
82.6148081286
  0
LINE
  8
CYAN
 10
84.7670299596
 20
73.3063608474
 11
83.8896679596
 21
73.4195688474
  0
LINE
  8
CYAN
 10
83.8896679596
 20
73.4195688474
 11
82.5151519596
 21
73.3720428474
  0
LINE
  8
CYAN
 10
82.5151519596
 20
73.3720428474
 11
81.1182079596
 21
73.1611128474
  0
LINE
  8
CYAN
 10
81.1182079596
 20
73.1611128474
 11
79.7944219596
 21
72.8353728474
  0
LINE
  8
CYAN
 10
79.7944219596
 20
72.8353728474
 11
78.6377779596
 21
72.4418148474
  0
LINE
  8
CYAN
 10
78.6377779596
 20
72.4418148474
 11
78.0658639596
 21
72.1769508474
  0
ARC
  8
CYAN
 10
78.9066711124
 20
70.3601137622
 40
2.0019624528
 50
114.8340489361
 51
134.8619831224
  0
LINE
  8
CYAN
 10
77.4944839596
 20
71.7791208474
 11
76.6294039596
 21
70.9183128474
  0
LINE
  8
CYAN
 10
76.6294039596
 20
70.9183128474
 11
75.6938359596
 21
70.2572208474
  0
ARC
  8
CYAN
 10
74.5381479604
 20
71.8917428739
 40
2.001818425
 50
284.5253283473
 51
305.262202056
  0
LINE
  8
CYAN
 10
75.0402199596
 20
69.9539088474
 11
74.6220979596
 21
69.8460408474
  0
ARC
  8
CYAN
 10
74.1205664816
 20
71.7839301561
 40
2.0017364452
 50
251.8966215661
 51
284.5099546345
  0
LINE
  8
CYAN
 10
73.4985619596
 20
69.8812848474
 11
72.9773779596
 21
70.0510968474
  0
ARC
  8
CYAN
 10
73.6001351176
 20
71.9542112454
 40
2.0024162629
 50
230.9929388806
 51
251.8803229231
  0
LINE
  8
CYAN
 10
72.3397819596
 20
70.3981968474
 11
71.8063159596
 21
70.6609248474
  0
LINE
  8
CYAN
 10
71.8063159596
 20
70.6609248474
 11
72.7910119596
 21
71.5772688474
  0
LINE
  8
CYAN
 10
72.7910119596
 20
71.5772688474
 11
74.2856779596
 21
72.6458028474
  0
LINE
  8
CYAN
 10
74.2856779596
 20
72.6458028474
 11
75.5453839596
 21
73.1611128474
  0
LINE
  8
CYAN
 10
75.5453839596
 20
73.1611128474
 11
75.3627559596
 21
74.3572728474
  0
LINE
  8
CYAN
 10
75.3627559596
 20
74.3572728474
 11
73.3004479596
 21
73.8681288474
  0
ARC
  8
CYAN
 10
91.0691512475
 20
14.9137494464
 40
61.5739041079
 50
106.7726760905
 51
109.3395560706
  0
ARC
  8
CYAN
 10
70.501211503
 20
73.6566740462
 40
0.6673158513
 50
159.8254460289
 51
285.360163877
  0
LINE
  8
CYAN
 10
69.8748379596
 20
73.8868188474
 11
70.0270279596
 21
74.3022708474
  0
LINE
  8
CYAN
 10
70.0270279596
 20
74.3022708474
 11
70.7169559596
 21
76.6011408474
  0
LINE
  8
CYAN
 10
70.7169559596
 20
76.6011408474
 11
71.3641639596
 21
78.3782928474
  0
LINE
  8
CYAN
 10
71.3641639596
 20
78.3782928474
 11
71.6461159596
 21
78.9683628474
  0
LINE
  8
CYAN
 10
71.6461159596
 20
78.9683628474
 11
72.0647719596
 21
79.5034308474
  0
LINE
  8
CYAN
 10
72.0647719596
 20
79.5034308474
 11
72.6644539596
 21
80.0657328474
  0
LINE
  8
CYAN
 10
72.6644539596
 20
80.0657328474
 11
74.1500419596
 21
80.9644548474
  0
LINE
  8
CYAN
 10
74.1500419596
 20
80.9644548474
 11
77.4165199596
 21
82.8072888474
  0
ARC
  8
CYAN
 10
66.8060087021
 20
106.4819627269
 40
25.9436530282
 50
294.1409601193
 51
301.4723406847
  0
ARC
  8
CYAN
 10
47.0062889674
 20
159.7178994376
 40
82.4102746164
 50
293.8671004193
 51
296.6631169229
  0
LINE
  8
CYAN
 10
83.9873899596
 20
86.0710968474
 11
87.6992239596
 21
87.8957748474
  0
ARC
  8
CYAN
 10
110.2486779406
 20
40.7834147888
 40
52.230760526
 50
111.0171461768
 51
115.5772396334
  0
ARC
  8
CYAN
 10
103.3300362804
 20
57.7470374747
 40
33.9163887743
 50
105.7330917451
 51
110.3846360509
  0
LINE
  8
CYAN
 10
94.1333899596
 20
90.3927588474
 11
95.4673219596
 21
90.7142268474
  0
LINE
  8
CYAN
 10
95.4673219596
 20
90.7142268474
 11
98.6403499596
 21
90.8295708474
  0
LINE
  8
CYAN
 10
98.6403499596
 20
90.8295708474
 11
94.8916699596
 21
85.5611268474
  0
LINE
  8
CYAN
 10
94.8916699596
 20
85.5611268474
 11
96.5235739596
 21
84.4002108474
  0
LINE
  8
CYAN
 10
96.5235739596
 20
84.4002108474
 11
101.5207459596
 21
91.4239128474
  0
LINE
  8
CYAN
 10
101.5207459596
 20
91.4239128474
 11
102.6731179596
 21
91.6818348474
  0
LINE
  8
CYAN
 10
102.6731179596
 20
91.6818348474
 11
103.8911719596
 21
91.7165448474
  0
ARC
  8
CYAN
 10
107.0780688474
 20
140.2105228393
 40
48.5985824203
 50
266.2400783598
 51
268.7149687741
  0
ARC
  8
CYAN
 10
105.9684431689
 20
90.9572857678
 40
0.6671693751
 50
72.39019189
 51
88.3039194194
  0
LINE
  8
CYAN
 10
106.1702839596
 20
91.5931908474
 11
106.7384599596
 21
91.4137668474
  0
ARC
  8
CYAN
 10
106.5367556113
 20
90.7775102335
 40
0.6674631996
 50
37.4181115345
 51
72.410484666
  0
LINE
  8
CYAN
 10
107.0668699596
 20
91.1830788474
 11
107.4283879596
 21
90.7115568474
  0
ARC
  8
CYAN
 10
106.8986050239
 20
90.3060092217
 40
0.6671872568
 50
343.8490838774
 51
37.4339734504
  0
LINE
  8
CYAN
 10
107.5394599596
 20
90.1204188474
 11
107.4379999596
 21
89.7685128474
  0
LINE
  8
CYAN
 10
107.4379999596
 20
89.7685128474
 11
107.0444419596
 21
88.8195948474
  0
LINE
  8
CYAN
 10
107.0444419596
 20
88.8195948474
 11
108.2331259596
 21
88.7726028474
  0
ARC
  8
CYAN
 10
107.0269378958
 20
57.3095292869
 40
31.4861856616
 50
82.9461408898
 51
87.8045482943
  0
LINE
  8
CYAN
 10
110.8935139596
 20
88.5574008474
 11
112.2658939596
 21
88.2887988474
  0
LINE
  8
CYAN
 10
112.2658939596
 20
88.2887988474
 11
113.4246739596
 21
87.8770848474
  0
LINE
  8
CYAN
 10
113.4246739596
 20
87.8770848474
 11
113.5731259596
 21
87.8023248474
  0
LINE
  8
CYAN
 10
113.5731259596
 20
87.8023248474
 11
114.3714559596
 21
87.2661888474
  0
ARC
  8
CYAN
 10
113.999323578
 20
86.7118302942
 40
0.6676795001
 50
33.0624617011
 51
56.1271447441
  0
LINE
  8
CYAN
 10
114.5588899596
 20
87.0760848474
 11
114.9230779596
 21
86.5159188474
  0
ARC
  8
CYAN
 10
114.3640116897
 20
86.1520577883
 40
0.6670456989
 50
344.3670782335
 51
33.0575707884
  0
LINE
  8
CYAN
 10
115.0063819596
 20
85.9723068474
 11
114.9198739596
 21
85.6636548474
  0
ARC
  8
CYAN
 10
114.2769650411
 20
85.8420934152
 40
0.6672122601
 50
321.0682233823
 51
344.4880719582
  0
LINE
  8
CYAN
 10
114.7959859596
 20
85.4228208474
 11
114.5749099596
 21
85.1504808474
  0
ARC
  8
CYAN
 10
114.0563549723
 20
85.5707004833
 40
0.667445741
 50
305.2333813788
 51
320.9798469297
  0
LINE
  8
CYAN
 10
114.4414099596
 20
85.0255248474
 11
113.9778979596
 21
84.6981828474
  0
LINE
  8
CYAN
 10
113.9778979596
 20
84.6981828474
 11
114.2635879596
 21
84.5187588474
  0
ARC
  8
CYAN
 10
138.9803815794
 20
112.7661664868
 40
37.5344631664
 50
228.813716484
 51
232.1366837112
  0
ARC
  8
CYAN
 10
51.5392015755
 20
10.4819022729
 40
97.0878291346
 50
46.4504568034
 51
48.4440779972
  0
ARC
  8
CYAN
 10
117.9754948686
 20
80.36079434
 40
0.6677339801
 50
29.1691426211
 51
46.9958217224
  0
LINE
  8
CYAN
 10
118.5585499596
 20
80.6862408474
 11
119.1107059596
 21
79.6935348474
  0
ARC
  8
CYAN
 10
118.5270164925
 20
79.369242689
 40
0.6677265893
 50
339.2158346383
 51
29.0561216994
  0
LINE
  8
CYAN
 10
119.1512899596
 20
79.1323008474
 11
118.9617199596
 21
78.6319428474
  0
ARC
  8
CYAN
 10
118.3376900772
 20
78.8687633653
 40
0.6674558051
 50
300.9914608551
 51
339.218151746
  0
LINE
  8
CYAN
 10
118.6813699596
 20
78.2965908474
 11
118.2589759596
 21
78.0429408474
  0
ARC
  8
CYAN
 10
117.9151139366
 20
78.6146551063
 40
0.6671568666
 50
282.5247061914
 51
301.0251347181
  0
LINE
  8
CYAN
 10
118.0597939596
 20
77.9633748474
 11
117.1268959596
 21
77.7567168474
  0
LINE
  8
CYAN
 10
117.1268959596
 20
77.7567168474
 11
117.6956059596
 21
77.0635848474
  0
ARC
  8
CYAN
 10
22.8051236905
 20
10.0400647072
 40
116.1738175203
 50
32.7133915352
 51
35.2345169359
  0
LINE
  8
CYAN
 10
120.5519719596
 20
72.8246928474
 11
121.2221419596
 21
71.3823588474
  0
ARC
  8
CYAN
 10
113.5296291965
 20
67.5483108818
 40
8.5950378948
 50
17.1674848175
 51
26.4922599126
  0
LINE
  8
CYAN
 10
121.7417239596
 20
70.0852728474
 11
121.8330379596
 21
69.6345768474
  0
ARC
  8
CYAN
 10
121.1788123522
 20
69.5018863488
 40
0.6675461885
 50
315.9277739149
 51
11.4652463646
  0
LINE
  8
CYAN
 10
121.6584199596
 20
69.0375648474
 11
121.1399059596
 21
68.5024968474
  0
ARC
  8
CYAN
 10
120.660319694
 20
68.9670590369
 40
0.6676982957
 50
260.4290208449
 51
315.9116611927
  0
ARC
  8
CYAN
 10
121.3731491299
 20
74.7081323141
 40
6.4522892067
 50
256.1580047207
 51
262.6642820472
  0
LINE
  8
CYAN
 10
119.8294699596
 20
68.4432228474
 11
117.8755639596
 21
69.1860168474
  0
LINE
  8
CYAN
 10
117.8755639596
 20
69.1860168474
 11
118.3422799596
 21
68.1137448474
  0
ARC
  8
CYAN
 10
113.3557852463
 20
65.0865045178
 40
5.8334649685
 50
19.8813258352
 51
31.2614286186
  0
ARC
  8
CYAN
 10
70.9551686973
 20
47.0856404325
 40
51.8892512714
 50
16.9010377617
 51
22.652482376
  0
LINE
  8
CYAN
 10
120.6032359596
 20
62.1708588474
 11
120.9759679596
 21
60.7317288474
  0
LINE
  8
CYAN
 10
120.9759679596
 20
60.7317288474
 11
121.2061219596
 21
59.3988648474
  0
LINE
  8
CYAN
 10
121.2061219596
 20
59.3988648474
 11
121.2274819596
 21
58.5647568474
  0
ARC
  8
CYAN
 10
119.2265678199
 20
58.5133610802
 40
2.0015741103
 50
344.5622889757
 51
1.47138406
  0
LINE
  8
CYAN
 10
121.1559259596
 20
57.9805608474
 11
121.0619419596
 21
57.6404028474
  0
ARC
  8
CYAN
 10
120.4187651374
 20
57.8178581799
 40
0.6672082281
 50
308.8316975849
 51
344.5755834041
  0
LINE
  8
CYAN
 10
104.5581379596
 20
53.4938928474
 11
108.4451239596
 21
73.4767068474
  0
LINE
  8
CYAN
 10
108.4451239596
 20
73.4767068474
 11
106.4794699596
 21
73.8590508474
  0
LINE
  8
CYAN
 10
106.4794699596
 20
73.8590508474
 11
102.5924839596
 21
53.8762368474
  0
LINE
  8
CYAN
 10
102.5924839596
 20
53.8762368474
 11
104.5581379596
 21
53.4938928474
  0
ARC
  8
CYAN
 10
106.1651778653
 20
117.5705625814
 40
2.0024791099
 50
21.2681651179
 51
51.438349726
  0
LINE
  8
CYAN
 10
108.0312739596
 20
118.2969288474
 11
108.2048239596
 21
117.8515728474
  0
LINE
  8
CYAN
 10
108.2048239596
 20
117.8515728474
 11
108.5802259596
 21
116.2511748474
  0
ARC
  8
CYAN
 10
49.4153887848
 20
105.1627164406
 40
60.1949488559
 50
6.0316734801
 51
10.6150257261
  0
LINE
  8
CYAN
 10
109.2770959596
 20
111.4878948474
 11
109.3208839596
 21
110.9480208474
  0
LINE
  8
CYAN
 10
109.3208839596
 20
110.9480208474
 11
109.7646379596
 21
109.3107768474
  0
LINE
  8
CYAN
 10
109.7646379596
 20
109.3107768474
 11
110.0999899596
 21
107.5496448474
  0
ARC
  8
CYAN
 10
344.5025758074
 20
162.879691641
 40
240.844319697
 50
193.281391647
 51
194.4043773628
  0
LINE
  8
CYAN
 10
111.2293999596
 20
102.9663228474
 11
111.9086479596
 21
100.6872108474
  0
LINE
  8
CYAN
 10
111.9086479596
 20
100.6872108474
 11
112.5312919596
 21
98.1053208474
  0
LINE
  8
CYAN
 10
112.5312919596
 20
98.1053208474
 11
112.6685299596
 21
97.0533408474
  0
ARC
  8
CYAN
 10
110.6842001209
 20
96.7936171123
 40
2.0012549381
 50
354.7544793552
 51
7.4569046467
  0
LINE
  8
CYAN
 10
112.6770739596
 20
96.6106548474
 11
112.6199359596
 21
95.9938848474
  0
ARC
  8
CYAN
 10
110.6269063463
 20
96.1770674993
 40
2.0014302194
 50
334.4070730002
 51
354.7486043623
  0
LINE
  8
CYAN
 10
112.4319679596
 20
95.3125008474
 11
112.2456019596
 21
94.9232148474
  0
ARC
  8
CYAN
 10
110.4392209369
 20
95.7890149499
 40
2.0031530687
 50
311.3187595427
 51
334.3915565412
  0
LINE
  8
CYAN
 10
111.7617979596
 20
94.2845508474
 11
111.3084319596
 21
93.8861868474
  0
ARC
  8
CYAN
 10
109.9864045713
 20
95.3883121669
 40
2.0010339554
 50
290.9314050847
 51
311.3511542764
  0
LINE
  8
CYAN
 10
110.7012739596
 20
93.5193288474
 11
110.0567359596
 21
93.3393708474
  0
ARC
  8
CYAN
 10
109.5645914007
 20
96.4041141267
 40
3.1040067067
 50
268.3104665633
 51
279.1228233604
  0
LINE
  8
CYAN
 10
109.4730739596
 20
93.3014568474
 11
108.6678019596
 21
93.2833008474
  0
LINE
  8
CYAN
 10
108.6678019596
 20
93.2833008474
 11
107.3552299596
 21
93.3500508474
  0
LINE
  8
CYAN
 10
107.3552299596
 20
93.3500508474
 11
105.4023919596
 21
93.6699168474
  0
LINE
  8
CYAN
 10
105.4023919596
 20
93.6699168474
 11
103.5910639596
 21
94.0522608474
  0
LINE
  8
CYAN
 10
103.5910639596
 20
94.0522608474
 11
102.7030219596
 21
94.3069788474
  0
LINE
  8
CYAN
 10
102.7030219596
 20
94.3069788474
 11
102.1999939596
 21
94.3582428474
  0
LINE
  8
CYAN
 10
102.1999939596
 20
94.3582428474
 11
101.4272959596
 21
94.5478128474
  0
ARC
  8
CYAN
 10
92.6978358189
 20
40.7237688418
 40
54.5273434844
 50
80.7876906347
 51
84.5003463827
  0
ARC
  8
CYAN
 10
94.7248999946
 20
58.0127077198
 40
37.1254690487
 50
85.057125472
 51
89.6173542061
  0
LINE
  8
CYAN
 10
94.9728379596
 20
95.1373488474
 11
93.5128819596
 21
95.0930268474
  0
LINE
  8
CYAN
 10
93.5128819596
 20
95.0930268474
 11
92.0652079596
 21
94.9600608474
  0
LINE
  8
CYAN
 10
92.0652079596
 20
94.9600608474
 11
90.6308839596
 21
94.7288388474
  0
LINE
  8
CYAN
 10
90.6308839596
 20
94.7288388474
 11
87.4904299596
 21
93.3399048474
  0
LINE
  8
CYAN
 10
87.4904299596
 20
93.3399048474
 11
86.2131019596
 21
92.7215328474
  0
ARC
  8
CYAN
 10
85.9222983849
 20
93.3222263139
 40
0.6673824689
 50
216.1299847268
 51
295.8322320186
  0
LINE
  8
CYAN
 10
85.3832659596
 20
92.9287248474
 11
84.8620819596
 21
93.6421488474
  0
ARC
  8
CYAN
 10
85.4013409141
 20
94.0358743415
 40
0.6676975248
 50
195.5079337527
 51
216.1340501957
  0
LINE
  8
CYAN
 10
84.7579519596
 20
93.8573508474
 11
84.4605139596
 21
94.9328268474
  0
LINE
  8
CYAN
 10
84.4605139596
 20
94.9328268474
 11
84.2634679596
 21
96.0558288474
  0
ARC
  8
CYAN
 10
-17.2757336813
 20
92.0342940242
 40
101.6188083585
 50
2.2680561165
 51
3.7575188919
  0
LINE
  8
CYAN
 10
84.1246279596
 20
98.6937888474
 11
84.1577359596
 21
99.9209208474
  0
ARC
  8
CYAN
 10
115.0682613096
 20
97.7309578207
 40
30.9880059938
 50
170.9518469322
 51
175.9474539658
  0
LINE
  8
CYAN
 10
84.4658539596
 20
102.6042708474
 11
84.7275139596
 21
103.9542228474
  0
LINE
  8
CYAN
 10
84.7275139596
 20
103.9542228474
 11
85.0650019596
 21
105.2945628474
  0
LINE
  8
CYAN
 10
85.0650019596
 20
105.2945628474
 11
85.4804539596
 21
106.6151448474
  0
LINE
  8
CYAN
 10
85.4804539596
 20
106.6151448474
 11
85.9760059596
 21
107.9042208474
  0
LINE
  8
CYAN
 10
85.9760059596
 20
107.9042208474
 11
86.5548619596
 21
109.1516448474
  0
LINE
  8
CYAN
 10
86.5548619596
 20
109.1516448474
 11
87.2191579596
 21
110.3456688474
  0
ARC
  8
CYAN
 10
38.3828517904
 20
143.5776644972
 40
59.070723164
 50
325.7656034425
 51
328.3548476045
  0
ARC
  8
CYAN
 10
113.399225485
 20
96.3400463982
 40
29.5876811653
 50
141.5862454099
 51
146.6966627848
  0
LINE
  8
CYAN
 10
90.2159659596
 20
114.7239348474
 11
91.0805119596
 21
115.7150388474
  0
LINE
  8
CYAN
 10
91.0805119596
 20
115.7150388474
 11
92.0182159596
 21
116.6297808474
  0
LINE
  8
CYAN
 10
92.0182159596
 20
116.6297808474
 11
93.0381559596
 21
117.4500048474
  0
LINE
  8
CYAN
 10
93.0381559596
 20
117.4500048474
 11
94.1494099596
 21
118.1580888474
  0
LINE
  8
CYAN
 10
94.1494099596
 20
118.1580888474
 11
95.3615899596
 21
118.7348088474
  0
LINE
  8
CYAN
 10
95.3615899596
 20
118.7348088474
 11
97.5953119596
 21
119.4669228474
  0
ARC
  8
CYAN
 10
105.8450711146
 20
91.3336527997
 40
29.3179025459
 50
101.4171586776
 51
106.3431706922
  0
LINE
  8
CYAN
 10
100.0415659596
 20
120.0714108474
 11
101.4363739596
 21
120.2978268474
  0
LINE
  8
CYAN
 10
101.4363739596
 20
120.2978268474
 11
102.8514739596
 21
120.4254528474
  0
LINE
  8
CYAN
 10
102.8514739596
 20
120.4254528474
 11
104.2174459596
 21
120.4174428474
  0
LINE
  8
CYAN
 10
104.2174459596
 20
120.4174428474
 11
105.2560759596
 21
120.2668548474
  0
ARC
  8
CYAN
 10
104.9681079319
 20
118.285886749
 40
2.0017892476
 50
69.7371670867
 51
81.7290012209
  0
LINE
  8
CYAN
 10
105.6613819596
 20
120.1637928474
 11
106.2188779596
 21
119.9582028474
  0
ARC
  8
CYAN
 10
105.5260893732
 20
118.0788634913
 40
2.002965911
 50
51.472983766
 51
69.7643930639
  0
LINE
  8
CYAN
 10
106.7737039596
 20
119.6458128474
 11
107.4134359596
 21
119.1363768474
  0
LINE
  8
CYAN
 10
90.2592199596
 20
105.7489968474
 11
107.5255759596
 21
103.6274148474
  0
LINE
  8
CYAN
 10
107.5255759596
 20
103.6274148474
 11
107.7696139596
 21
105.6149628474
  0
LINE
  8
CYAN
 10
107.7696139596
 20
105.6149628474
 11
90.5037919596
 21
107.7360108474
  0
LINE
  8
CYAN
 10
90.5037919596
 20
107.7360108474
 11
90.2592199596
 21
105.7489968474
  0
LINE
  8
CYAN
 10
36.1548739596
 20
5.9459988474
 11
36.1292419596
 21
5.9182308474
  0
ARC
  8
CYAN
 10
16.5212997428
 20
56.1642559014
 40
53.936392461
 50
284.4217876594
 51
291.3176523249
  0
ARC
  8
CYAN
 10
21.3720139481
 20
38.4972406071
 40
35.6192252971
 50
277.550091232
 51
283.9428384573
  0
ARC
  8
CYAN
 10
22.6307880585
 20
31.8268427074
 40
28.8436547417
 50
271.6104363945
 51
276.8122766532
  0
ARC
  8
CYAN
 10
22.2906632975
 20
-39.2608243676
 40
42.271071306
 50
88.4400533767
 51
92.0836079607
  0
LINE
  8
CYAN
 10
20.7537799596
 20
2.9822988474
 11
19.3557679596
 21
3.0543888474
  0
ARC
  8
CYAN
 10
23.3100833309
 20
42.9780056432
 40
40.1189704269
 50
256.2571100493
 51
264.3434729264
  0
ARC
  8
CYAN
 10
13.5679380714
 20
3.8302304771
 40
0.2758379325
 50
40.0117053089
 51
105.7678142623
  0
LINE
  8
CYAN
 10
13.4929819596
 20
4.0956888474
 11
10.4534539596
 21
5.2512648474
  0
ARC
  8
CYAN
 10
36.6079909825
 20
56.0899734932
 40
57.1719695625
 50
238.4906165883
 51
242.7759428868
  0
LINE
  8
CYAN
 10
6.7277359596
 20
7.3477488474
 11
5.5497319596
 21
8.1434088474
  0
LINE
  8
CYAN
 10
5.5497319596
 20
8.1434088474
 11
3.1979959596
 21
9.9857088474
  0
LINE
  8
CYAN
 10
3.1979959596
 20
9.9857088474
 11
1.4528839596
 21
11.5770288474
  0
LINE
  8
CYAN
 10
1.4528839596
 20
11.5770288474
 11
0.3159979596
 21
12.7294008474
  0
LINE
  8
CYAN
 10
0.3159979596
 20
12.7294008474
 11
4.5175099596
 21
17.2790808474
  0
LINE
  8
CYAN
 10
4.5175099596
 20
17.2790808474
 11
3.0463399596
 21
18.6375768474
  0
LINE
  8
CYAN
 10
3.0463399596
 20
18.6375768474
 11
-0.9490480404
 21
14.3111088474
  0
LINE
  8
CYAN
 10
-0.9490480404
 20
14.3111088474
 11
-1.2614380404
 21
15.6039228474
  0
LINE
  8
CYAN
 10
-1.2614380404
 20
15.6039228474
 11
-1.4024140404
 21
17.6827848474
  0
ARC
  8
CYAN
 10
45.974060114
 20
16.4646448899
 40
47.3921319236
 50
173.6920002043
 51
178.5271402026
  0
LINE
  8
CYAN
 10
-1.1311420404
 20
21.6717648474
 11
-1.0190020404
 21
22.4284428474
  0
ARC
  8
CYAN
 10
75.3165921396
 20
37.1235887685
 40
77.737187063
 50
189.4070935935
 51
190.8965458948
  0
ARC
  8
CYAN
 10
17.3671183543
 20
26.5221064902
 40
18.8600828946
 50
180.540280052
 51
186.4067264663
  0
ARC
  8
CYAN
 10
0.4159047558
 20
26.4319067195
 40
1.9100425694
 50
104.3100971531
 51
182.6299273084
  0
LINE
  8
CYAN
 10
-0.0562000404
 20
28.2826848474
 11
1.1645239596
 21
28.6100268474
  0
ARC
  8
CYAN
 10
17.0527196098
 20
25.9808776077
 40
16.1042598944
 50
162.8843080308
 51
170.6039470058
  0
ARC
  8
CYAN
 10
7.7056338082
 20
29.9648779155
 40
6.0909940186
 50
161.2851514412
 51
172.8747740955
  0
LINE
  8
CYAN
 10
1.9366879596
 20
31.9192248474
 11
2.5726819596
 21
34.1289168474
  0
LINE
  8
CYAN
 10
2.5726819596
 20
34.1289168474
 11
3.0815839596
 21
36.1858848474
  0
LINE
  8
CYAN
 10
3.0815839596
 20
36.1858848474
 11
4.5191119596
 21
40.4530788474
  0
LINE
  8
CYAN
 10
4.5191119596
 20
40.4530788474
 11
4.7759659596
 21
41.0185848474
  0
LINE
  8
CYAN
 10
4.7759659596
 20
41.0185848474
 11
5.4194359596
 21
41.6604528474
  0
LINE
  8
CYAN
 10
5.4194359596
 20
41.6604528474
 11
5.8076539596
 21
41.9760468474
  0
LINE
  8
CYAN
 10
5.8076539596
 20
41.9760468474
 11
7.0321159596
 21
42.6328668474
  0
LINE
  8
CYAN
 10
7.0321159596
 20
42.6328668474
 11
8.4311959596
 21
42.9772968474
  0
ARC
  8
CYAN
 10
8.5907911117
 20
42.3290760987
 40
0.6675782738
 50
0.2702464815
 51
103.8314112842
  0
LINE
  8
CYAN
 10
9.2583619596
 20
42.3322248474
 11
9.2701099596
 21
38.0468748474
  0
LINE
  8
CYAN
 10
9.2701099596
 20
38.0468748474
 11
9.3966679596
 21
36.6488628474
  0
LINE
  8
CYAN
 10
9.3966679596
 20
36.6488628474
 11
9.6684739596
 21
35.2983768474
  0
LINE
  8
CYAN
 10
9.6684739596
 20
35.2983768474
 11
10.1042179596
 21
34.0018248474
  0
LINE
  8
CYAN
 10
10.1042179596
 20
34.0018248474
 11
10.7225899596
 21
32.7672168474
  0
LINE
  8
CYAN
 10
10.7225899596
 20
32.7672168474
 11
11.5412119596
 21
31.5993588474
  0
LINE
  8
CYAN
 10
11.5412119596
 20
31.5993588474
 11
12.5798419596
 21
30.5062608474
  0
LINE
  8
CYAN
 10
12.5798419596
 20
30.5062608474
 11
13.7658559596
 21
29.5530708474
  0
LINE
  8
CYAN
 10
13.7658559596
 20
29.5530708474
 11
14.7569599596
 21
28.6404648474
  0
LINE
  8
CYAN
 10
14.7569599596
 20
28.6404648474
 11
15.5595619596
 21
27.7374708474
  0
LINE
  8
CYAN
 10
15.5595619596
 20
27.7374708474
 11
16.1800699596
 21
26.8136508474
  0
LINE
  8
CYAN
 10
16.1800699596
 20
26.8136508474
 11
16.6238239596
 21
25.8391008474
  0
LINE
  8
CYAN
 10
16.6238239596
 20
25.8391008474
 11
16.8972319596
 21
24.7817808474
  0
LINE
  8
CYAN
 10
16.8972319596
 20
24.7817808474
 11
17.0072359596
 21
23.6123208474
  0
LINE
  8
CYAN
 10
17.0072359596
 20
23.6123208474
 11
16.9586419596
 21
22.3002828474
  0
LINE
  8
CYAN
 10
16.9586419596
 20
22.3002828474
 11
16.7765479596
 21
20.7666348474
  0
ARC
  8
CYAN
 10
38.0500518901
 20
15.6461654865
 40
21.8810688943
 50
166.4665105246
 51
169.7435806404
  0
LINE
  8
CYAN
 10
16.5186259596
 20
19.5421728474
 11
16.4903239596
 21
18.9809388474
  0
LINE
  8
CYAN
 10
16.4903239596
 20
18.9809388474
 11
17.1508819596
 21
19.0370088474
  0
ARC
  8
CYAN
 10
12.2574337248
 20
35.434539072
 40
17.1121253237
 50
286.6164676316
 51
291.3600983954
  0
LINE
  8
CYAN
 10
18.4901539596
 20
19.4978508474
 11
20.0350159596
 21
20.3127348474
  0
LINE
  8
CYAN
 10
20.0350159596
 20
20.3127348474
 11
21.3636079596
 21
21.2157288474
  0
LINE
  8
CYAN
 10
21.3636079596
 20
21.2157288474
 11
22.5496219596
 21
22.2527568474
  0
LINE
  8
CYAN
 10
22.5496219596
 20
22.2527568474
 11
23.6560699596
 21
23.4489168474
  0
ARC
  8
CYAN
 10
-49.3365031612
 20
72.2509139054
 40
87.8040468751
 50
326.2337669116
 51
328.7087632332
  0
ARC
  8
CYAN
 10
71.4454236227
 20
3.7978201941
 40
51.1383004641
 50
150.3217621346
 51
153.4613198878
  0
LINE
  8
CYAN
 10
27.0154639596
 20
29.1178608474
 11
27.7470439596
 21
30.4726188474
  0
LINE
  8
CYAN
 10
27.7470439596
 20
30.4726188474
 11
28.8390739596
 21
32.1023868474
  0
ARC
  8
CYAN
 10
11.7659718363
 20
45.5564913972
 40
21.7371512704
 50
321.7608547497
 51
325.1068222399
  0
ARC
  8
CYAN
 10
10.9758505663
 20
49.2663402196
 40
24.6440104687
 50
319.0719789677
 51
322.5093936497
  0
ARC
  8
CYAN
 10
21.2004949623
 20
42.726933937
 40
12.5936934
 50
317.7983544745
 51
321.94577144
  0
ARC
  8
CYAN
 10
27.5855294972
 20
38.4689762679
 40
4.9755728171
 50
315.2174497205
 51
324.5625011894
  0
ARC
  8
CYAN
 10
66.0588585762
 20
2.4457150986
 40
47.7791958205
 50
132.0759424849
 51
136.0864014886
  0
ARC
  8
CYAN
 10
78.9554571298
 20
-15.6024465008
 40
69.8633061779
 50
128.5863487347
 51
130.0073741184
  0
LINE
  8
CYAN
 10
35.3821759596
 20
39.0075408474
 11
36.6488239596
 21
39.8902428474
  0
ARC
  8
CYAN
 10
60.8683601017
 20
-0.0040796912
 40
46.6705785453
 50
117.8241898438
 51
121.2616152521
  0
LINE
  8
CYAN
 10
39.0843979596
 20
41.2706328474
 11
40.6324639596
 21
41.9669688474
  0
LINE
  8
CYAN
 10
40.6324639596
 20
41.9669688474
 11
42.2707759596
 21
42.5906808474
  0
ARC
  8
CYAN
 10
54.8814702699
 20
1.599243878
 40
42.8873817784
 50
104.7858350061
 51
107.1001043054
  0
LINE
  8
CYAN
 10
43.9363219596
 20
43.0664748474
 11
44.7335839596
 21
43.1989068474
  0
ARC
  8
CYAN
 10
45.0599866596
 20
41.2230989191
 40
2.0025872495
 50
73.5692219036
 51
99.3805184577
  0
LINE
  8
CYAN
 10
45.6264319596
 20
43.1439048474
 11
46.0226599596
 21
43.0274928474
  0
ARC
  8
CYAN
 10
45.6567416371
 20
42.0213036221
 40
1.0706600655
 50
47.6279893353
 51
70.0153177383
  0
ARC
  8
CYAN
 10
45.9768840826
 20
42.2790557603
 40
0.6674410654
 50
359.0633223805
 51
53.0275317094
  0
LINE
  8
CYAN
 10
46.6442359596
 20
42.2681448474
 11
42.0550399596
 21
9.2066028474
  0
LINE
  8
CYAN
 10
42.0550399596
 20
9.2066028474
 11
40.8321799596
 21
8.1754488474
  0
LINE
  8
CYAN
 10
40.8321799596
 20
8.1754488474
 11
39.3407179596
 21
7.3151748474
  0
ARC
  8
CYAN
 10
17.96813742
 20
52.6545505163
 40
50.1243073265
 50
291.2742625793
 51
295.2387751228
  0
LINE
  8
CYAN
 10
17.6560459596
 20
7.8545148474
 11
36.4154659596
 21
15.7614528474
  0
LINE
  8
CYAN
 10
36.4154659596
 20
15.7614528474
 11
35.6374279596
 21
17.6069568474
  0
LINE
  8
CYAN
 10
35.6374279596
 20
17.6069568474
 11
16.8785419596
 21
9.6994848474
  0
LINE
  8
CYAN
 10
16.8785419596
 20
9.6994848474
 11
17.6560459596
 21
7.8545148474
  0
ARC
  8
CYAN
 10
78.517629344
 20
3.8989923821
 40
1.334930566
 50
244.2513756652
 51
333.9545065292
  0
LINE
  8
CYAN
 10
77.9377039596
 20
2.6966088474
 11
68.9157739596
 21
7.0529808474
  0
LINE
  8
CYAN
 10
68.9157739596
 20
7.0529808474
 11
67.1551759596
 21
3.4522188474
  0
ARC
  8
CYAN
 10
66.5554660552
 20
3.745375183
 40
0.6675272328
 50
244.2566652709
 51
333.9492169235
  0
LINE
  8
CYAN
 10
66.2655319596
 20
3.1441008474
 11
63.5602879596
 21
4.4502648474
  0
ARC
  8
CYAN
 10
63.8509011786
 20
5.0512099446
 40
0.6675260692
 50
153.9668829045
 51
244.1918852622
  0
LINE
  8
CYAN
 10
63.2511019596
 20
5.3441808474
 11
66.9853639596
 21
12.9825168474
  0
LINE
  8
CYAN
 10
66.9853639596
 20
12.9825168474
 11
65.1863179596
 21
13.8620148474
  0
LINE
  8
CYAN
 10
65.1863179596
 20
13.8620148474
 11
61.4520559596
 21
6.2236788474
  0
ARC
  8
CYAN
 10
60.852547164
 20
6.5169038216
 40
0.6673767163
 50
243.6699442123
 51
333.9363403201
  0
LINE
  8
CYAN
 10
60.5565379596
 20
5.9187648474
 11
57.8646439596
 21
7.2510948474
  0
ARC
  8
CYAN
 10
58.1605300855
 20
7.8495617292
 40
0.6676160634
 50
153.9379661377
 51
243.6918930646
  0
LINE
  8
CYAN
 10
57.5607979596
 20
8.1428748474
 11
59.3213959596
 21
11.7436368474
  0
LINE
  8
CYAN
 10
59.3213959596
 20
11.7436368474
 11
50.3427199596
 21
16.1875848474
  0
ARC
  8
CYAN
 10
50.9434418506
 20
17.3870313943
 40
1.3414688998
 50
154.2127858896
 51
243.3967995506
  0
LINE
  8
CYAN
 10
49.7355619596
 20
17.9706108474
 11
55.3740679596
 21
29.6449188474
  0
ARC
  8
CYAN
 10
56.5734002995
 20
29.0591100613
 40
1.3347546574
 50
63.6594687169
 51
153.9670003203
  0
LINE
  8
CYAN
 10
57.1656379596
 20
30.2552808474
 11
59.4719839596
 21
29.5279728474
  0
LINE
  8
CYAN
 10
59.4719839596
 20
29.5279728474
 11
55.2325579596
 21
20.8558128474
  0
LINE
  8
CYAN
 10
55.2325579596
 20
20.8558128474
 11
57.0310699596
 21
19.9763148474
  0
LINE
  8
CYAN
 10
57.0310699596
 20
19.9763148474
 11
61.5657979596
 21
29.2513608474
  0
LINE
  8
CYAN
 10
61.5657979596
 20
29.2513608474
 11
66.9495859596
 21
26.5861668474
  0
LINE
  8
CYAN
 10
66.9495859596
 20
26.5861668474
 11
69.8780419596
 21
32.5771128474
  0
ARC
  8
CYAN
 10
71.0772177477
 20
31.9907167824
 40
1.3348718724
 50
63.6544615133
 51
153.9414013189
  0
LINE
  8
CYAN
 10
71.6696119596
 20
33.1869408474
 11
78.2538319596
 21
29.9679888474
  0
ARC
  8
CYAN
 10
77.6734121512
 20
28.7658444903
 40
1.3349300391
 50
333.950955134
 51
64.2278022026
  0
LINE
  8
CYAN
 10
78.8727379596
 20
28.1796228474
 11
75.9437479596
 21
22.1892108474
  0
LINE
  8
CYAN
 10
75.9437479596
 20
22.1892108474
 11
81.3537019596
 21
19.5768828474
  0
LINE
  8
CYAN
 10
81.3537019596
 20
19.5768828474
 11
76.8195079596
 21
10.3023708474
  0
LINE
  8
CYAN
 10
76.8195079596
 20
10.3023708474
 11
78.6180199596
 21
9.4228728474
  0
LINE
  8
CYAN
 10
78.6180199596
 20
9.4228728474
 11
82.8579799596
 21
18.0950328474
  0
LINE
  8
CYAN
 10
82.8579799596
 20
18.0950328474
 11
84.8481979596
 21
16.7215848474
  0
ARC
  8
CYAN
 10
84.2709695357
 20
15.5205449437
 40
1.3325500004
 50
333.8480317686
 51
64.330725568
  0
LINE
  8
CYAN
 10
85.4671039596
 20
14.9332188474
 11
79.7169919596
 21
3.3128448474
  0
ARC
  8
CYAN
 10
22.1808743576
 20
35.1457114438
 40
2.5063464373
 50
261.7626541602
 51
304.9916378598
  0
LINE
  8
CYAN
 10
21.8217799596
 20
32.6652228474
 11
21.2220979596
 21
32.7704208474
  0
LINE
  8
CYAN
 10
21.2220979596
 20
32.7704208474
 11
20.2811899596
 21
33.1783968474
  0
LINE
  8
CYAN
 10
20.2811899596
 20
33.1783968474
 11
19.3514959596
 21
33.7647288474
  0
LINE
  8
CYAN
 10
19.3514959596
 20
33.7647288474
 11
18.4522399596
 21
34.4664048474
  0
ARC
  8
CYAN
 10
51.8378181831
 20
72.8007727699
 40
50.8342463044
 50
222.1428430768
 51
228.9472427642
  0
LINE
  8
CYAN
 10
14.1455299596
 20
38.6919468474
 11
14.1359179596
 21
38.7282588474
  0
ARC
  8
CYAN
 10
74.5454780884
 20
91.4417243462
 40
80.1749611777
 50
216.3185984376
 51
221.1079956457
  0
ARC
  8
CYAN
 10
131.5770429622
 20
121.9097993173
 40
144.4679181011
 50
210.662031705
 51
212.6558441567
  0
ARC
  8
CYAN
 10
44.2943225612
 20
69.9082512002
 40
42.869335107
 50
205.0298107034
 51
210.3687957198
  0
ARC
  8
CYAN
 10
30.5678805413
 20
63.1285301759
 40
27.5655850905
 50
198.9251884009
 51
204.3324368337
  0
LINE
  8
CYAN
 10
4.4924119596
 20
54.1880928474
 11
4.1410399596
 21
55.3965348474
  0
LINE
  8
CYAN
 10
4.1410399596
 20
55.3965348474
 11
3.8948659596
 21
56.5958988474
  0
LINE
  8
CYAN
 10
3.8948659596
 20
56.5958988474
 11
3.7688419596
 21
57.7797768474
  0
LINE
  8
CYAN
 10
3.7688419596
 20
57.7797768474
 11
3.7763179596
 21
58.9428288474
  0
LINE
  8
CYAN
 10
3.7763179596
 20
58.9428288474
 11
3.7832599596
 21
59.3337168474
  0
LINE
  8
CYAN
 10
3.7832599596
 20
59.3337168474
 11
3.8932639596
 21
59.9360688474
  0
LINE
  8
CYAN
 10
3.8932639596
 20
59.9360688474
 11
4.4213899596
 21
61.2844188474
  0
LINE
  8
CYAN
 10
4.4213899596
 20
61.2844188474
 11
5.0867539596
 21
62.5815048474
  0
LINE
  8
CYAN
 10
5.0867539596
 20
62.5815048474
 11
5.8861519596
 21
63.7952868474
  0
LINE
  8
CYAN
 10
5.8861519596
 20
63.7952868474
 11
6.8142439596
 21
64.8931908474
  0
LINE
  8
CYAN
 10
6.8142439596
 20
64.8931908474
 11
7.8678259596
 21
65.8421088474
  0
LINE
  8
CYAN
 10
7.8678259596
 20
65.8421088474
 11
9.9627079596
 21
67.2139548474
  0
ARC
  8
CYAN
 10
11.0601761681
 20
65.5386129869
 40
2.0027997449
 50
102.5221244229
 51
123.2276535545
  0
ARC
  8
CYAN
 10
15.2059665745
 20
48.879150864
 40
19.1697876243
 50
97.9802305387
 51
103.8227603572
  0
LINE
  8
CYAN
 10
12.5445979596
 20
67.8632988474
 11
14.5364179596
 21
68.1660768474
  0
LINE
  8
CYAN
 10
14.5364179596
 20
68.1660768474
 11
15.6567499596
 21
68.2819548474
  0
LINE
  8
CYAN
 10
15.6567499596
 20
68.2819548474
 11
16.6318339596
 21
68.2290888474
  0
ARC
  8
CYAN
 10
-0.2685762381
 20
-26.8346890101
 40
96.5543666821
 50
78.3837859828
 51
79.9192950824
  0
ARC
  8
CYAN
 10
23.7332978019
 20
78.4452986177
 40
11.6341699397
 50
246.9233355198
 51
254.7581671184
  0
LINE
  8
CYAN
 10
20.6747479596
 20
67.2203628474
 11
21.8036239596
 21
66.6265548474
  0
LINE
  8
CYAN
 10
21.8036239596
 20
66.6265548474
 11
22.7840479596
 21
65.8522548474
  0
LINE
  8
CYAN
 10
22.7840479596
 20
65.8522548474
 11
23.6069419596
 21
64.9230948474
  0
LINE
  8
CYAN
 10
23.6069419596
 20
64.9230948474
 11
24.2621599596
 21
63.8647068474
  0
LINE
  8
CYAN
 10
24.2621599596
 20
63.8647068474
 11
24.7400899596
 21
62.7021888474
  0
LINE
  8
CYAN
 10
24.7400899596
 20
62.7021888474
 11
25.0316539596
 21
61.4611728474
  0
LINE
  8
CYAN
 10
25.0316539596
 20
61.4611728474
 11
25.1267059596
 21
60.1678248474
  0
LINE
  8
CYAN
 10
25.1267059596
 20
60.1678248474
 11
25.0156339596
 21
58.8467088474
  0
ARC
  8
CYAN
 10
-36.9842644902
 20
66.0685741166
 40
62.419089594
 50
349.1854534506
 51
353.3560200092
  0
LINE
  8
CYAN
 10
24.3262399596
 20
54.3568368474
 11
24.3107539596
 21
53.8644888474
  0
ARC
  8
CYAN
 10
100.774200873
 20
42.102498141
 40
77.3628020385
 50
171.2550210226
 51
174.761128284
  0
ARC
  8
CYAN
 10
69.2238878391
 20
45.5067622733
 40
45.6362888012
 50
175.4004870633
 51
179.502418311
  0
LINE
  8
CYAN
 10
23.5893199596
 20
45.9030828474
 11
23.7100039596
 21
43.6026108474
  0
LINE
  8
CYAN
 10
23.7100039596
 20
43.6026108474
 11
24.3054139596
 21
38.4788808474
  0
LINE
  8
CYAN
 10
24.3054139596
 20
38.4788808474
 11
24.3614839596
 21
38.1942588474
  0
LINE
  8
CYAN
 10
24.3614839596
 20
38.1942588474
 11
24.8105779596
 21
36.5527428474
  0
ARC
  8
CYAN
 10
22.8797522119
 20
36.0236957244
 40
2.0019937379
 50
359.3080564344
 51
15.3229941744
  0
LINE
  8
CYAN
 10
24.8815999596
 20
35.9995188474
 11
24.8687839596
 21
34.9630248474
  0
ARC
  8
CYAN
 10
23.3463942855
 20
34.9311737796
 40
1.5227228278
 50
332.3944172183
 51
1.1985535552
  0
LINE
  8
CYAN
 10
24.6957679596
 20
34.2255708474
 11
24.1265239596
 21
33.5329728474
  0
ARC
  8
CYAN
 10
22.5795754532
 20
34.8044697384
 40
2.0024370215
 50
301.2422933619
 51
320.5818903324
  0
LINE
  8
CYAN
 10
16.1229319596
 20
49.6101108474
 11
18.0880519596
 21
49.9945908474
  0
LINE
  8
CYAN
 10
18.0880519596
 20
49.9945908474
 11
14.7510859596
 21
67.0671048474
  0
LINE
  8
CYAN
 10
14.7510859596
 20
67.0671048474
 11
12.7859659596
 21
66.6831588474
  0
LINE
  8
CYAN
 10
12.7859659596
 20
66.6831588474
 11
16.1229319596
 21
49.6101108474
  0
LINE
  8
CYAN
 10
13.9682419596
 20
76.0100028474
 11
14.9748319596
 21
75.8380548474
  0
ARC
  8
CYAN
 10
14.7733864685
 20
74.6535134727
 40
1.2015483986
 50
64.3433276092
 51
80.348501415
  0
LINE
  8
CYAN
 10
15.2936299596
 20
75.7365948474
 11
15.8537959596
 21
75.4669248474
  0
ARC
  8
CYAN
 10
15.3336317405
 20
74.3845391751
 40
1.2008869882
 50
47.989214439
 51
64.3323651289
  0
LINE
  8
CYAN
 10
16.1373499596
 20
75.2768208474
 11
16.4438659596
 21
74.7011688474
  0
ARC
  8
CYAN
 10
15.0100882542
 20
74.0690744337
 40
1.5669275211
 50
327.5071081669
 51
23.7907359299
  0
LINE
  8
CYAN
 10
16.3317259596
 20
73.2273288474
 11
16.1223979596
 21
72.9277548474
  0
LINE
  8
CYAN
 10
16.1223979596
 20
72.9277548474
 11
15.6626239596
 21
72.5197788474
  0
ARC
  8
CYAN
 10
11.183058404
 20
78.97188631
 40
7.854692755
 50
294.9670774388
 51
304.7714527037
  0
ARC
  8
CYAN
 10
2.177577005
 20
99.5296526902
 40
30.2968873626
 50
287.1457557803
 51
293.9960103149
  0
ARC
  8
CYAN
 10
-2.1624116695
 20
116.8229317646
 40
48.1104609094
 50
281.1998512404
 51
286.0131049246
  0
LINE
  8
CYAN
 10
7.1821699596
 20
69.6287028474
 11
4.9708759596
 21
69.3574308474
  0
ARC
  8
CYAN
 10
1.6997163643
 20
96.9155439317
 40
27.7515780067
 50
270.1926799553
 51
276.7693587222
  0
ARC
  8
CYAN
 10
1.8487697916
 20
82.763140804
 40
13.5991321405
 50
260.008815868
 51
269.7652071854
  0
ARC
  8
CYAN
 10
1.2140607416
 20
77.9549385364
 40
8.7562265552
 50
249.1554213967
 51
258.6402993527
  0
LINE
  8
CYAN
 10
-1.9017040404
 20
69.7718148474
 11
-2.5318240404
 21
70.0703208474
  0
LINE
  8
CYAN
 10
-2.5318240404
 20
70.0703208474
 11
-2.7427540404
 21
70.1733828474
  0
LINE
  8
CYAN
 10
-2.7427540404
 20
70.1733828474
 11
-3.0423280404
 21
70.3859148474
  0
LINE
  8
CYAN
 10
-3.0423280404
 20
70.3859148474
 11
-3.6420100404
 21
71.0144328474
  0
LINE
  8
CYAN
 10
-3.6420100404
 20
71.0144328474
 11
-4.1792140404
 21
71.7048948474
  0
LINE
  8
CYAN
 10
-4.1792140404
 20
71.7048948474
 11
-4.6368520404
 21
72.4471548474
  0
LINE
  8
CYAN
 10
-4.6368520404
 20
72.4471548474
 11
-4.9983700404
 21
73.2299988474
  0
LINE
  8
CYAN
 10
-4.9983700404
 20
73.2299988474
 11
-5.2477480404
 21
74.0438148474
  0
LINE
  8
CYAN
 10
-5.2477480404
 20
74.0438148474
 11
-5.4629500404
 21
75.5304708474
  0
ARC
  8
CYAN
 10
-4.2737207286
 20
75.7038020169
 40
1.2017945125
 50
167.5964320372
 51
188.2925167454
  0
LINE
  8
CYAN
 10
-5.4474640404
 20
75.9619428474
 11
-5.3171680404
 21
76.5536148474
  0
LINE
  8
CYAN
 10
-5.3171680404
 20
76.5536148474
 11
2.9000239596
 21
75.4653228474
  0
LINE
  8
CYAN
 10
2.9000239596
 20
75.4653228474
 11
3.1627519596
 21
77.4502008474
  0
LINE
  8
CYAN
 10
3.1627519596
 20
77.4502008474
 11
-4.7399140404
 21
78.4968408474
  0
LINE
  8
CYAN
 10
-4.7399140404
 20
78.4968408474
 11
-4.6016080404
 21
78.8984088474
  0
LINE
  8
CYAN
 10
-4.6016080404
 20
78.8984088474
 11
-4.3255300404
 21
79.4147868474
  0
LINE
  8
CYAN
 10
-4.3255300404
 20
79.4147868474
 11
-3.4171960404
 21
80.6739588474
  0
ARC
  8
CYAN
 10
-7.8861014894
 20
85.6749973798
 40
6.7068250548
 50
311.7838299031
 51
319.9399035896
  0
LINE
  8
CYAN
 10
-2.7529000404
 20
81.3585468474
 11
-2.1441400404
 21
81.8215248474
  0
LINE
  8
CYAN
 10
-2.1441400404
 20
81.8215248474
 11
-1.4745040404
 21
82.1590128474
  0
LINE
  8
CYAN
 10
-1.4745040404
 20
82.1590128474
 11
-0.7605460404
 21
82.3710108474
  0
LINE
  8
CYAN
 10
-0.7605460404
 20
82.3710108474
 11
-0.0188200404
 21
82.4591208474
  0
LINE
  8
CYAN
 10
-0.0188200404
 20
82.4591208474
 11
0.7346539596
 21
82.4249448474
  0
LINE
  8
CYAN
 10
0.7346539596
 20
82.4249448474
 11
1.4833219596
 21
82.2690168474
  0
LINE
  8
CYAN
 10
1.4833219596
 20
82.2690168474
 11
2.2111639596
 21
81.9929388474
  0
LINE
  8
CYAN
 10
2.2111639596
 20
81.9929388474
 11
2.9016259596
 21
81.5977788474
  0
ARC
  8
CYAN
 10
-22.4902771457
 20
40.9058112591
 40
47.9644135742
 50
55.1025928031
 51
58.035719891
  0
ARC
  8
CYAN
 10
6.1829423087
 20
81.7290026019
 40
1.9288611469
 50
230.2898098461
 51
247.1132111386
  0
LINE
  8
CYAN
 10
5.4327859596
 20
79.9519908474
 11
6.2209699596
 21
79.4382828474
  0
ARC
  8
CYAN
 10
22.0744984133
 20
103.6045396851
 40
28.9022894245
 50
236.7343561998
 51
244.3859283934
  0
LINE
  8
CYAN
 10
9.5798299596
 20
77.5425828474
 11
10.8614299596
 21
77.0256708474
  0
LINE
  8
CYAN
 10
10.8614299596
 20
77.0256708474
 11
13.7994979596
 21
76.0511208474
  0
LINE
  8
CYAN
 10
13.7994979596
 20
76.0511208474
 11
13.9682419596
 21
76.0100028474
  0
ARC
  8
CYAN
 10
84.2025564384
 20
115.2544769356
 40
2.0028099739
 50
46.7870578996
 51
79.2267821251
  0
ARC
  8
CYAN
 10
83.9659723259
 20
115.429143603
 40
2.0583228359
 50
341.2560389365
 51
38.6307670901
  0
ARC
  8
CYAN
 10
194.5560839483
 20
18.3121173331
 40
145.2809028011
 50
138.4001023411
 51
140.1418092181
  0
LINE
  8
CYAN
 10
83.0336659596
 20
111.4211448474
 11
82.0382899596
 21
110.3130948474
  0
LINE
  8
CYAN
 10
82.0382899596
 20
110.3130948474
 11
80.9804359596
 21
109.2787368474
  0
LINE
  8
CYAN
 10
80.9804359596
 20
109.2787368474
 11
79.8515599596
 21
108.3848208474
  0
LINE
  8
CYAN
 10
79.8515599596
 20
108.3848208474
 11
78.6409819596
 21
107.6986308474
  0
LINE
  8
CYAN
 10
78.6409819596
 20
107.6986308474
 11
78.6431179596
 21
107.6649888474
  0
LINE
  8
CYAN
 10
78.6431179596
 20
107.6649888474
 11
77.4378799596
 21
106.7518488474
  0
LINE
  8
CYAN
 10
77.4378799596
 20
106.7518488474
 11
76.1824459596
 21
105.9081288474
  0
LINE
  8
CYAN
 10
76.1824459596
 20
105.9081288474
 11
74.8266199596
 21
105.3992268474
  0
LINE
  8
CYAN
 10
74.8266199596
 20
105.3992268474
 11
73.3202059596
 21
105.4910748474
  0
ARC
  8
CYAN
 10
114.0163241578
 20
436.6162642171
 40
333.6166438767
 50
261.6412004953
 51
262.9933422584
  0
ARC
  8
CYAN
 10
80.3483101244
 20
207.161993071
 40
101.705473722
 50
257.9946338638
 51
261.615412362
  0
LINE
  8
CYAN
 10
59.1932359596
 20
107.6810088474
 11
55.2918319596
 21
108.1429188474
  0
LINE
  8
CYAN
 10
55.2918319596
 20
108.1429188474
 11
53.0757319596
 21
108.5647788474
  0
LINE
  8
CYAN
 10
53.0757319596
 20
108.5647788474
 11
52.0734139596
 21
108.6977448474
  0
LINE
  8
CYAN
 10
52.0734139596
 20
108.6977448474
 11
51.1399819596
 21
108.6865308474
  0
LINE
  8
CYAN
 10
51.1399819596
 20
108.6865308474
 11
50.2738339596
 21
108.4611828474
  0
LINE
  8
CYAN
 10
50.2738339596
 20
108.4611828474
 11
49.4739019596
 21
107.9522808474
  0
LINE
  8
CYAN
 10
49.4739019596
 20
107.9522808474
 11
48.7391179596
 21
107.0909388474
  0
LINE
  8
CYAN
 10
48.7391179596
 20
107.0909388474
 11
48.0678799596
 21
105.8072028474
  0
LINE
  8
CYAN
 10
48.0678799596
 20
105.8072028474
 11
46.9021579596
 21
101.9725488474
  0
ARC
  8
CYAN
 10
-1.7123174953
 20
116.995498994
 40
50.8827697247
 50
339.8488454693
 51
342.827692051
  0
ARC
  8
CYAN
 10
20.4140690074
 20
109.1890391066
 40
27.4230696237
 50
333.7578300878
 51
339.2347963636
  0
LINE
  8
CYAN
 10
45.0107299596
 20
97.0634868474
 11
44.3752699596
 21
95.9180568474
  0
LINE
  8
CYAN
 10
44.3752699596
 20
95.9180568474
 11
43.6431559596
 21
94.8196188474
  0
LINE
  8
CYAN
 10
43.6431559596
 20
94.8196188474
 11
42.8005039596
 21
93.7740468474
  0
LINE
  8
CYAN
 10
42.8005039596
 20
93.7740468474
 11
41.8307599596
 21
92.7888168474
  0
LINE
  8
CYAN
 10
41.8307599596
 20
92.7888168474
 11
40.6335319596
 21
92.0123808474
  0
ARC
  8
CYAN
 10
23.7882366247
 20
120.2600582749
 40
32.8891358197
 50
296.0436403633
 51
300.8094272565
  0
ARC
  8
CYAN
 10
12.494674949
 20
145.1976726333
 40
60.2584234276
 50
291.4537367097
 51
295.2808707895
  0
LINE
  8
CYAN
 10
34.5341839596
 20
89.1143628474
 11
33.2643319596
 21
88.6059948474
  0
LINE
  8
CYAN
 10
33.2643319596
 20
88.6059948474
 11
27.1810039596
 21
86.6542248474
  0
ARC
  8
CYAN
 10
-5.0370694065
 20
187.1361664515
 40
105.5207318017
 50
283.6299416484
 51
287.7776926176
  0
ARC
  8
CYAN
 10
7.4545271288
 20
136.3844855094
 40
53.2549803008
 50
276.6083668213
 51
283.4360963366
  0
LINE
  8
CYAN
 10
13.5832279596
 20
83.4833328474
 11
13.5485179596
 21
83.4982848474
  0
ARC
  8
CYAN
 10
11.7850526538
 20
123.7031251626
 40
40.2434963026
 50
268.4552239443
 51
272.5114985572
  0
LINE
  8
CYAN
 10
10.7001619596
 20
83.4742548474
 11
9.2396719596
 21
83.5799868474
  0
LINE
  8
CYAN
 10
9.2396719596
 20
83.5799868474
 11
7.8058819596
 21
83.8085388474
  0
LINE
  8
CYAN
 10
7.8058819596
 20
83.8085388474
 11
6.4372399596
 21
84.1924848474
  0
LINE
  8
CYAN
 10
6.4372399596
 20
84.1924848474
 11
5.1716599596
 21
84.7649328474
  0
LINE
  8
CYAN
 10
5.1716599596
 20
84.7649328474
 11
4.0475899596
 21
85.5595248474
  0
LINE
  8
CYAN
 10
4.0475899596
 20
85.5595248474
 11
3.5541739596
 21
85.8692448474
  0
ARC
  8
CYAN
 10
-8.6605043537
 20
72.4648158824
 40
18.1349684911
 50
47.6589040944
 51
50.5692286198
  0
ARC
  8
CYAN
 10
4.1354473066
 20
88.0124748523
 40
2.0012359424
 50
212.1912322567
 51
230.3266293793
  0
LINE
  8
CYAN
 10
2.4418519596
 20
86.9463228474
 11
1.8678019596
 21
87.6036768474
  0
LINE
  8
CYAN
 10
1.8678019596
 20
87.6036768474
 11
1.1741359596
 21
88.6593948474
  0
ARC
  8
CYAN
 10
22.1751053149
 20
100.6769485018
 40
24.1963284343
 50
197.4607038381
 51
209.7798320675
  0
ARC
  8
CYAN
 10
32.9235453571
 20
103.7938740072
 40
35.3856465457
 50
190.5464671699
 51
197.0530227891
  0
ARC
  8
CYAN
 10
51.1011897408
 20
106.881897602
 40
53.8222100847
 50
186.0657628679
 51
190.2364191964
  0
LINE
  8
CYAN
 10
-2.4196840404
 20
101.1945108474
 11
-2.6322160404
 21
104.5517688474
  0
LINE
  8
CYAN
 10
-2.6322160404
 20
104.5517688474
 11
-2.6776060404
 21
106.0229388474
  0
LINE
  8
CYAN
 10
-2.6776060404
 20
106.0229388474
 11
-2.6097880404
 21
107.6858148474
  0
LINE
  8
CYAN
 10
-2.6097880404
 20
107.6858148474
 11
-2.3732260404
 21
109.3721868474
  0
LINE
  8
CYAN
 10
-2.3732260404
 20
109.3721868474
 11
-1.9134520404
 21
110.9143788474
  0
ARC
  8
CYAN
 10
-43.7915554028
 20
136.7746874954
 40
49.2192147906
 50
328.3040955457
 51
331.8104700122
  0
LINE
  8
CYAN
 10
-0.4102420404
 20
113.5240368474
 11
1.2003019596
 21
115.2045348474
  0
LINE
  8
CYAN
 10
1.2003019596
 20
115.2045348474
 11
2.4573379596
 21
116.2671948474
  0
LINE
  8
CYAN
 10
2.4573379596
 20
116.2671948474
 11
3.5947579596
 21
117.0916908474
  0
LINE
  8
CYAN
 10
3.5947579596
 20
117.0916908474
 11
5.0018479596
 21
117.8115228474
  0
LINE
  8
CYAN
 10
5.0018479596
 20
117.8115228474
 11
6.5381659596
 21
118.4063988474
  0
LINE
  8
CYAN
 10
6.5381659596
 20
118.4063988474
 11
8.0638039596
 21
118.8549588474
  0
ARC
  8
CYAN
 10
16.0842239816
 20
82.7031581093
 40
37.0307957507
 50
98.1772605309
 51
102.5086990052
  0
LINE
  8
CYAN
 10
10.8171079596
 20
119.3574528474
 11
12.2685199596
 21
119.4129888474
  0
LINE
  8
CYAN
 10
12.2685199596
 20
119.4129888474
 11
13.7605159596
 21
119.3120628474
  0
LINE
  8
CYAN
 10
13.7605159596
 20
119.3120628474
 11
15.2589199596
 21
119.0664228474
  0
LINE
  8
CYAN
 10
15.2589199596
 20
119.0664228474
 11
16.7311579596
 21
118.6856808474
  0
LINE
  8
CYAN
 10
16.7311579596
 20
118.6856808474
 11
18.1441219596
 21
118.1810508474
  0
LINE
  8
CYAN
 10
18.1441219596
 20
118.1810508474
 11
20.8926199596
 21
116.9021208474
  0
LINE
  8
CYAN
 10
20.8926199596
 20
116.9021208474
 11
22.9383739596
 21
115.7817888474
  0
ARC
  8
CYAN
 10
54.7133844103
 20
160.5315780398
 40
54.8834667447
 50
234.6229838004
 51
236.478758331
  0
LINE
  8
CYAN
 10
24.4042039596
 20
114.7762668474
 11
24.6877579596
 21
114.6582528474
  0
LINE
  8
CYAN
 10
24.6877579596
 20
114.6582528474
 11
25.0300519596
 21
114.4275648474
  0
LINE
  8
CYAN
 10
25.0300519596
 20
114.4275648474
 11
25.6607059596
 21
114.0842028474
  0
LINE
  8
CYAN
 10
25.6607059596
 20
114.0842028474
 11
26.0062039596
 21
113.7979788474
  0
ARC
  8
CYAN
 10
23.2338231067
 20
107.9685969966
 40
6.4550591287
 50
56.0164051185
 51
64.5648258788
  0
LINE
  8
CYAN
 10
26.8419139596
 20
113.3211168474
 11
27.3171739596
 21
113.0551848474
  0
LINE
  8
CYAN
 10
27.3171739596
 20
113.0551848474
 11
28.1528839596
 21
112.4811348474
  0
LINE
  8
CYAN
 10
28.1528839596
 20
112.4811348474
 11
29.1514639596
 21
111.9081528474
  0
LINE
  8
CYAN
 10
29.1514639596
 20
111.9081528474
 11
30.2814079596
 21
111.3543948474
  0
LINE
  8
CYAN
 10
30.2814079596
 20
111.3543948474
 11
31.5112099596
 21
110.8369488474
  0
LINE
  8
CYAN
 10
31.5112099596
 20
110.8369488474
 11
32.8093639596
 21
110.3729028474
  0
LINE
  8
CYAN
 10
32.8093639596
 20
110.3729028474
 11
34.1454319596
 21
109.9804128474
  0
LINE
  8
CYAN
 10
34.1454319596
 20
109.9804128474
 11
35.4873739596
 21
109.6765668474
  0
LINE
  8
CYAN
 10
35.4873739596
 20
109.6765668474
 11
36.8042179596
 21
109.4784528474
  0
LINE
  8
CYAN
 10
36.8042179596
 20
109.4784528474
 11
38.0639239596
 21
109.4042268474
  0
LINE
  8
CYAN
 10
38.0639239596
 20
109.4042268474
 11
39.2355199596
 21
109.4709768474
  0
LINE
  8
CYAN
 10
39.2355199596
 20
109.4709768474
 11
40.2880339596
 21
109.6963248474
  0
LINE
  8
CYAN
 10
40.2880339596
 20
109.6963248474
 11
41.0233519596
 21
110.1480888474
  0
LINE
  8
CYAN
 10
41.0233519596
 20
110.1480888474
 11
41.6764339596
 21
110.8284048474
  0
LINE
  8
CYAN
 10
41.6764339596
 20
110.8284048474
 11
42.2713099596
 21
111.6747948474
  0
ARC
  8
CYAN
 10
0.7001241351
 20
136.7772549805
 40
48.5623001473
 50
328.8746247451
 51
331.5098709136
  0
LINE
  8
CYAN
 10
43.3814959596
 20
113.6126808474
 11
43.9453999596
 21
114.5786868474
  0
LINE
  8
CYAN
 10
43.9453999596
 20
114.5786868474
 11
44.5461499596
 21
115.4587188474
  0
LINE
  8
CYAN
 10
44.5461499596
 20
115.4587188474
 11
45.2093779596
 21
116.1902988474
  0
LINE
  8
CYAN
 10
45.2093779596
 20
116.1902988474
 11
45.9575119596
 21
116.7104148474
  0
LINE
  8
CYAN
 10
45.9575119596
 20
116.7104148474
 11
46.8151159596
 21
116.9555208474
  0
LINE
  8
CYAN
 10
46.8151159596
 20
116.9555208474
 11
47.8062199596
 21
116.8636728474
  0
LINE
  8
CYAN
 10
47.8062199596
 20
116.8636728474
 11
47.9135539596
 21
116.7691548474
  0
ARC
  8
CYAN
 10
25.4165388869
 20
51.0246359727
 40
69.4871027547
 50
68.5889290374
 51
71.1096458131
  0
ARC
  8
CYAN
 10
71.9731250806
 20
170.015031389
 40
58.2870754664
 50
248.6820594195
 51
251.7986463687
  0
LINE
  8
CYAN
 10
53.7667279596
 20
114.6443688474
 11
55.2939679596
 21
114.2187708474
  0
LINE
  8
CYAN
 10
55.2939679596
 20
114.2187708474
 11
56.8398979596
 21
113.9298768474
  0
ARC
  8
CYAN
 10
17.2888823493
 20
-183.4593299411
 40
300.0077051512
 50
81.3702115068
 51
82.4244535333
  0
LINE
  8
CYAN
 10
62.3048539596
 20
113.1518388474
 11
63.7327699596
 21
113.0135328474
  0
LINE
  8
CYAN
 10
63.7327699596
 20
113.0135328474
 11
65.1740359596
 21
112.9873668474
  0
LINE
  8
CYAN
 10
65.1740359596
 20
112.9873668474
 11
66.6217099596
 21
113.1096528474
  0
LINE
  8
CYAN
 10
66.6217099596
 20
113.1096528474
 11
68.0656459596
 21
113.4167028474
  0
ARC
  8
CYAN
 10
86.2956535598
 20
71.2924600155
 40
45.8997277907
 50
109.8032070609
 51
113.401397596
  0
LINE
  8
CYAN
 10
70.7452579596
 20
114.4777608474
 11
72.2084179596
 21
114.5386368474
  0
LINE
  8
CYAN
 10
72.2084179596
 20
114.5386368474
 11
73.4601139596
 21
114.1210488474
  0
LINE
  8
CYAN
 10
73.4601139596
 20
114.1210488474
 11
74.8704079596
 21
113.7429768474
  0
LINE
  8
CYAN
 10
74.8704079596
 20
113.7429768474
 11
76.1076859596
 21
113.9090508474
  0
ARC
  8
CYAN
 10
-4.2132021409
 20
119.2765160169
 40
80.5000294882
 50
356.1768780724
 51
357.9184739611
  0
LINE
  8
CYAN
 10
76.2337099596
 20
116.3526348474
 11
76.4718739596
 21
117.4339848474
  0
LINE
  8
CYAN
 10
76.4718739596
 20
117.4339848474
 11
77.0982559596
 21
118.1767788474
  0
LINE
  8
CYAN
 10
77.0982559596
 20
118.1767788474
 11
78.0514459596
 21
118.3492608474
  0
ARC
  8
CYAN
 10
78.4068272997
 20
116.3782909575
 40
2.0027526566
 50
76.3120010091
 51
100.2210576686
  0
ARC
  8
CYAN
 10
61.9922393807
 20
45.4741863343
 40
74.7819550425
 50
74.7706781545
 51
76.9479170754
  0
LINE
  8
CYAN
 10
81.6361879596
 20
117.6299628474
 11
82.7757439596
 21
117.4451988474
  0
LINE
  8
CYAN
 10
82.7757439596
 20
117.4451988474
 11
83.9932639596
 21
117.3330588474
  0
LINE
  8
CYAN
 10
83.9932639596
 20
117.3330588474
 11
84.5769259596
 21
117.2219868474
  0
LINE
  8
CYAN
 10
1.6851739596
 20
101.5821948474
 11
18.9488599596
 21
99.4445928474
  0
LINE
  8
CYAN
 10
18.9488599596
 20
99.4445928474
 11
19.1950339596
 21
101.4316068474
  0
LINE
  8
CYAN
 10
19.1950339596
 20
101.4316068474
 11
1.9308139596
 21
103.5692088474
  0
LINE
  8
CYAN
 10
1.9308139596
 20
103.5692088474
 11
1.6851739596
 21
101.5821948474
  0
ARC
  8
CYAN
 10
180.339048058
 20
24.5452532638
 40
1.5020108017
 50
88.9750916977
 51
179.6067683412
  0
LINE
  8
CYAN
 10
180.365914631
 20
26.0470237642
 11
182.851684631
 21
26.0027017642
  0
LINE
  8
CYAN
 10
182.851684631
 20
26.0027017642
 11
182.818576631
 21
19.9952017642
  0
LINE
  8
CYAN
 10
182.818576631
 20
19.9952017642
 11
184.820542631
 21
19.9594237642
  0
LINE
  8
CYAN
 10
184.820542631
 20
19.9594237642
 11
184.853650631
 21
25.9669237642
  0
LINE
  8
CYAN
 10
184.853650631
 20
25.9669237642
 11
187.407772631
 21
25.9215337642
  0
ARC
  8
CYAN
 10
187.3809987541
 20
24.4200001493
 40
1.5017722987
 50
0.6287446725
 51
88.9784660267
  0
LINE
  8
CYAN
 10
188.882680631
 20
24.4364797642
 11
188.967052631
 21
16.8809137642
  0
ARC
  8
CYAN
 10
187.4649076744
 20
16.8643567407
 40
1.5022362016
 50
270.6518687291
 51
0.6315030718
  0
LINE
  8
CYAN
 10
187.481998631
 20
15.3622177642
 11
183.642538631
 21
15.3194977642
  0
LINE
  8
CYAN
 10
183.642538631
 20
15.3194977642
 11
183.796330631
 21
1.4969077642
  0
ARC
  8
CYAN
 10
182.2946407864
 20
1.4802725197
 40
1.5017819818
 50
268.9436617671
 51
0.634678538
  0
LINE
  8
CYAN
 10
182.266954631
 20
-0.0212542358
 11
179.666374631
 21
0.0268057642
  0
ARC
  8
CYAN
 10
179.6797759402
 20
0.7775571918
 40
0.7508710283
 50
179.6292603833
 51
268.9773487072
  0
LINE
  8
CYAN
 10
178.928920631
 20
0.7824157642
 11
178.937464631
 21
2.0736277642
  0
LINE
  8
CYAN
 10
178.937464631
 20
2.0736277642
 11
172.680052631
 21
2.0736277642
  0
LINE
  8
CYAN
 10
172.680052631
 20
2.0736277642
 11
172.731850631
 21
9.8267737642
  0
LINE
  8
CYAN
 10
172.731850631
 20
9.8267737642
 11
170.729350631
 21
9.8401237642
  0
LINE
  8
CYAN
 10
170.729350631
 20
9.8401237642
 11
170.695174631
 21
4.7153257642
  0
LINE
  8
CYAN
 10
170.695174631
 20
4.7153257642
 11
170.427106631
 21
2.0656177642
  0
LINE
  8
CYAN
 10
170.427106631
 20
2.0656177642
 11
169.609552631
 21
2.0624137642
  0
ARC
  8
CYAN
 10
169.6020068103
 20
4.0643974124
 40
2.0019978689
 50
241.4134908908
 51
270.2159566236
  0
ARC
  8
CYAN
 10
169.7099103453
 20
4.0014074936
 40
2.0022157487
 50
203.749811298
 51
237.8373119816
  0
LINE
  8
CYAN
 10
167.877256631
 20
3.1950277642
 11
167.919976631
 21
3.0978397642
  0
ARC
  8
CYAN
 10
169.3778715704
 20
3.8146873548
 40
1.6246009118
 50
180.6292427782
 51
206.1833661032
  0
LINE
  8
CYAN
 10
167.753368631
 20
3.7968457642
 11
167.633218631
 21
14.5628197642
  0
LINE
  8
CYAN
 10
167.633218631
 20
14.5628197642
 11
167.797690631
 21
15.7669897642
  0
ARC
  8
CYAN
 10
169.7807918757
 20
15.4955473102
 40
2.0015922543
 50
159.929629244
 51
172.2059166791
  0
LINE
  8
CYAN
 10
167.900752631
 20
16.1824417642
 11
168.074302631
 21
16.6593037642
  0
ARC
  8
CYAN
 10
169.9552308725
 20
15.9725738766
 40
2.0023708418
 50
133.5879962642
 51
159.942781747
  0
LINE
  8
CYAN
 10
168.574660631
 20
17.4229237642
 11
168.920158631
 21
17.7524017642
  0
LINE
  8
CYAN
 10
168.920158631
 20
17.7524017642
 11
169.367650631
 21
18.0551797642
  0
ARC
  8
CYAN
 10
170.4895132068
 20
16.3976128417
 40
2.0015253537
 50
102.7289002881
 51
124.0906463534
  0
LINE
  8
CYAN
 10
170.048500631
 20
18.3499477642
 11
171.047080631
 21
18.5758297642
  0
LINE
  8
CYAN
 10
171.047080631
 20
18.5758297642
 11
178.799692631
 21
18.8860837642
  0
LINE
  8
CYAN
 10
178.799692631
 20
18.8860837642
 11
178.837072631
 21
24.5555617642
  0
ARC
  8
CYAN
 10
238.6070984953
 20
13.4107959379
 40
48.1050889495
 50
168.995187667
 51
173.7844618497
  0
LINE
  8
CYAN
 10
191.386606631
 20
22.5936457642
 11
191.976142631
 21
24.7424617642
  0
ARC
  8
CYAN
 10
218.7089607802
 20
17.2922744741
 40
27.7515559358
 50
157.8516983461
 51
164.4273417643
  0
ARC
  8
CYAN
 10
205.56194427
 20
22.5328277806
 40
13.5993142188
 50
147.6637835609
 51
157.4192791175
  0
ARC
  8
CYAN
 10
201.3574868403
 20
24.9509014903
 40
8.7558919547
 50
136.8322016651
 51
146.3168428479
  0
LINE
  8
CYAN
 10
194.971348631
 20
30.9411337642
 11
195.487726631
 21
31.4105197642
  0
LINE
  8
CYAN
 10
195.487726631
 20
31.4105197642
 11
195.662878631
 21
31.5664477642
  0
LINE
  8
CYAN
 10
195.662878631
 20
31.5664477642
 11
195.973132631
 21
31.7629597642
  0
LINE
  8
CYAN
 10
195.973132631
 20
31.7629597642
 11
196.782676631
 21
32.0785537642
  0
LINE
  8
CYAN
 10
196.782676631
 20
32.0785537642
 11
197.625862631
 21
32.3124457642
  0
LINE
  8
CYAN
 10
197.625862631
 20
32.3124457642
 11
198.486136631
 21
32.4539557642
  0
LINE
  8
CYAN
 10
198.486136631
 20
32.4539557642
 11
199.348012631
 21
32.4908017642
  0
LINE
  8
CYAN
 10
199.348012631
 20
32.4908017642
 11
200.194936631
 21
32.4123037642
  0
LINE
  8
CYAN
 10
200.194936631
 20
32.4123037642
 11
201.652222631
 21
32.0459797642
  0
ARC
  8
CYAN
 10
201.3601823886
 20
30.8802315535
 40
1.2017721888
 50
55.2466353317
 51
75.935857449
  0
LINE
  8
CYAN
 10
202.045246631
 20
31.8676237642
 11
202.542934631
 21
31.5221257642
  0
LINE
  8
CYAN
 10
202.542934631
 20
31.5221257642
 11
198.412444631
 21
24.3355537642
  0
LINE
  8
CYAN
 10
198.412444631
 20
24.3355537642
 11
200.148478631
 21
23.3380417642
  0
LINE
  8
CYAN
 10
200.148478631
 20
23.3380417642
 11
204.120904631
 21
30.2496037642
  0
LINE
  8
CYAN
 10
204.120904631
 20
30.2496037642
 11
204.439168631
 21
29.9687197642
  0
LINE
  8
CYAN
 10
204.439168631
 20
29.9687197642
 11
204.812434631
 21
29.5174897642
  0
LINE
  8
CYAN
 10
204.812434631
 20
29.5174897642
 11
205.631590631
 21
28.1985097642
  0
ARC
  8
CYAN
 10
211.9555721867
 20
30.4310443052
 40
6.706485905
 50
199.4443936879
 51
207.601332421
  0
LINE
  8
CYAN
 10
206.012332631
 20
27.3238177642
 11
206.209378631
 21
26.5847617642
  0
LINE
  8
CYAN
 10
206.209378631
 20
26.5847617642
 11
206.266516631
 21
25.8371617642
  0
LINE
  8
CYAN
 10
206.266516631
 20
25.8371617642
 11
206.191756631
 21
25.0965037642
  0
LINE
  8
CYAN
 10
206.191756631
 20
25.0965037642
 11
205.990972631
 21
24.3766717642
  0
LINE
  8
CYAN
 10
205.990972631
 20
24.3766717642
 11
205.672708631
 21
23.6926177642
  0
LINE
  8
CYAN
 10
205.672708631
 20
23.6926177642
 11
205.243906631
 21
23.0592937642
  0
LINE
  8
CYAN
 10
205.243906631
 20
23.0592937642
 11
204.712042631
 21
22.4916517642
  0
LINE
  8
CYAN
 10
204.712042631
 20
22.4916517642
 11
204.084058631
 21
22.0030417642
  0
ARC
  8
CYAN
 10
176.0905107316
 20
60.9512637106
 40
47.9645985783
 50
302.7729986882
 51
305.7062193808
  0
ARC
  8
CYAN
 10
202.9577042172
 20
18.9174805902
 40
1.9287463038
 50
117.9289679585
 51
134.7478161012
  0
LINE
  8
CYAN
 10
201.599890631
 20
20.2872997642
 11
200.825056631
 21
19.7538337642
  0
ARC
  8
CYAN
 10
217.1514149618
 20
-4.0956849177
 40
28.9024137003
 50
124.3938695338
 51
132.0462156212
  0
LINE
  8
CYAN
 10
197.794606631
 20
17.3673877642
 11
196.829134631
 21
16.3784197642
  0
LINE
  8
CYAN
 10
196.829134631
 20
16.3784197642
 11
194.811682631
 21
14.0314897642
  0
ARC
  8
CYAN
 10
208.2276153727
 20
4.7269705209
 40
16.3267060266
 50
145.2570484334
 51
149.4509760236
  0
ARC
  8
CYAN
 10
193.1485198294
 20
13.6621541643
 40
1.2012532432
 50
311.9760960147
 51
327.9913851377
  0
LINE
  8
CYAN
 10
193.951942631
 20
12.7691137642
 11
193.489498631
 21
12.3536617642
  0
ARC
  8
CYAN
 10
192.6865958233
 20
13.2463082798
 40
1.2006126438
 50
295.6590271333
 51
311.9702196111
  0
LINE
  8
CYAN
 10
193.206478631
 20
12.1640917642
 11
192.557134631
 21
12.0989437642
  0
ARC
  8
CYAN
 10
192.5172233987
 20
13.6650960156
 40
1.5666607103
 50
215.1694102768
 51
271.4597880515
  0
LINE
  8
CYAN
 10
191.236552631
 20
12.7627057642
 11
191.039506631
 21
13.0702897642
  0
LINE
  8
CYAN
 10
191.039506631
 20
13.0702897642
 11
190.836586631
 21
13.6507477642
  0
ARC
  8
CYAN
 10
198.507025792
 20
15.3403793529
 40
7.8543294958
 50
182.6190426432
 51
192.422628991
  0
ARC
  8
CYAN
 10
220.9422509989
 20
15.7710809566
 40
30.2916433437
 50
174.6051157628
 51
181.4936848896
  0
ARC
  8
CYAN
 10
243.0270263492
 20
37.748646528
 40
2.0167456103
 50
339.8311728544
 51
83.9798041792
  0
LINE
  8
CYAN
 10
244.920106631
 20
37.0532977642
 11
244.483828631
 21
35.8966537642
  0
ARC
  8
CYAN
 10
242.6122920484
 20
36.6012110079
 40
1.9997625083
 50
330.511749117
 51
339.3706894338
  0
ARC
  8
CYAN
 10
191.9278402255
 20
64.6738011458
 40
59.9391721231
 50
328.4583215196
 51
331.0023212421
  0
ARC
  8
CYAN
 10
280.0236354789
 20
10.631331975
 40
43.4119699722
 50
148.4930685051
 51
152.0676201271
  0
LINE
  8
CYAN
 10
241.669114631
 20
30.9667657642
 11
241.112686631
 21
29.7657997642
  0
LINE
  8
CYAN
 10
241.112686631
 20
29.7657997642
 11
240.680680631
 21
28.5178417642
  0
LINE
  8
CYAN
 10
240.680680631
 20
28.5178417642
 11
240.406738631
 21
27.2015317642
  0
LINE
  8
CYAN
 10
240.406738631
 20
27.2015317642
 11
240.326638631
 21
25.7944417642
  0
LINE
  8
CYAN
 10
240.326638631
 20
25.7944417642
 11
240.127990631
 21
23.9302477642
  0
LINE
  8
CYAN
 10
240.127990631
 20
23.9302477642
 11
240.050026631
 21
22.0366837642
  0
ARC
  8
CYAN
 10
54.3431985093
 20
47.7708348152
 40
187.4813925203
 50
351.1021113749
 51
352.1105344675
  0
LINE
  8
CYAN
 10
239.568358631
 20
18.7723417642
 11
239.238880631
 21
17.4036997642
  0
LINE
  8
CYAN
 10
239.238880631
 20
17.4036997642
 11
238.792990631
 21
16.1536057642
  0
LINE
  8
CYAN
 10
238.792990631
 20
16.1536057642
 11
238.220008631
 21
15.0370117642
  0
LINE
  8
CYAN
 10
238.220008631
 20
15.0370117642
 11
237.508186631
 21
14.0704717642
  0
LINE
  8
CYAN
 10
237.508186631
 20
14.0704717642
 11
236.645776631
 21
13.2694717642
  0
LINE
  8
CYAN
 10
236.645776631
 20
13.2694717642
 11
235.621030631
 21
12.6505657642
  0
LINE
  8
CYAN
 10
235.621030631
 20
12.6505657642
 11
234.422734631
 21
12.2297737642
  0
LINE
  8
CYAN
 10
234.422734631
 20
12.2297737642
 11
233.402794631
 21
12.0775837642
  0
ARC
  8
CYAN
 10
233.1070355082
 20
14.0587212073
 40
2.0030923661
 50
257.6993167996
 51
278.4908383978
  0
LINE
  8
CYAN
 10
232.680292631
 20
12.1016137642
 11
230.843332631
 21
12.5026477642
  0
LINE
  8
CYAN
 10
230.843332631
 20
12.5026477642
 11
234.319672631
 21
20.8725637642
  0
LINE
  8
CYAN
 10
234.319672631
 20
20.8725637642
 11
232.469362631
 21
21.6383197642
  0
LINE
  8
CYAN
 10
232.469362631
 20
21.6383197642
 11
229.035208631
 21
13.3447657642
  0
LINE
  8
CYAN
 10
229.035208631
 20
13.3447657642
 11
228.038764631
 21
14.1772717642
  0
ARC
  8
CYAN
 10
229.3224273875
 20
15.7147546525
 40
2.0029088108
 50
217.6707926154
 51
230.1410928958
  0
LINE
  8
CYAN
 10
227.737054631
 20
14.4907297642
 11
227.146450631
 21
15.2564857642
  0
LINE
  8
CYAN
 10
227.146450631
 20
15.2564857642
 11
226.712842631
 21
16.2459877642
  0
LINE
  8
CYAN
 10
226.712842631
 20
16.2459877642
 11
226.523272631
 21
17.2862197642
  0
LINE
  8
CYAN
 10
226.523272631
 20
17.2862197642
 11
226.531282631
 21
18.3745117642
  0
LINE
  8
CYAN
 10
226.531282631
 20
18.3745117642
 11
226.689880631
 21
19.5108637642
  0
ARC
  8
CYAN
 10
264.3972325829
 20
11.6788768808
 40
38.5121332799
 50
164.5771660089
 51
168.2662458737
  0
LINE
  8
CYAN
 10
227.271940631
 20
21.9208057642
 11
227.603020631
 21
23.1927937642
  0
ARC
  8
CYAN
 10
309.773185943
 20
-2.3937757336
 40
86.0616558409
 50
159.9770948772
 51
162.7041869269
  0
ARC
  8
CYAN
 10
254.8291831634
 20
17.670462743
 40
27.5688153493
 50
149.7061713257
 51
160.0578932258
  0
LINE
  8
CYAN
 10
231.024892631
 20
31.5771277642
 11
231.690790631
 21
32.6008057642
  0
LINE
  8
CYAN
 10
231.690790631
 20
32.6008057642
 11
232.433584631
 21
33.5892397642
  0
LINE
  8
CYAN
 10
232.433584631
 20
33.5892397642
 11
233.265022631
 21
34.5445657642
  0
LINE
  8
CYAN
 10
233.265022631
 20
34.5445657642
 11
234.195250631
 21
35.4699877642
  0
LINE
  8
CYAN
 10
234.195250631
 20
35.4699877642
 11
235.235482631
 21
36.3671077642
  0
LINE
  8
CYAN
 10
235.235482631
 20
36.3671077642
 11
236.396932631
 21
37.2396637642
  0
ARC
  8
CYAN
 10
262.0758556574
 20
-4.8850346752
 40
49.3345447573
 50
118.3643867141
 51
121.3661943018
  0
LINE
  8
CYAN
 10
238.638130631
 20
38.5266037642
 11
239.945362631
 21
39.1423057642
  0
LINE
  8
CYAN
 10
239.945362631
 20
39.1423057642
 11
241.301188631
 21
39.6063517642
  0
LINE
  8
CYAN
 10
241.301188631
 20
39.6063517642
 11
242.386276631
 21
39.7772317642
  0
ARC
  8
CYAN
 10
242.7306824441
 20
36.7323788031
 40
3.0642690677
 50
80.4600357903
 51
96.4533443493
  0
LINE
  8
CYAN
 10
247.762054631
 20
33.8193937642
 11
247.793026631
 21
33.8412877642
  0
ARC
  8
CYAN
 10
318.7577496712
 20
-3.4699752907
 40
80.1755715098
 50
147.4763328174
 51
152.2658640016
  0
ARC
  8
CYAN
 10
367.7455475773
 20
-45.6730466945
 40
144.4671682454
 50
141.8130906637
 51
143.8067947833
  0
ARC
  8
CYAN
 10
287.7607801276
 20
16.9748161522
 40
42.8690764972
 50
136.1965649828
 51
141.5353800537
  0
ARC
  8
CYAN
 10
276.4773359125
 20
27.3205417567
 40
27.5665731934
 50
130.074571936
 51
135.4825087569
  0
LINE
  8
CYAN
 10
258.730414631
 20
48.4146817642
 11
259.730596631
 21
49.1783017642
  0
LINE
  8
CYAN
 10
259.730596631
 20
49.1783017642
 11
260.760148631
 21
49.8404617642
  0
LINE
  8
CYAN
 10
260.760148631
 20
49.8404617642
 11
261.819070631
 21
50.3856757642
  0
LINE
  8
CYAN
 10
261.819070631
 20
50.3856757642
 11
262.906294631
 21
50.7979237642
  0
LINE
  8
CYAN
 10
262.906294631
 20
50.7979237642
 11
262.936198631
 21
50.7824377642
  0
LINE
  8
CYAN
 10
262.936198631
 20
50.7824377642
 11
263.273152631
 21
50.9324917642
  0
LINE
  8
CYAN
 10
263.273152631
 20
50.9324917642
 11
263.874970631
 21
51.0478357642
  0
LINE
  8
CYAN
 10
263.874970631
 20
51.0478357642
 11
265.322644631
 21
51.0419617642
  0
LINE
  8
CYAN
 10
265.322644631
 20
51.0419617642
 11
266.772988631
 21
50.8892377642
  0
LINE
  8
CYAN
 10
266.772988631
 20
50.8892377642
 11
268.192894631
 21
50.5821877642
  0
LINE
  8
CYAN
 10
268.192894631
 20
50.5821877642
 11
269.551924631
 21
50.1122677642
  0
LINE
  8
CYAN
 10
269.551924631
 20
50.1122677642
 11
270.817504631
 21
49.4725357642
  0
LINE
  8
CYAN
 10
270.817504631
 20
49.4725357642
 11
272.852578631
 21
48.0136477642
  0
ARC
  8
CYAN
 10
271.6864396958
 20
46.3853789383
 40
2.0027829102
 50
33.6858988209
 51
54.3903942482
  0
ARC
  8
CYAN
 10
257.6453562835
 20
36.5066497197
 40
19.1702460733
 50
29.1357480359
 51
34.9779309874
  0
LINE
  8
CYAN
 10
274.389964631
 20
45.8402677642
 11
275.391214631
 21
44.0919517642
  0
LINE
  8
CYAN
 10
275.391214631
 20
44.0919517642
 11
275.903854631
 21
43.0890997642
  0
LINE
  8
CYAN
 10
275.903854631
 20
43.0890997642
 11
276.206098631
 21
42.1604737642
  0
ARC
  8
CYAN
 10
181.4517113424
 20
23.6120911535
 40
96.55276489
 50
9.5403151351
 51
11.0757239042
  0
ARC
  8
CYAN
 10
288.2973874087
 20
39.2261023436
 40
11.6348086305
 50
178.0850247989
 51
185.9192343777
  0
LINE
  8
CYAN
 10
276.724612631
 20
38.0262457642
 11
276.578296631
 21
36.7590637642
  0
LINE
  8
CYAN
 10
276.578296631
 20
36.7590637642
 11
276.209836631
 21
35.5655737642
  0
LINE
  8
CYAN
 10
276.209836631
 20
35.5655737642
 11
275.640592631
 21
34.4628637642
  0
LINE
  8
CYAN
 10
275.640592631
 20
34.4628637642
 11
274.889788631
 21
33.4696237642
  0
LINE
  8
CYAN
 10
274.889788631
 20
33.4696237642
 11
273.978250631
 21
32.6040097642
  0
LINE
  8
CYAN
 10
273.978250631
 20
32.6040097642
 11
272.925736631
 21
31.8841777642
  0
LINE
  8
CYAN
 10
272.925736631
 20
31.8841777642
 11
271.753606631
 21
31.3288177642
  0
LINE
  8
CYAN
 10
271.753606631
 20
31.3288177642
 11
270.481618631
 21
30.9560857642
  0
ARC
  8
CYAN
 10
254.8369881443
 20
91.3821606866
 40
62.4184667675
 50
280.3449089967
 51
284.5154498683
  0
LINE
  8
CYAN
 10
266.045680631
 20
29.9783317642
 11
265.581100631
 21
29.8149277642
  0
ARC
  8
CYAN
 10
282.2067732372
 20
-45.7397695676
 40
77.3622988187
 50
102.4100508243
 51
105.9163938418
  0
ARC
  8
CYAN
 10
273.9976250729
 20
-15.0867603316
 40
45.6360754338
 50
106.5588131473
 51
110.6606104778
  0
LINE
  8
CYAN
 10
257.895772631
 20
27.6143137642
 11
255.793948631
 21
26.6718037642
  0
LINE
  8
CYAN
 10
255.793948631
 20
26.6718037642
 11
251.230384631
 21
24.2672017642
  0
LINE
  8
CYAN
 10
251.230384631
 20
24.2672017642
 11
250.985278631
 21
24.1123417642
  0
LINE
  8
CYAN
 10
250.985278631
 20
24.1123417642
 11
249.616102631
 21
23.1009457642
  0
ARC
  8
CYAN
 10
248.4255605937
 20
24.7107714956
 40
2.0022310626
 50
290.4735435708
 51
306.4846720512
  0
LINE
  8
CYAN
 10
249.125890631
 20
22.8350137642
 11
248.154544631
 21
22.4734957642
  0
ARC
  8
CYAN
 10
247.5746128944
 20
23.8815029314
 40
1.5227622933
 50
263.577373951
 51
292.3858437294
  0
LINE
  8
CYAN
 10
247.404274631
 20
22.3682977642
 11
246.553078631
 21
22.6491817642
  0
ARC
  8
CYAN
 10
247.4514080467
 20
25.1032875056
 40
2.6133562193
 50
193.671507317
 51
249.8947653473
  0
LINE
  8
CYAN
 10
244.912096631
 20
24.4856077642
 11
244.794082631
 21
25.0831537642
  0
LINE
  8
CYAN
 10
244.794082631
 20
25.0831537642
 11
244.834666631
 21
26.1073657642
  0
LINE
  8
CYAN
 10
244.834666631
 20
26.1073657642
 11
245.046130631
 21
27.1860457642
  0
LINE
  8
CYAN
 10
245.046130631
 20
27.1860457642
 11
245.375608631
 21
28.2780757642
  0
ARC
  8
CYAN
 10
293.1753168359
 20
10.977000893
 40
50.8344302238
 50
153.2980853469
 51
160.1023081923
  0
LINE
  8
CYAN
 10
259.725790631
 20
34.2214957642
 11
274.443898631
 21
43.4954737642
  0
LINE
  8
CYAN
 10
274.443898631
 20
43.4954737642
 11
273.376432631
 21
45.1893217642
  0
LINE
  8
CYAN
 10
273.376432631
 20
45.1893217642
 11
258.658324631
 21
35.9158777642
  0
LINE
  8
CYAN
 10
258.658324631
 20
35.9158777642
 11
259.725790631
 21
34.2214957642
  0
ARC
  8
CYAN
 10
215.6529459451
 20
-108.8947472339
 40
143.8618117015
 50
93.5577134729
 51
97.0868909625
  0
ARC
  8
CYAN
 10
206.7261153757
 20
-36.3619289371
 40
70.7818449002
 50
97.1597950638
 51
103.3233274804
  0
ARC
  8
CYAN
 10
201.991605586
 20
-14.985992851
 40
48.8912309669
 50
103.6970694487
 51
108.0276378544
  0
LINE
  8
CYAN
 10
186.860956631
 20
31.5050377642
 11
186.703960631
 21
31.4676577642
  0
LINE
  8
CYAN
 10
186.703960631
 20
31.4676577642
 11
183.213202631
 21
30.4386397642
  0
LINE
  8
CYAN
 10
183.213202631
 20
30.4386397642
 11
181.379446631
 21
29.9740597642
  0
ARC
  8
CYAN
 10
226.6678121915
 20
-114.7491288969
 40
151.6437845458
 50
107.3765169616
 51
111.0889310432
  0
LINE
  8
CYAN
 10
172.103866631
 20
26.7380197642
 11
171.151210631
 21
26.3359177642
  0
LINE
  8
CYAN
 10
171.151210631
 20
26.3359177642
 11
170.796100631
 21
26.1191137642
  0
ARC
  8
CYAN
 10
181.9445621255
 20
-6.0277447363
 40
34.0251187381
 50
109.1264360621
 51
113.732589133
  0
LINE
  8
CYAN
 10
168.250522631
 20
25.1199997642
 11
167.426026631
 21
25.0292197642
  0
ARC
  8
CYAN
 10
167.279274584
 20
26.3563014283
 40
1.3351711151
 50
239.9464505441
 51
276.3102738427
  0
ARC
  8
CYAN
 10
149.3527471912
 20
-3.7957083954
 40
33.7434681103
 50
59.2400031306
 51
62.8834953177
  0
LINE
  8
CYAN
 10
164.733064631
 20
26.2387297642
 11
163.419424631
 21
26.9275897642
  0
LINE
  8
CYAN
 10
163.419424631
 20
26.9275897642
 11
162.632842631
 21
27.2527957642
  0
ARC
  8
CYAN
 10
156.4809093475
 20
16.7585318554
 40
12.1645327946
 50
59.6203725453
 51
65.0742966363
  0
LINE
  8
CYAN
 10
161.607562631
 20
27.7899997642
 11
160.653304631
 21
28.2919597642
  0
ARC
  8
CYAN
 10
160.0325980522
 20
27.1106327921
 40
1.3344699591
 50
62.2811427618
 51
78.6602266683
  0
LINE
  8
CYAN
 10
160.294990631
 20
28.4190517642
 11
158.973340631
 21
28.6849837642
  0
LINE
  8
CYAN
 10
158.973340631
 20
28.6849837642
 11
157.667710631
 21
28.8329017642
  0
ARC
  8
CYAN
 10
145.0937735135
 20
-17.0572154676
 40
47.5815799883
 50
74.6769775318
 51
78.4814934903
  0
LINE
  8
CYAN
 10
154.595074631
 20
29.5660837642
 11
152.964238631
 21
30.0546937642
  0
LINE
  8
CYAN
 10
152.964238631
 20
30.0546937642
 11
151.801720631
 21
30.7579717642
  0
LINE
  8
CYAN
 10
151.801720631
 20
30.7579717642
 11
150.856006631
 21
31.4713957642
  0
LINE
  8
CYAN
 10
150.856006631
 20
31.4713957642
 11
150.078502631
 21
32.2846777642
  0
LINE
  8
CYAN
 10
150.078502631
 20
32.2846777642
 11
149.455858631
 21
33.1855357642
  0
LINE
  8
CYAN
 10
149.455858631
 20
33.1855357642
 11
148.976326631
 21
34.1632897642
  0
LINE
  8
CYAN
 10
148.976326631
 20
34.1632897642
 11
148.626022631
 21
35.2061917642
  0
LINE
  8
CYAN
 10
148.626022631
 20
35.2061917642
 11
148.393198631
 21
36.3024937642
  0
LINE
  8
CYAN
 10
148.393198631
 20
36.3024937642
 11
148.265038631
 21
37.4409817642
  0
LINE
  8
CYAN
 10
148.265038631
 20
37.4409817642
 11
148.228726631
 21
38.6099077642
  0
ARC
  8
CYAN
 10
173.343590868
 20
38.1995048368
 40
25.1182172179
 50
173.6094565804
 51
179.0638108673
  0
ARC
  8
CYAN
 10
187.2850783071
 20
36.1723275185
 40
39.2014435015
 50
167.7087904332
 51
172.93298819
  0
ARC
  8
CYAN
 10
246.4563956589
 20
23.2197034679
 40
99.7738289994
 50
166.3914510475
 51
167.6747321059
  0
LINE
  8
CYAN
 10
149.483626631
 20
46.6952017642
 11
149.543968631
 21
48.1348657642
  0
LINE
  8
CYAN
 10
149.543968631
 20
48.1348657642
 11
149.459596631
 21
49.6177837642
  0
LINE
  8
CYAN
 10
149.459596631
 20
49.6177837642
 11
149.258278631
 21
51.1199257642
  0
LINE
  8
CYAN
 10
149.258278631
 20
51.1199257642
 11
148.970452631
 21
52.6172617642
  0
LINE
  8
CYAN
 10
148.970452631
 20
52.6172617642
 11
148.749910631
 21
56.2634137642
  0
ARC
  8
CYAN
 10
217.4698369677
 20
57.7721135732
 40
68.7364855869
 50
178.4847616699
 51
181.257688302
  0
ARC
  8
CYAN
 10
195.4325489227
 20
57.3300991662
 40
46.7298252706
 50
171.9123464791
 51
177.22840644
  0
ARC
  8
CYAN
 10
256.8115471463
 20
48.1758171579
 40
108.7870861855
 50
169.3723775849
 51
171.6869531287
  0
LINE
  8
CYAN
 10
149.890534631
 20
68.2388977642
 11
150.300646631
 21
69.7693417642
  0
LINE
  8
CYAN
 10
150.300646631
 20
69.7693417642
 11
150.614638631
 21
71.4594517642
  0
LINE
  8
CYAN
 10
150.614638631
 20
71.4594517642
 11
151.193494631
 21
72.9963037642
  0
ARC
  8
CYAN
 10
358.5017614807
 20
17.4481419307
 40
214.6213311563
 50
163.9687579833
 51
164.9999795908
  0
LINE
  8
CYAN
 10
152.226784631
 20
76.7182837642
 11
152.906566631
 21
78.5317477642
  0
LINE
  8
CYAN
 10
152.906566631
 20
78.5317477642
 11
153.330562631
 21
80.2699177642
  0
LINE
  8
CYAN
 10
153.330562631
 20
80.2699177642
 11
153.891796631
 21
82.0860517642
  0
ARC
  8
CYAN
 10
236.4632993395
 20
63.5939884665
 40
84.6168391312
 50
165.2225203864
 51
167.3767752557
  0
LINE
  8
CYAN
 10
154.645270631
 20
85.1768437642
 11
154.818820631
 21
86.4621817642
  0
LINE
  8
CYAN
 10
154.818820631
 20
86.4621817642
 11
154.861006631
 21
87.7923757642
  0
LINE
  8
CYAN
 10
154.861006631
 20
87.7923757642
 11
154.780372631
 21
89.1444637642
  0
LINE
  8
CYAN
 10
154.780372631
 20
89.1444637642
 11
154.586530631
 21
90.4970857642
  0
LINE
  8
CYAN
 10
154.586530631
 20
90.4970857642
 11
154.290160631
 21
91.8272797642
  0
LINE
  8
CYAN
 10
154.290160631
 20
91.8272797642
 11
153.899272631
 21
93.1126177642
  0
LINE
  8
CYAN
 10
153.899272631
 20
93.1126177642
 11
153.423478631
 21
94.3317397642
  0
LINE
  8
CYAN
 10
153.423478631
 20
94.3317397642
 11
152.412082631
 21
96.4244857642
  0
LINE
  8
CYAN
 10
152.412082631
 20
96.4244857642
 11
151.850848631
 21
97.4134537642
  0
ARC
  8
CYAN
 10
181.7405550238
 20
111.1412321555
 40
32.891434262
 50
201.2532736369
 51
204.6684264718
  0
LINE
  8
CYAN
 10
151.086160631
 20
99.2183737642
 11
151.019410631
 21
100.3563277642
  0
LINE
  8
CYAN
 10
151.019410631
 20
100.3563277642
 11
151.188154631
 21
101.6747737642
  0
LINE
  8
CYAN
 10
151.188154631
 20
101.6747737642
 11
151.538458631
 21
103.1037577642
  0
LINE
  8
CYAN
 10
151.538458631
 20
103.1037577642
 11
152.014786631
 21
104.5743937642
  0
ARC
  8
CYAN
 10
200.9018860476
 20
86.7089538459
 40
52.0492308573
 50
155.2047344537
 51
159.9255316376
  0
ARC
  8
CYAN
 10
171.9941233821
 20
100.5384086382
 40
20.0113051498
 50
150.4828364057
 51
156.4396986085
  0
ARC
  8
CYAN
 10
161.7766603002
 20
106.0340203724
 40
8.4161474604
 50
141.4375981625
 51
148.769339432
  0
LINE
  8
CYAN
 10
155.195824631
 20
111.2803657642
 11
155.901238631
 21
112.2180697642
  0
ARC
  8
CYAN
 10
157.500679865
 20
111.0128029472
 40
2.0027182431
 50
132.1377830707
 51
142.9999680769
  0
LINE
  8
CYAN
 10
156.157024631
 20
112.4978857642
 11
157.101670631
 21
113.3544217642
  0
ARC
  8
CYAN
 10
178.7909512796
 20
83.9884168626
 40
36.5073573261
 50
121.6599383533
 51
126.4490063226
  0
LINE
  8
CYAN
 10
159.629092631
 20
115.0626877642
 11
160.852486631
 21
115.8706297642
  0
LINE
  8
CYAN
 10
160.852486631
 20
115.8706297642
 11
162.102580631
 21
116.5247797642
  0
LINE
  8
CYAN
 10
162.102580631
 20
116.5247797642
 11
163.339324631
 21
117.0860137642
  0
LINE
  8
CYAN
 10
163.339324631
 20
117.0860137642
 11
164.572330631
 21
117.5575357642
  0
LINE
  8
CYAN
 10
164.572330631
 20
117.5575357642
 11
165.812278631
 21
117.9436177642
  0
LINE
  8
CYAN
 10
165.812278631
 20
117.9436177642
 11
167.069848631
 21
118.2485317642
  0
LINE
  8
CYAN
 10
167.069848631
 20
118.2485317642
 11
168.355186631
 21
118.4760157642
  0
ARC
  8
CYAN
 10
172.2128341208
 20
90.268069058
 40
28.4705058181
 50
89.425113774
 51
97.7873180457
  0
ARC
  8
CYAN
 10
169.5738555067
 20
80.3205316634
 40
38.5277748377
 50
81.3156875149
 51
85.646498813
  0
LINE
  8
CYAN
 10
175.391170631
 20
118.4065957642
 11
176.899186631
 21
118.0760497642
  0
ARC
  8
CYAN
 10
144.3922798568
 20
27.5028240215
 40
96.2299756284
 50
68.9964847756
 51
70.256838935
  0
LINE
  8
CYAN
 10
178.883530631
 20
117.3391297642
 11
180.298630631
 21
116.6807077642
  0
LINE
  8
CYAN
 10
180.298630631
 20
116.6807077642
 11
180.553882631
 21
116.5386637642
  0
LINE
  8
CYAN
 10
180.553882631
 20
116.5386637642
 11
182.281906631
 21
115.3852237642
  0
LINE
  8
CYAN
 10
182.281906631
 20
115.3852237642
 11
183.449764631
 21
114.3508657642
  0
LINE
  8
CYAN
 10
183.449764631
 20
114.3508657642
 11
184.558882631
 21
113.1466957642
  0
LINE
  8
CYAN
 10
184.558882631
 20
113.1466957642
 11
185.477896631
 21
111.9014077642
  0
LINE
  8
CYAN
 10
185.477896631
 20
111.9014077642
 11
186.294382631
 21
110.4985897642
  0
LINE
  8
CYAN
 10
186.294382631
 20
110.4985897642
 11
186.407056631
 21
110.2721737642
  0
LINE
  8
CYAN
 10
186.407056631
 20
110.2721737642
 11
187.300438631
 21
108.1634077642
  0
LINE
  8
CYAN
 10
187.300438631
 20
108.1634077642
 11
187.795990631
 21
106.3269817642
  0
LINE
  8
CYAN
 10
187.795990631
 20
106.3269817642
 11
188.030416631
 21
105.2157277642
  0
ARC
  8
CYAN
 10
147.0079021668
 20
103.5850220931
 40
41.0549131524
 50
354.5333574931
 51
2.2763935119
  0
ARC
  8
CYAN
 10
149.9215864316
 20
103.6456844773
 40
38.1617564254
 50
345.8932629102
 51
354.0259369617
  0
LINE
  8
CYAN
 10
186.932512631
 20
94.3445557642
 11
185.915242631
 21
91.0839517642
  0
LINE
  8
CYAN
 10
185.915242631
 20
91.0839517642
 11
185.280850631
 21
89.7494857642
  0
LINE
  8
CYAN
 10
185.280850631
 20
89.7494857642
 11
183.983764631
 21
86.6015557642
  0
ARC
  8
CYAN
 10
185.836705159
 20
85.8452595374
 40
2.001342695
 50
157.7966812856
 51
173.1303002983
  0
LINE
  8
CYAN
 10
183.849730631
 20
86.0846437642
 11
183.660694631
 21
84.5136157642
  0
ARC
  8
CYAN
 10
231.1194769677
 20
83.4561010313
 40
47.4705630712
 50
178.7235006321
 51
185.5053830839
  0
ARC
  8
CYAN
 10
278.251098517
 20
88.2773505361
 40
94.8477277044
 50
185.6728568441
 51
189.041382322
  0
LINE
  8
CYAN
 10
184.581844631
 20
73.3722397642
 11
185.013850631
 21
70.6413637642
  0
LINE
  8
CYAN
 10
185.013850631
 20
70.6413637642
 11
185.350804631
 21
69.0447037642
  0
LINE
  8
CYAN
 10
185.350804631
 20
69.0447037642
 11
185.774800631
 21
67.4549857642
  0
LINE
  8
CYAN
 10
185.774800631
 20
67.4549857642
 11
186.285304631
 21
65.9133277642
  0
LINE
  8
CYAN
 10
186.285304631
 20
65.9133277642
 11
186.882316631
 21
64.4603137642
  0
LINE
  8
CYAN
 10
186.882316631
 20
64.4603137642
 11
187.802398631
 21
63.3560017642
  0
ARC
  8
CYAN
 10
227.7034705958
 20
109.5959263748
 40
61.0755775408
 50
229.208635586
 51
231.8901912276
  0
LINE
  8
CYAN
 10
190.009420631
 20
61.5398677642
 11
191.061400631
 21
60.3282217642
  0
LINE
  8
CYAN
 10
191.061400631
 20
60.3282217642
 11
191.926480631
 21
59.1245857642
  0
LINE
  8
CYAN
 10
191.926480631
 20
59.1245857642
 11
192.629758631
 21
57.9038617642
  0
LINE
  8
CYAN
 10
192.629758631
 20
57.9038617642
 11
193.195264631
 21
56.6420197642
  0
LINE
  8
CYAN
 10
193.195264631
 20
56.6420197642
 11
193.648096631
 21
55.3139617642
  0
LINE
  8
CYAN
 10
193.648096631
 20
55.3139617642
 11
194.012284631
 21
53.8940557642
  0
LINE
  8
CYAN
 10
194.012284631
 20
53.8940557642
 11
194.313994631
 21
52.3502617642
  0
LINE
  8
CYAN
 10
194.313994631
 20
52.3502617642
 11
185.054434631
 21
43.7026657642
  0
LINE
  8
CYAN
 10
185.054434631
 20
43.7026657642
 11
186.421474631
 21
42.2395057642
  0
LINE
  8
CYAN
 10
186.421474631
 20
42.2395057642
 11
195.275194631
 21
50.5079617642
  0
LINE
  8
CYAN
 10
195.275194631
 20
50.5079617642
 11
197.435758631
 21
49.4581177642
  0
LINE
  8
CYAN
 10
197.435758631
 20
49.4581177642
 11
200.593300631
 21
48.5535217642
  0
ARC
  8
CYAN
 10
184.3724479876
 20
4.7681577061
 40
46.6934060246
 50
62.8441179242
 51
69.6722016147
  0
ARC
  8
CYAN
 10
173.405119043
 20
-16.2377662639
 40
70.3896451343
 50
59.2445966859
 51
62.7049241588
  0
LINE
  8
CYAN
 10
209.400562631
 20
44.2521517642
 11
210.186076631
 21
43.8126697642
  0
LINE
  8
CYAN
 10
210.186076631
 20
43.8126697642
 11
211.575010631
 21
42.9256957642
  0
ARC
  8
CYAN
 10
242.308848582
 20
83.5037200211
 40
50.9032891648
 50
232.8596739582
 51
235.7238918759
  0
ARC
  8
CYAN
 10
194.7374699652
 20
16.3907139312
 40
31.3822318082
 50
47.919453096
 51
52.9604678446
  0
ARC
  8
CYAN
 10
191.8578155782
 20
13.8722446057
 40
35.1841908908
 50
35.9658461173
 51
47.1874845424
  0
LINE
  8
CYAN
 10
220.334746631
 20
34.5360217642
 11
222.208552631
 21
31.3501777642
  0
LINE
  8
CYAN
 10
222.208552631
 20
31.3501777642
 11
222.759640631
 21
30.0819277642
  0
LINE
  8
CYAN
 10
222.759640631
 20
30.0819277642
 11
223.347574631
 21
28.4975497642
  0
LINE
  8
CYAN
 10
223.347574631
 20
28.4975497642
 11
223.828174631
 21
26.7951577642
  0
LINE
  8
CYAN
 10
223.828174631
 20
26.7951577642
 11
224.056192631
 21
25.1728657642
  0
LINE
  8
CYAN
 10
224.056192631
 20
25.1728657642
 11
223.975024631
 21
24.5336677642
  0
ARC
  8
CYAN
 10
222.6509485613
 20
24.7016978566
 40
1.3346953024
 50
298.1073351321
 51
352.7676155701
  0
LINE
  8
CYAN
 10
223.279756631
 20
23.5244077642
 11
222.966832631
 21
23.3567317642
  0
ARC
  8
CYAN
 10
222.3373439069
 20
24.5342303982
 40
1.3352000176
 50
274.6756487612
 51
298.1288825581
  0
LINE
  8
CYAN
 10
222.446182631
 20
23.2034737642
 11
221.229196631
 21
23.1041497642
  0
LINE
  8
CYAN
 10
221.229196631
 20
23.1041497642
 11
219.770308631
 21
23.1943957642
  0
LINE
  8
CYAN
 10
219.770308631
 20
23.1943957642
 11
219.564184631
 21
23.1847837642
  0
LINE
  8
CYAN
 10
219.564184631
 20
23.1847837642
 11
218.389918631
 21
23.0368657642
  0
ARC
  8
CYAN
 10
218.5551920578
 20
21.7122328119
 40
1.3349036534
 50
97.1119969647
 51
109.2823811587
  0
LINE
  8
CYAN
 10
218.114374631
 20
22.9722517642
 11
217.441534631
 21
22.7362237642
  0
ARC
  8
CYAN
 10
217.8841216943
 20
21.4768336269
 40
1.3348958111
 50
109.3629884468
 51
142.5974782529
  0
LINE
  8
CYAN
 10
216.823696631
 20
22.2876637642
 11
216.384748631
 21
21.7136137642
  0
LINE
  8
CYAN
 10
216.384748631
 20
21.7136137642
 11
216.178624631
 21
21.5272477642
  0
ARC
  8
CYAN
 10
217.0721836738
 20
20.5360521692
 40
1.3345098241
 50
132.0345390528
 51
168.5483165686
  0
ARC
  8
CYAN
 10
217.7294521365
 20
20.2800153241
 40
2.0330984689
 50
165.1520143876
 51
180.4719204551
  0
ARC
  8
CYAN
 10
244.9970041223
 20
21.2543515408
 40
29.3173381946
 50
181.9372708309
 51
185.7410795759
  0
LINE
  8
CYAN
 10
215.826718631
 20
18.3216457642
 11
215.806960631
 21
17.4581677642
  0
ARC
  8
CYAN
 10
214.4719277722
 20
17.4878813919
 40
1.3353634837
 50
341.6891730958
 51
358.7249868667
  0
LINE
  8
CYAN
 10
215.739676631
 20
17.0683477642
 11
215.616322631
 21
16.6956157642
  0
ARC
  8
CYAN
 10
214.2519019667
 20
17.1761454915
 40
1.4465657842
 50
307.8207701361
 51
340.5984547114
  0
ARC
  8
CYAN
 10
214.2658313713
 20
17.0427138276
 40
1.3345025931
 50
269.564611404
 51
310.8626316001
  0
ARC
  8
CYAN
 10
214.2678705804
 20
41.3850676109
 40
25.6768207355
 50
265.5033623672
 51
269.9728214125
  0
LINE
  8
CYAN
 10
212.254792631
 20
15.7872817642
 11
211.010572631
 21
15.9667057642
  0
LINE
  8
CYAN
 10
211.010572631
 20
15.9667057642
 11
209.847520631
 21
16.2945817642
  0
LINE
  8
CYAN
 10
209.847520631
 20
16.2945817642
 11
208.984576631
 21
16.7319277642
  0
ARC
  8
CYAN
 10
209.5877063005
 20
17.9238487719
 40
1.3358297372
 50
227.7965647141
 51
243.1599145573
  0
LINE
  8
CYAN
 10
208.690342631
 20
16.9343137642
 11
208.157944631
 21
17.4181177642
  0
ARC
  8
CYAN
 10
209.0554439039
 20
18.4062125601
 40
1.3348544005
 50
209.1697729973
 51
227.7507259177
  0
LINE
  8
CYAN
 10
207.889876631
 20
17.7556057642
 11
207.526756631
 21
18.4054837642
  0
ARC
  8
CYAN
 10
208.692106426
 20
19.0559873653
 40
1.3346142063
 50
191.00670037
 51
209.170455208
  0
LINE
  8
CYAN
 10
207.382042631
 20
18.8011777642
 11
207.178588631
 21
19.8456817642
  0
ARC
  8
CYAN
 10
208.4890100737
 20
20.1018394604
 40
1.3352232483
 50
173.4250733028
 51
191.0605542632
  0
LINE
  8
CYAN
 10
207.162568631
 20
20.2547257642
 11
207.239464631
 21
21.4909357642
  0
LINE
  8
CYAN
 10
207.239464631
 20
21.4909357642
 11
207.281650631
 21
21.7184197642
  0
LINE
  8
CYAN
 10
207.281650631
 20
21.7184197642
 11
207.488842631
 21
22.4670877642
  0
LINE
  8
CYAN
 10
207.488842631
 20
22.4670877642
 11
208.071970631
 21
23.8661677642
  0
ARC
  8
CYAN
 10
209.3035922182
 20
23.353390144
 40
1.3341036773
 50
145.0761335904
 51
157.3959147575
  0
LINE
  8
CYAN
 10
208.209742631
 20
24.1171477642
 11
209.008072631
 21
25.2604417642
  0
ARC
  8
CYAN
 10
210.103040818
 20
24.4954455172
 40
1.3357299834
 50
133.3950881875
 51
145.0600402406
  0
LINE
  8
CYAN
 10
209.185360631
 20
25.4660317642
 11
210.388462631
 21
26.6039857642
  0
LINE
  8
CYAN
 10
210.388462631
 20
26.6039857642
 11
211.273834631
 21
27.2351737642
  0
LINE
  8
CYAN
 10
211.273834631
 20
27.2351737642
 11
213.003460631
 21
27.8375257642
  0
LINE
  8
CYAN
 10
213.003460631
 20
27.8375257642
 11
214.022866631
 21
28.1274877642
  0
ARC
  8
CYAN
 10
213.8376239263
 20
28.7747443012
 40
0.6732428123
 50
285.9709485014
 51
336.5809355531
  0
LINE
  8
CYAN
 10
214.455406631
 20
28.5071617642
 11
214.695706631
 21
28.9706737642
  0
LINE
  8
CYAN
 10
214.695706631
 20
28.9706737642
 11
214.811584631
 21
29.4421957642
  0
ARC
  8
CYAN
 10
214.1590877341
 20
29.5821385155
 40
0.6673351288
 50
347.8950018421
 51
6.7984541011
  0
LINE
  8
CYAN
 10
214.821730631
 20
29.6611357642
 11
214.697842631
 21
30.6821437642
  0
ARC
  8
CYAN
 10
214.0350482079
 20
30.6023920786
 40
0.6675752981
 50
6.8612101639
 51
25.3045694245
  0
LINE
  8
CYAN
 10
214.638568631
 20
30.8877337642
 11
214.240204631
 21
31.7282497642
  0
ARC
  8
CYAN
 10
213.6373074607
 20
31.4412478956
 40
0.6677237981
 50
25.4562159017
 51
42.3563380752
  0
LINE
  8
CYAN
 10
214.130734631
 20
31.8911197642
 11
213.437068631
 21
32.6542057642
  0
LINE
  8
CYAN
 10
213.437068631
 20
32.6542057642
 11
212.468926631
 21
33.3174337642
  0
LINE
  8
CYAN
 10
212.468926631
 20
33.3174337642
 11
211.356070631
 21
33.8268697642
  0
LINE
  8
CYAN
 10
211.356070631
 20
33.8268697642
 11
210.164716631
 21
34.2012037642
  0
LINE
  8
CYAN
 10
210.164716631
 20
34.2012037642
 11
208.958410631
 21
34.4601937642
  0
ARC
  8
CYAN
 10
205.4096469956
 20
12.6117382152
 40
22.1347855923
 50
80.7742282754
 51
86.5026210716
  0
LINE
  8
CYAN
 10
206.759932631
 20
34.7052997642
 11
206.725756631
 21
34.6898137642
  0
LINE
  8
CYAN
 10
156.855496631
 20
105.2050477642
 11
172.887244631
 21
97.8315757642
  0
LINE
  8
CYAN
 10
172.887244631
 20
97.8315757642
 11
173.724022631
 21
99.6509137642
  0
LINE
  8
CYAN
 10
173.724022631
 20
99.6509137642
 11
157.692274631
 21
107.0243857642
  0
LINE
  8
CYAN
 10
157.692274631
 20
107.0243857642
 11
156.855496631
 21
105.2050477642
  0
LINE
  8
CYAN
 10
152.390188631
 20
35.9938417642
 11
169.317988631
 21
40.9787317642
  0
LINE
  8
CYAN
 10
169.317988631
 20
40.9787317642
 11
168.751948631
 21
42.8995297642
  0
LINE
  8
CYAN
 10
168.751948631
 20
42.8995297642
 11
151.824682631
 21
37.9146397642
  0
LINE
  8
CYAN
 10
151.824682631
 20
37.9146397642
 11
152.390188631
 21
35.9938417642
  0
LINE
  8
CYAN
 10
160.431694631
 20
63.9321877642
 11
178.064374631
 21
63.2379877642
  0
LINE
  8
CYAN
 10
178.064374631
 20
63.2379877642
 11
178.142872631
 21
65.2388857642
  0
LINE
  8
CYAN
 10
178.142872631
 20
65.2388857642
 11
160.510726631
 21
65.9330857642
  0
LINE
  8
CYAN
 10
160.510726631
 20
65.9330857642
 11
160.431694631
 21
63.9321877642
  0
ARC
  8
CYAN
 10
191.7032316242
 20
69.1445905404
 40
2.0025022423
 50
187.1392304346
 51
277.1240697819
  0
LINE
  8
CYAN
 10
189.716254631
 20
68.8957177642
 11
188.225860631
 21
80.8172677642
  0
ARC
  8
CYAN
 10
190.212874631
 20
81.0655777642
 40
2.002469099
 50
97.1231212085
 51
187.1231212085
  0
LINE
  8
CYAN
 10
189.964564631
 20
83.0525917642
 11
196.587766631
 21
83.8802917642
  0
ARC
  8
CYAN
 10
196.8363724072
 20
81.893581771
 40
2.0022041427
 50
7.1307015348
 51
97.1325986816
  0
LINE
  8
CYAN
 10
198.823090631
 20
82.1421217642
 11
200.312950631
 21
70.2205717642
  0
ARC
  8
CYAN
 10
198.3262406378
 20
69.971965988
 40
2.0022041427
 50
277.1307015348
 51
7.1325986816
  0
LINE
  8
CYAN
 10
198.574780631
 20
67.9852477642
 11
191.951578631
 21
67.1575477642
  0
LINE
  8
CYAN
 10
193.690282631
 20
72.0831637642
 11
195.676762631
 21
72.3314737642
  0
LINE
  8
CYAN
 10
195.676762631
 20
72.3314737642
 11
194.849062631
 21
78.9546757642
  0
LINE
  8
CYAN
 10
194.849062631
 20
78.9546757642
 11
192.862048631
 21
78.7063657642
  0
LINE
  8
CYAN
 10
192.862048631
 20
78.7063657642
 11
193.690282631
 21
72.0831637642
  0
LINE
  8
CYAN
 10
286.841776631
 20
42.4830097642
 11
287.449468631
 21
42.9689497642
  0
ARC
  8
CYAN
 10
288.6993461337
 20
41.4057987887
 40
2.0014081902
 50
114.4721622253
 51
128.6454281005
  0
LINE
  8
CYAN
 10
287.870260631
 20
43.2274057642
 11
288.315616631
 21
43.4303257642
  0
ARC
  8
CYAN
 10
289.146030444
 20
41.6084627667
 40
2.0021917697
 50
93.6712598307
 51
114.503724
  0
LINE
  8
CYAN
 10
289.017826631
 20
43.6065457642
 11
289.334488631
 21
43.6268377642
  0
ARC
  8
CYAN
 10
289.4627330901
 20
41.6125394706
 40
2.0183766389
 50
24.8113208861
 51
93.6429371817
  0
LINE
  8
CYAN
 10
291.294802631
 20
42.4595137642
 11
291.458740631
 21
42.1028017642
  0
LINE
  8
CYAN
 10
291.458740631
 20
42.1028017642
 11
291.711856631
 21
40.6983817642
  0
LINE
  8
CYAN
 10
291.711856631
 20
40.6983817642
 11
291.799966631
 21
39.1561897642
  0
ARC
  8
CYAN
 10
372.8507965173
 20
39.4920482204
 40
81.0515257485
 50
180.2374209115
 51
182.3002528804
  0
ARC
  8
CYAN
 10
437.8996806456
 20
44.5018567486
 40
146.2686777856
 50
183.2384375635
 51
184.4760329286
  0
ARC
  8
CYAN
 10
283.0086718725
 20
32.0798520568
 40
9.1241686047
 50
358.3183161647
 51
6.3357554005
  0
LINE
  8
CYAN
 10
292.128910631
 20
31.8120877642
 11
292.219156631
 21
31.3186717642
  0
ARC
  8
CYAN
 10
250.7542501272
 20
27.1424322719
 40
41.6746859336
 50
1.5578425333
 51
5.7512898858
  0
LINE
  8
CYAN
 10
292.413532631
 20
28.2754057642
 11
292.384162631
 21
26.6317537642
  0
LINE
  8
CYAN
 10
292.384162631
 20
26.6317537642
 11
292.213816631
 21
25.0649977642
  0
LINE
  8
CYAN
 10
292.213816631
 20
25.0649977642
 11
291.858172631
 21
23.6936857642
  0
LINE
  8
CYAN
 10
291.858172631
 20
23.6936857642
 11
291.675544631
 21
23.1057517642
  0
ARC
  8
CYAN
 10
289.7622410015
 20
23.6990981243
 40
2.0031951183
 50
322.4713532275
 51
342.7704924398
  0
LINE
  8
CYAN
 10
291.350872631
 20
22.4788357642
 11
290.926342631
 21
21.9266797642
  0
LINE
  8
CYAN
 10
290.926342631
 20
21.9266797642
 11
290.510890631
 21
21.5395297642
  0
ARC
  8
CYAN
 10
289.1462913966
 20
23.0039619664
 40
2.001672487
 50
294.6676220795
 51
312.9789425296
  0
LINE
  8
CYAN
 10
289.981696631
 20
21.1849537642
 11
289.431676631
 21
20.9323717642
  0
LINE
  8
CYAN
 10
289.431676631
 20
20.9323717642
 11
288.292120631
 21
20.6835277642
  0
LINE
  8
CYAN
 10
288.292120631
 20
20.6835277642
 11
288.233380631
 21
30.7729237642
  0
LINE
  8
CYAN
 10
288.233380631
 20
30.7729237642
 11
286.230880631
 21
30.7611757642
  0
LINE
  8
CYAN
 10
286.230880631
 20
30.7611757642
 11
286.290154631
 21
20.5388137642
  0
LINE
  8
CYAN
 10
286.290154631
 20
20.5388137642
 11
284.865442631
 21
20.8148917642
  0
ARC
  8
CYAN
 10
285.2456501293
 20
22.7813083653
 40
2.002835987
 50
234.6312879017
 51
259.0568702386
  0
LINE
  8
CYAN
 10
284.086336631
 20
21.1481077642
 11
283.597726631
 21
21.4952077642
  0
ARC
  8
CYAN
 10
284.7587811792
 20
23.1275095218
 40
2.0031117523
 50
215.6209828244
 51
234.575796992
  0
LINE
  8
CYAN
 10
283.130476631
 20
21.9608557642
 11
282.525988631
 21
22.8035077642
  0
LINE
  8
CYAN
 10
282.525988631
 20
22.8035077642
 11
281.829118631
 21
24.3857497642
  0
LINE
  8
CYAN
 10
281.829118631
 20
24.3857497642
 11
281.486824631
 21
25.7218177642
  0
LINE
  8
CYAN
 10
281.486824631
 20
25.7218177642
 11
281.208076631
 21
27.1748317642
  0
LINE
  8
CYAN
 10
281.208076631
 20
27.1748317642
 11
281.022778631
 21
28.6945957642
  0
LINE
  8
CYAN
 10
281.022778631
 20
28.6945957642
 11
280.962436631
 21
30.2298457642
  0
LINE
  8
CYAN
 10
280.962436631
 20
30.2298457642
 11
281.057488631
 21
31.7293177642
  0
LINE
  8
CYAN
 10
281.057488631
 20
31.7293177642
 11
281.337838631
 21
33.1412137642
  0
LINE
  8
CYAN
 10
281.337838631
 20
33.1412137642
 11
281.745280631
 21
34.4826217642
  0
LINE
  8
CYAN
 10
281.745280631
 20
34.4826217642
 11
282.319864631
 21
35.9473837642
  0
LINE
  8
CYAN
 10
282.319864631
 20
35.9473837642
 11
283.066930631
 21
37.5002557642
  0
LINE
  8
CYAN
 10
283.066930631
 20
37.5002557642
 11
284.469214631
 21
39.6581497642
  0
ARC
  8
CYAN
 10
335.5771811039
 20
1.4586219445
 40
63.8061765242
 50
141.1387236351
 51
143.2245303755
  0
LINE
  8
CYAN
 10
285.893392631
 20
41.4929737642
 11
286.624972631
 21
42.2816917642
  0
ARC
  8
CYAN
 10
288.0905261214
 20
40.9208030053
 40
1.9999663116
 50
128.6370815664
 51
137.1207256403
  0
ARC
  8
CYAN
 10
255.1993344312
 20
36.7537630982
 40
48.5113943539
 50
56.1987375646
 51
60.0714492589
  0
LINE
  8
CYAN
 10
282.186898631
 20
77.0653837642
 11
284.764516631
 21
75.2967757642
  0
ARC
  8
CYAN
 10
261.112191918
 20
46.6469606054
 40
37.1516402459
 50
46.2413945781
 51
50.4580644752
  0
LINE
  8
CYAN
 10
286.807066631
 20
73.4801077642
 11
287.688700631
 21
72.5466757642
  0
LINE
  8
CYAN
 10
287.688700631
 20
72.5466757642
 11
288.441640631
 21
71.3083297642
  0
LINE
  8
CYAN
 10
288.441640631
 20
71.3083297642
 11
289.050934631
 21
70.0817317642
  0
LINE
  8
CYAN
 10
289.050934631
 20
70.0817317642
 11
289.536874631
 21
68.8455217642
  0
LINE
  8
CYAN
 10
289.536874631
 20
68.8455217642
 11
289.917082631
 21
67.5788737642
  0
LINE
  8
CYAN
 10
289.917082631
 20
67.5788737642
 11
290.211316631
 21
66.2593597642
  0
LINE
  8
CYAN
 10
290.211316631
 20
66.2593597642
 11
290.437732631
 21
64.8661537642
  0
ARC
  8
CYAN
 10
289.7970519475
 20
64.5521009624
 40
0.7135130696
 50
356.5723816207
 51
26.1134542809
  0
ARC
  8
CYAN
 10
229.7008417807
 20
56.8549575986
 40
61.2883213687
 50
4.7225318628
 51
7.1745784489
  0
LINE
  8
CYAN
 10
290.781094631
 20
61.9008517642
 11
290.795512631
 21
60.6988177642
  0
LINE
  8
CYAN
 10
290.795512631
 20
60.6988177642
 11
290.907652631
 21
59.5074637642
  0
LINE
  8
CYAN
 10
290.907652631
 20
59.5074637642
 11
290.751190631
 21
57.7634197642
  0
ARC
  8
CYAN
 10
204.2879792247
 20
69.921987503
 40
87.3139032237
 50
350.0932887926
 51
351.9954799693
  0
ARC
  8
CYAN
 10
253.6458431795
 20
63.686580781
 40
37.6925239793
 50
338.8907798685
 51
346.5198152098
  0
LINE
  8
CYAN
 10
288.809032631
 20
50.1117337642
 11
288.304936631
 21
48.9347977642
  0
LINE
  8
CYAN
 10
288.304936631
 20
48.9347977642
 11
287.743702631
 21
47.8486417642
  0
LINE
  8
CYAN
 10
287.743702631
 20
47.8486417642
 11
287.228392631
 21
47.0711377642
  0
ARC
  8
CYAN
 10
285.9299553796
 20
47.8801892167
 40
1.5298704352
 50
314.8791301221
 51
328.0731189546
  0
LINE
  8
CYAN
 10
287.009452631
 20
46.7961277642
 11
286.639390631
 21
46.4282017642
  0
ARC
  8
CYAN
 10
285.2268084247
 20
47.8475757193
 40
2.0025011645
 50
300.7132918136
 51
314.8625904588
  0
LINE
  8
CYAN
 10
286.249570631
 20
46.1259577642
 11
285.771106631
 21
45.8424037642
  0
ARC
  8
CYAN
 10
285.5888062254
 20
48.0453015148
 40
2.2104279987
 50
242.6986063342
 51
274.7307223092
  0
ARC
  8
CYAN
 10
285.5861373881
 20
47.8104428203
 40
2.0032791208
 50
218.4829893129
 51
239.6840616154
  0
ARC
  8
CYAN
 10
220.4773660867
 20
-4.4572497381
 40
81.4896409055
 50
38.7633518736
 51
40.9865569437
  0
LINE
  8
CYAN
 10
281.990920631
 20
48.9903337642
 11
280.819324631
 21
49.9013377642
  0
LINE
  8
CYAN
 10
280.819324631
 20
49.9013377642
 11
279.580978631
 21
50.6996677642
  0
LINE
  8
CYAN
 10
279.580978631
 20
50.6996677642
 11
278.284960631
 21
51.4018777642
  0
ARC
  8
CYAN
 10
262.4178877186
 20
18.7342708727
 40
36.3171659525
 50
64.0935635731
 51
68.7912793353
  0
ARC
  8
CYAN
 10
240.1082304139
 20
-41.629624258
 40
100.668787218
 50
69.382659132
 51
71.9035801814
  0
ARC
  8
CYAN
 10
260.2283357176
 20
9.6656339627
 40
45.7726065834
 50
75.902012318
 51
79.5684402263
  0
LINE
  8
CYAN
 10
268.515964631
 20
54.6817057642
 11
267.066688631
 21
54.9924937642
  0
LINE
  8
CYAN
 10
267.066688631
 20
54.9924937642
 11
265.660132631
 21
55.3929937642
  0
LINE
  8
CYAN
 10
265.660132631
 20
55.3929937642
 11
264.511498631
 21
55.8767977642
  0
ARC
  8
CYAN
 10
265.2895303119
 20
57.7241935638
 40
2.0045459677
 50
236.4247426704
 51
247.1615825306
  0
LINE
  8
CYAN
 10
264.180952631
 20
56.0540857642
 11
263.326552631
 21
56.6211937642
  0
ARC
  8
CYAN
 10
264.4356133517
 20
58.2889953385
 40
2.0028923519
 50
221.6206928211
 51
236.376744773
  0
LINE
  8
CYAN
 10
262.938334631
 20
56.9586817642
 11
262.599778631
 21
57.3399577642
  0
ARC
  8
CYAN
 10
264.0958065683
 20
58.6705759676
 40
2.0021599318
 50
197.3612792702
 51
221.6509837186
  0
LINE
  8
CYAN
 10
262.184860631
 20
58.0731397642
 11
261.974464631
 21
58.7459797642
  0
ARC
  8
CYAN
 10
263.8862065868
 20
59.3427002881
 40
2.0027063412
 50
171.2805366777
 51
197.3349415671
  0
LINE
  8
CYAN
 10
261.906646631
 20
59.6463037642
 11
261.967522631
 21
60.0804457642
  0
ARC
  8
CYAN
 10
263.9532594982
 20
59.8182576417
 40
2.0029711724
 50
144.315148766
 51
172.4784202425
  0
LINE
  8
CYAN
 10
262.326370631
 20
60.9866437642
 11
263.162614631
 21
62.1512977642
  0
ARC
  8
CYAN
 10
271.639271826
 20
57.236561628
 40
9.7983849939
 50
144.2568951286
 51
149.8949925093
  0
ARC
  8
CYAN
 10
81.5284331676
 20
213.9582454564
 40
236.6050022109
 50
320.3433328795
 51
321.8100442387
  0
ARC
  8
CYAN
 10
400.3467855288
 20
-38.5191610411
 40
170.0796613691
 50
140.1269711774
 51
141.3645353532
  0
ARC
  8
CYAN
 10
328.85669432
 20
31.2223962654
 40
70.9213284184
 50
143.1455207172
 51
146.354127712
  0
LINE
  8
CYAN
 10
272.108182631
 20
73.7599237642
 11
272.750050631
 21
74.8343317642
  0
LINE
  8
CYAN
 10
272.750050631
 20
74.8343317642
 11
273.860770631
 21
76.4918677642
  0
LINE
  8
CYAN
 10
273.860770631
 20
76.4918677642
 11
275.097514631
 21
78.0260497642
  0
LINE
  8
CYAN
 10
275.097514631
 20
78.0260497642
 11
276.119056631
 21
78.7293277642
  0
ARC
  8
CYAN
 10
276.1111366234
 20
78.8706509561
 40
0.1415449437
 50
273.2076040177
 51
312.4284634559
  0
LINE
  8
CYAN
 10
276.206632631
 20
78.7661737642
 11
277.109626631
 21
79.0956517642
  0
LINE
  8
CYAN
 10
277.109626631
 20
79.0956517642
 11
278.461180631
 21
79.0219597642
  0
LINE
  8
CYAN
 10
278.461180631
 20
79.0219597642
 11
279.378058631
 21
78.8243797642
  0
LINE
  8
CYAN
 10
279.378058631
 20
78.8243797642
 11
279.402622631
 21
78.7960777642
  0
LINE
  8
CYAN
 10
269.993008631
 20
64.6813897642
 11
286.289086631
 21
58.5932557642
  0
LINE
  8
CYAN
 10
286.289086631
 20
58.5932557642
 11
286.989694631
 21
60.4686637642
  0
LINE
  8
CYAN
 10
286.989694631
 20
60.4686637642
 11
270.693616631
 21
66.5573317642
  0
LINE
  8
CYAN
 10
270.693616631
 20
66.5573317642
 11
269.993008631
 21
64.6813897642
  0
LINE
  8
CYAN
 10
284.495914631
 20
79.4694517642
 11
284.121580631
 21
79.2163357642
  0
ARC
  8
CYAN
 10
283.7478354207
 20
79.7691864121
 40
0.6673299941
 50
266.4627300935
 51
304.0599859752
  0
LINE
  8
CYAN
 10
283.706662631
 20
79.1031277642
 11
283.493596631
 21
79.1159437642
  0
ARC
  8
CYAN
 10
283.5344729091
 20
79.7824752967
 40
0.6677837629
 50
228.7491043066
 51
266.4906255894
  0
LINE
  8
CYAN
 10
283.094164631
 20
79.2804157642
 11
281.433424631
 21
80.7227497642
  0
ARC
  8
CYAN
 10
267.9561992201
 20
60.0260573017
 40
24.6979489769
 50
56.9287207137
 51
61.4658025426
  0
ARC
  8
CYAN
 10
280.4078037985
 20
82.8879488476
 40
1.3350070773
 50
216.3181773034
 51
240.6763681329
  0
LINE
  8
CYAN
 10
279.332134631
 20
82.0972657642
 11
278.851000631
 21
82.7519497642
  0
ARC
  8
CYAN
 10
279.9265495643
 20
83.543660822
 40
1.3355193399
 50
200.2005775899
 51
216.3567668374
  0
LINE
  8
CYAN
 10
278.673178631
 20
83.0824957642
 11
278.321272631
 21
84.0420937642
  0
LINE
  8
CYAN
 10
278.321272631
 20
84.0420937642
 11
278.185102631
 21
84.8708617642
  0
LINE
  8
CYAN
 10
278.185102631
 20
84.8708617642
 11
276.511012631
 21
84.2337997642
  0
LINE
  8
CYAN
 10
276.511012631
 20
84.2337997642
 11
275.169070631
 21
83.8770877642
  0
LINE
  8
CYAN
 10
275.169070631
 20
83.8770877642
 11
273.779602631
 21
83.7024697642
  0
ARC
  8
CYAN
 10
273.6483025647
 20
78.3623726961
 40
5.3417109996
 50
88.5915191978
 51
95.6746962634
  0
LINE
  8
CYAN
 10
273.120112631
 20
83.6779057642
 11
271.721032631
 21
83.7467917642
  0
LINE
  8
CYAN
 10
271.721032631
 20
83.7467917642
 11
270.356662631
 21
84.0015097642
  0
LINE
  8
CYAN
 10
270.356662631
 20
84.0015097642
 11
268.639318631
 21
84.5104117642
  0
LINE
  8
CYAN
 10
268.639318631
 20
84.5104117642
 11
268.566160631
 21
83.6736337642
  0
LINE
  8
CYAN
 10
268.566160631
 20
83.6736337642
 11
268.287412631
 21
82.6905397642
  0
ARC
  8
CYAN
 10
267.0025615594
 20
83.0546215642
 40
1.3354391911
 50
328.0116936742
 51
344.1791275163
  0
LINE
  8
CYAN
 10
268.135222631
 20
82.3471777642
 11
267.704818631
 21
81.6583177642
  0
ARC
  8
CYAN
 10
266.5719483237
 20
82.3656037851
 40
1.3355330953
 50
303.6673754441
 51
328.0221899799
  0
ARC
  8
CYAN
 10
280.7118329578
 20
60.5080688402
 40
24.6970379897
 50
122.8577466809
 51
127.3954740462
  0
LINE
  8
CYAN
 10
265.712998631
 20
80.1289417642
 11
264.165466631
 21
78.5659237642
  0
ARC
  8
CYAN
 10
263.6883256279
 20
79.0330332979
 40
0.6677236354
 50
277.8379804181
 51
315.6086723989
  0
LINE
  8
CYAN
 10
263.779384631
 20
78.3715477642
 11
263.568454631
 21
78.3427117642
  0
ARC
  8
CYAN
 10
263.4772444866
 20
79.0038869653
 40
0.6674368412
 50
240.2509215438
 51
277.8544668561
  0
LINE
  8
CYAN
 10
263.146060631
 20
78.4244137642
 11
262.753570631
 21
78.6486937642
  0
ARC
  8
CYAN
 10
263.4160978012
 20
79.8076540189
 40
1.3349648397
 50
205.324618713
 51
240.245274658
  0
ARC
  8
CYAN
 10
263.8447757317
 20
80.0618525029
 40
1.8317666587
 50
184.3362992839
 51
206.7762535163
  0
LINE
  8
CYAN
 10
262.018252631
 20
79.9233517642
 11
261.934948631
 21
82.0054177642
  0
ARC
  8
CYAN
 10
263.2683003749
 20
82.0683247844
 40
1.3348348835
 50
169.0179066347
 51
182.7011897261
  0
LINE
  8
CYAN
 10
261.957910631
 20
82.3226137642
 11
262.101022631
 21
83.3991577642
  0
LINE
  8
CYAN
 10
262.101022631
 20
83.3991577642
 11
262.369090631
 21
84.6359017642
  0
LINE
  8
CYAN
 10
262.369090631
 20
84.6359017642
 11
262.833670631
 21
85.9741057642
  0
LINE
  8
CYAN
 10
262.833670631
 20
85.9741057642
 11
263.482480631
 21
87.3229897642
  0
LINE
  8
CYAN
 10
263.482480631
 20
87.3229897642
 11
264.241828631
 21
88.6120657642
  0
LINE
  8
CYAN
 10
264.241828631
 20
88.6120657642
 11
265.039090631
 21
89.7729817642
  0
LINE
  8
CYAN
 10
265.039090631
 20
89.7729817642
 11
265.801108631
 21
90.7363177642
  0
ARC
  8
CYAN
 10
285.5583307758
 20
71.8810355056
 40
27.3106114163
 50
133.1991255104
 51
136.3381145255
  0
LINE
  8
CYAN
 10
266.863234631
 20
91.7898997642
 11
267.776908631
 21
92.4157477642
  0
LINE
  8
CYAN
 10
267.776908631
 20
92.4157477642
 11
267.939778631
 21
88.1004937642
  0
LINE
  8
CYAN
 10
267.939778631
 20
88.1004937642
 11
273.260554631
 21
88.7044477642
  0
LINE
  8
CYAN
 10
273.260554631
 20
88.7044477642
 11
278.611768631
 21
88.5036637642
  0
LINE
  8
CYAN
 10
278.611768631
 20
88.5036637642
 11
278.448898631
 21
92.8189177642
  0
LINE
  8
CYAN
 10
278.448898631
 20
92.8189177642
 11
279.406894631
 21
92.2635577642
  0
ARC
  8
CYAN
 10
262.2669957237
 20
71.0002797442
 40
27.3112271183
 50
47.9883034691
 51
51.1284141373
  0
LINE
  8
CYAN
 10
280.545916631
 20
91.2927457642
 11
281.377888631
 21
90.3902857642
  0
LINE
  8
CYAN
 10
281.377888631
 20
90.3902857642
 11
282.260590631
 21
89.2929157642
  0
LINE
  8
CYAN
 10
282.260590631
 20
89.2929157642
 11
283.114990631
 21
88.0641817642
  0
LINE
  8
CYAN
 10
283.114990631
 20
88.0641817642
 11
283.863658631
 21
86.7681637642
  0
LINE
  8
CYAN
 10
283.863658631
 20
86.7681637642
 11
284.427562631
 21
85.4684077642
  0
LINE
  8
CYAN
 10
284.427562631
 20
85.4684077642
 11
284.783206631
 21
84.2984137642
  0
LINE
  8
CYAN
 10
284.783206631
 20
84.2984137642
 11
285.012292631
 21
83.1930337642
  0
ARC
  8
CYAN
 10
283.7249974355
 20
82.839930993
 40
1.3348447428
 50
1.6560682229
 51
15.3388621316
  0
LINE
  8
CYAN
 10
285.059284631
 20
82.8785077642
 11
285.132976631
 21
80.7959077642
  0
ARC
  8
CYAN
 10
283.7996018895
 20
80.738932395
 40
1.3345914708
 50
341.2753751427
 51
2.4467716724
  0
ARC
  8
CYAN
 10
283.6570011982
 20
80.6477334004
 40
1.4464174232
 50
305.450120918
 51
346.5174272108
  0
ARC
  8
CYAN
 10
233.5523633886
 20
77.8512490032
 40
2.0022356436
 50
329.9310680241
 51
59.9442933464
  0
LINE
  8
CYAN
 10
235.285144631
 20
76.8480457642
 11
231.940702631
 21
71.0717677642
  0
ARC
  8
CYAN
 10
230.207872631
 20
72.0751537642
 40
2.0023694149
 50
239.9272413038
 51
329.9272413038
  0
LINE
  8
CYAN
 10
229.204486631
 20
70.3423237642
 11
220.540336631
 21
75.3581857642
  0
ARC
  8
CYAN
 10
221.5437713886
 20
77.0913670032
 40
2.0026978105
 50
149.9442918204
 51
239.9310695501
  0
LINE
  8
CYAN
 10
219.810358631
 20
78.0944017642
 11
223.154800631
 21
83.8706797642
  0
ARC
  8
CYAN
 10
224.887813392
 20
82.8678765218
 40
2.0022356436
 50
59.9310680241
 51
149.9442933464
  0
LINE
  8
CYAN
 10
225.891016631
 20
84.6006577642
 11
234.555166631
 21
79.5842617642
  0
LINE
  8
CYAN
 10
223.291504631
 20
78.7784557642
 11
229.067782631
 21
75.4345477642
  0
LINE
  8
CYAN
 10
229.067782631
 20
75.4345477642
 11
230.071168631
 21
77.1673777642
  0
LINE
  8
CYAN
 10
230.071168631
 20
77.1673777642
 11
224.294890631
 21
80.5112857642
  0
LINE
  8
CYAN
 10
224.294890631
 20
80.5112857642
 11
223.291504631
 21
78.7784557642
  0
ARC
  8
CYAN
 10
201.745672631
 20
60.7548877642
 40
0.6675771051
 50
118.9433157232
 51
208.9433157232
  0
LINE
  8
CYAN
 10
201.422602631
 20
61.3390837642
 11
206.005924631
 21
63.8734477642
  0
ARC
  8
CYAN
 10
206.328994631
 20
63.2892517642
 40
0.6675771051
 50
28.9433157232
 51
118.9433157232
  0
LINE
  8
CYAN
 10
206.913190631
 20
63.6123217642
 11
210.088354631
 21
57.8702197642
  0
LINE
  8
CYAN
 10
210.088354631
 20
57.8702197642
 11
211.840408631
 21
58.8388957642
  0
LINE
  8
CYAN
 10
211.840408631
 20
58.8388957642
 11
203.171986631
 21
74.5171357642
  0
ARC
  8
CYAN
 10
203.7560676551
 20
74.8407578009
 40
0.6677438621
 50
174.5407246624
 51
208.9895413559
  0
LINE
  8
CYAN
 10
203.091352631
 20
74.9042857642
 11
203.139946631
 21
75.4062457642
  0
ARC
  8
CYAN
 10
203.804546428
 20
75.341215092
 40
0.6677738229
 50
127.7490367789
 51
174.4114346013
  0
LINE
  8
CYAN
 10
203.395732631
 20
75.8692237642
 11
203.905702631
 21
76.2638497642
  0
ARC
  8
CYAN
 10
204.3144796882
 20
75.7363625484
 40
0.6673390782
 50
95.0727980251
 51
127.7739514294
  0
LINE
  8
CYAN
 10
204.255472631
 20
76.4010877642
 11
205.836646631
 21
76.5409957642
  0
LINE
  8
CYAN
 10
205.836646631
 20
76.5409957642
 11
207.826864631
 21
76.5602197642
  0
LINE
  8
CYAN
 10
207.826864631
 20
76.5602197642
 11
209.560228631
 21
76.3498237642
  0
LINE
  8
CYAN
 10
209.560228631
 20
76.3498237642
 11
210.944890631
 21
76.2611797642
  0
LINE
  8
CYAN
 10
210.944890631
 20
76.2611797642
 11
212.303386631
 21
76.0929697642
  0
ARC
  8
CYAN
 10
207.9777084614
 20
49.1303151661
 40
27.3074391806
 50
69.5504922797
 51
80.885579226
  0
ARC
  8
CYAN
 10
202.5717059885
 20
35.8563771918
 40
41.6358146495
 50
59.5021218435
 51
68.9619902851
  0
ARC
  8
CYAN
 10
135.4177212003
 20
-54.8328058508
 40
154.31376429
 50
52.9940676028
 51
55.1025143444
  0
LINE
  8
CYAN
 10
228.298822631
 20
68.3980297642
 11
229.131862631
 21
67.6247977642
  0
LINE
  8
CYAN
 10
229.131862631
 20
67.6247977642
 11
230.322148631
 21
66.7543777642
  0
LINE
  8
CYAN
 10
230.322148631
 20
66.7543777642
 11
232.688836631
 21
64.7865877642
  0
LINE
  8
CYAN
 10
232.688836631
 20
64.7865877642
 11
233.958154631
 21
63.8595637642
  0
LINE
  8
CYAN
 10
233.958154631
 20
63.8595637642
 11
234.539680631
 21
63.4713457642
  0
LINE
  8
CYAN
 10
234.539680631
 20
63.4713457642
 11
235.971868631
 21
62.9336077642
  0
LINE
  8
CYAN
 10
235.971868631
 20
62.9336077642
 11
237.701494631
 21
62.4631537642
  0
LINE
  8
CYAN
 10
237.701494631
 20
62.4631537642
 11
239.820406631
 21
62.4658237642
  0
LINE
  8
CYAN
 10
239.820406631
 20
62.4658237642
 11
239.796910631
 21
62.6676757642
  0
ARC
  8
CYAN
 10
228.7143431238
 20
56.091691452
 40
12.8866936111
 50
30.6833212529
 51
35.3101670033
  0
ARC
  8
CYAN
 10
254.1656890291
 20
73.3690353456
 40
17.8793213266
 50
207.5516958253
 51
213.3485081892
  0
LINE
  8
CYAN
 10
238.313992631
 20
65.0989777642
 11
237.730330631
 21
66.8125837642
  0
LINE
  8
CYAN
 10
237.730330631
 20
66.8125837642
 11
237.350122631
 21
68.1737497642
  0
ARC
  8
CYAN
 10
237.9930665421
 20
68.3536851101
 40
0.6676478125
 50
162.5923804555
 51
195.6348957846
  0
LINE
  8
CYAN
 10
237.355996631
 20
68.5534237642
 11
237.498040631
 21
70.0037677642
  0
ARC
  8
CYAN
 10
239.4911022341
 20
69.8095900133
 40
2.0024983278
 50
158.8894882147
 51
174.4354136154
  0
LINE
  8
CYAN
 10
237.622996631
 20
70.5308257642
 11
238.136170631
 21
71.8588837642
  0
LINE
  8
CYAN
 10
238.136170631
 20
71.8588837642
 11
238.783378631
 21
72.9866917642
  0
ARC
  8
CYAN
 10
237.0480461894
 20
73.9841139521
 40
2.00155682
 50
330.1108747106
 51
348.5537468261
  0
LINE
  8
CYAN
 10
239.009794631
 20
73.5869077642
 11
239.204704631
 21
74.5513117642
  0
ARC
  8
CYAN
 10
237.2410641355
 20
74.9474175718
 40
2.0031934021
 50
348.5953336193
 51
359.6522003651
  0
LINE
  8
CYAN
 10
239.244220631
 20
74.9352577642
 11
239.252764631
 21
76.2003037642
  0
LINE
  8
CYAN
 10
239.252764631
 20
76.2003037642
 11
238.898188631
 21
77.5999177642
  0
LINE
  8
CYAN
 10
238.898188631
 20
77.5999177642
 11
238.273942631
 21
79.0358437642
  0
LINE
  8
CYAN
 10
238.273942631
 20
79.0358437642
 11
238.119616631
 21
79.4555677642
  0
LINE
  8
CYAN
 10
238.119616631
 20
79.4555677642
 11
237.075646631
 21
81.5253517642
  0
ARC
  8
CYAN
 10
236.7182810905
 20
81.3450001851
 40
0.4002959175
 50
26.7786968303
 51
54.0368791478
  0
LINE
  8
CYAN
 10
236.953360631
 20
81.6689977642
 11
235.846378631
 21
82.4721337642
  0
LINE
  8
CYAN
 10
235.846378631
 20
82.4721337642
 11
235.044310631
 21
83.2902217642
  0
ARC
  8
CYAN
 10
236.4738747316
 20
84.6919035889
 40
2.0020902716
 50
203.6979401194
 51
224.4357660442
  0
LINE
  8
CYAN
 10
234.640606631
 20
83.8872337642
 11
234.467056631
 21
84.2823937642
  0
ARC
  8
CYAN
 10
236.3002682014
 20
85.0872121217
 40
2.0020982121
 50
171.0875946964
 51
203.7024825877
  0
LINE
  8
CYAN
 10
234.322342631
 20
85.3973857642
 11
234.407248631
 21
85.9388617642
  0
ARC
  8
CYAN
 10
236.3848978222
 20
85.6277924894
 40
2.0019641398
 50
150.1758145286
 51
171.0610459368
  0
LINE
  8
CYAN
 10
234.648082631
 20
86.6234497642
 11
234.926830631
 21
87.1104577642
  0
LINE
  8
CYAN
 10
234.926830631
 20
87.1104577642
 11
235.883758631
 21
86.3660617642
  0
LINE
  8
CYAN
 10
235.883758631
 20
86.3660617642
 11
237.177106631
 21
85.0614997642
  0
LINE
  8
CYAN
 10
237.177106631
 20
85.0614997642
 11
237.887326631
 21
83.9005837642
  0
LINE
  8
CYAN
 10
237.887326631
 20
83.9005837642
 11
239.038630631
 21
84.2717137642
  0
LINE
  8
CYAN
 10
239.038630631
 20
84.2717137642
 11
238.226950631
 21
86.2293577642
  0
ARC
  8
CYAN
 10
166.2241325533
 20
50.9195964091
 40
80.194669761
 50
26.1230622831
 51
28.4148327736
  0
ARC
  8
CYAN
 10
237.3473906405
 20
89.3926751601
 40
0.6675592612
 50
87.7941719531
 51
207.8922809003
  0
ARC
  8
CYAN
 10
236.0299470011
 20
49.7513471373
 40
40.3307641243
 50
80.9658919313
 51
88.0915226495
  0
LINE
  8
CYAN
 10
242.362780631
 20
89.5818097642
 11
243.229996631
 21
89.4077257642
  0
ARC
  8
CYAN
 10
242.8355821969
 20
87.4443714089
 40
2.0025791046
 50
47.5405936828
 51
78.6411511827
  0
LINE
  8
CYAN
 10
244.187458631
 20
88.9217857642
 11
244.996468631
 21
88.1816617642
  0
ARC
  8
CYAN
 10
314.4773735137
 20
142.1661618464
 40
87.9881946198
 50
217.846094545
 51
220.2065013917
  0
LINE
  8
CYAN
 10
247.278784631
 20
85.3658797642
 11
249.073558631
 21
83.1652657642
  0
ARC
  8
CYAN
 10
283.0438748129
 20
107.584240803
 40
41.8362130629
 50
215.7098166494
 51
219.5368684685
  0
LINE
  8
CYAN
 10
250.779154631
 20
80.9523697642
 11
251.642098631
 21
79.8443197642
  0
LINE
  8
CYAN
 10
251.642098631
 20
79.8443197642
 11
252.223624631
 21
78.9957937642
  0
ARC
  8
CYAN
 10
226.6256612452
 20
58.8105254632
 40
32.5990917953
 50
33.6746733736
 51
38.2575377762
  0
ARC
  8
CYAN
 10
216.1881013622
 20
47.2566832553
 40
47.8449165954
 50
30.8401496485
 51
38.2633870335
  0
ARC
  8
CYAN
 10
174.8001662474
 20
24.8517874841
 40
94.8870535443
 50
28.0399398952
 51
29.6442107816
  0
LINE
  8
CYAN
 10
258.549388631
 20
69.4569517642
 11
259.209946631
 21
67.6595077642
  0
LINE
  8
CYAN
 10
259.209946631
 20
67.6595077642
 11
259.560784631
 21
66.5877697642
  0
LINE
  8
CYAN
 10
259.560784631
 20
66.5877697642
 11
259.849678631
 21
65.4562237642
  0
LINE
  8
CYAN
 10
259.849678631
 20
65.4562237642
 11
260.068084631
 21
64.1036017642
  0
LINE
  8
CYAN
 10
260.068084631
 20
64.1036017642
 11
259.837930631
 21
63.5188717642
  0
LINE
  8
CYAN
 10
259.837930631
 20
63.5188717642
 11
253.217398631
 21
66.7826797642
  0
LINE
  8
CYAN
 10
253.217398631
 20
66.7826797642
 11
252.332026631
 21
64.9863037642
  0
LINE
  8
CYAN
 10
252.332026631
 20
64.9863037642
 11
259.510054631
 21
61.4480197642
  0
LINE
  8
CYAN
 10
259.510054631
 20
61.4480197642
 11
259.075378631
 21
60.2577337642
  0
ARC
  8
CYAN
 10
147.4976219473
 20
112.21895339
 40
123.0835656436
 50
333.1723474913
 51
335.0288330797
  0
LINE
  8
CYAN
 10
257.333470631
 20
56.6703217642
 11
256.659562631
 21
55.5147457642
  0
ARC
  8
CYAN
 10
280.9711630824
 20
36.8083799926
 40
30.6754305086
 50
142.423806276
 51
147.5334946548
  0
ARC
  8
CYAN
 10
231.1488195076
 20
72.3373788761
 40
30.6031901003
 50
295.8656661544
 51
321.4729733245
  0
ARC
  8
CYAN
 10
231.4657873639
 20
72.2417650393
 40
30.3798495507
 50
290.3653036903
 51
295.406423165
  0
ARC
  8
CYAN
 10
228.2803856109
 20
77.8229905674
 40
36.7355805733
 50
289.862554742
 51
291.9938304806
  0
LINE
  8
CYAN
 10
240.761848631
 20
43.2727957642
 11
240.226780631
 21
43.0415737642
  0
ARC
  8
CYAN
 10
230.0299430119
 20
71.9364479057
 40
30.641299729
 50
276.8906101954
 51
289.4376486541
  0
ARC
  8
CYAN
 10
228.8452409373
 20
83.55405356
 40
42.3176850346
 50
265.7634781439
 51
276.5958995833
  0
LINE
  8
CYAN
 10
225.719068631
 20
41.3519977642
 11
223.374808631
 21
41.6264737642
  0
LINE
  8
CYAN
 10
223.374808631
 20
41.6264737642
 11
223.089118631
 21
41.6809417642
  0
LINE
  8
CYAN
 10
223.089118631
 20
41.6809417642
 11
221.918590631
 21
41.9943997642
  0
ARC
  8
CYAN
 10
222.4373258688
 20
43.9289782219
 40
2.0029178855
 50
234.8496729155
 51
254.9898730181
  0
LINE
  8
CYAN
 10
221.284198631
 20
42.2913037642
 11
220.803064631
 21
42.6298597642
  0
LINE
  8
CYAN
 10
220.803064631
 20
42.6298597642
 11
214.968046631
 21
53.1822337642
  0
LINE
  8
CYAN
 10
214.968046631
 20
53.1822337642
 11
209.654746631
 21
50.2441657642
  0
LINE
  8
CYAN
 10
209.654746631
 20
50.2441657642
 11
206.253166631
 21
51.2235217642
  0
LINE
  8
CYAN
 10
206.253166631
 20
51.2235217642
 11
201.161476631
 21
60.4318177642
  0
LINE
  8
CYAN
 10
223.105138631
 20
52.1195737642
 11
243.452674631
 21
51.4734337642
  0
LINE
  8
CYAN
 10
243.452674631
 20
51.4734337642
 11
243.516220631
 21
53.4748657642
  0
LINE
  8
CYAN
 10
243.516220631
 20
53.4748657642
 11
223.168684631
 21
54.1210057642
  0
LINE
  8
CYAN
 10
223.168684631
 20
54.1210057642
 11
223.105138631
 21
52.1195737642
  0
ARC
  8
CYAN
 10
198.5499639084
 20
112.8014322944
 40
2.0011232944
 50
128.94489009
 51
144.3604940195
  0
LINE
  8
CYAN
 10
197.292112631
 20
114.3578077642
 11
198.255982631
 21
115.1374477642
  0
ARC
  8
CYAN
 10
199.515969005
 20
113.5827827219
 40
2.0011369409
 50
117.0552588335
 51
129.0232176549
  0
LINE
  8
CYAN
 10
198.605752631
 20
115.3649317642
 11
199.722880631
 21
115.9341757642
  0
ARC
  8
CYAN
 10
201.019278582
 20
113.0485731085
 40
3.1634396365
 50
104.484509068
 51
114.1926765528
  0
LINE
  8
CYAN
 10
200.228044631
 20
116.1114637642
 11
202.688716631
 21
116.7148837642
  0
ARC
  8
CYAN
 10
205.4423313881
 20
99.7500939336
 40
17.1868114619
 50
93.4923883776
 51
99.219476311
  0
LINE
  8
CYAN
 10
204.395380631
 20
116.9049877642
 11
205.837714631
 21
116.9049877642
  0
ARC
  8
CYAN
 10
202.9111657253
 20
63.161061887
 40
53.8235474229
 50
83.5141204473
 51
86.8831182507
  0
LINE
  8
CYAN
 10
208.990984631
 20
116.6401237642
 11
210.509680631
 21
116.4857977642
  0
ARC
  8
CYAN
 10
194.9341083689
 20
21.596747559
 40
96.1588805058
 50
76.6679450654
 51
80.6783056264
  0
LINE
  8
CYAN
 10
217.107784631
 20
115.1641477642
 11
219.788998631
 21
114.5238817642
  0
ARC
  8
CYAN
 10
208.5643286834
 20
55.9624238232
 40
59.6274900663
 50
76.4910222043
 51
79.1495268402
  0
ARC
  8
CYAN
 10
252.1786584284
 20
248.4964982743
 40
137.7919447383
 50
257.5588333559
 51
259.6442192791
  0
ARC
  8
CYAN
 10
217.9619130231
 20
46.8187803409
 40
66.801737183
 50
79.0966148773
 51
81.8698341066
  0
LINE
  8
CYAN
 10
230.597692631
 20
112.4145817642
 11
232.250956631
 21
112.2031177642
  0
LINE
  8
CYAN
 10
232.250956631
 20
112.2031177642
 11
233.974174631
 21
112.0706857642
  0
LINE
  8
CYAN
 10
233.974174631
 20
112.0706857642
 11
235.670692631
 21
112.0365097642
  0
LINE
  8
CYAN
 10
235.670692631
 20
112.0365097642
 11
237.245458631
 21
112.1192797642
  0
LINE
  8
CYAN
 10
237.245458631
 20
112.1192797642
 11
238.222678631
 21
112.0706857642
  0
ARC
  8
CYAN
 10
236.1016063815
 20
194.9447412537
 40
82.9011943266
 50
271.4661037395
 51
273.7805107825
  0
ARC
  8
CYAN
 10
241.6475216213
 20
109.7494928545
 40
2.4757394937
 50
72.5479484906
 51
91.8486741286
  0
ARC
  8
CYAN
 10
241.8890901369
 20
110.1584536795
 40
2.0160396845
 50
36.3923051376
 51
75.6130328799
  0
ARC
  8
CYAN
 10
241.4690285554
 20
109.6503200758
 40
2.6604631971
 50
21.2722452006
 51
39.8359845815
  0
LINE
  8
CYAN
 10
243.948226631
 20
110.6155357642
 11
244.293190631
 21
109.6361797642
  0
LINE
  8
CYAN
 10
244.293190631
 20
109.6361797642
 11
244.900348631
 21
108.3593857642
  0
LINE
  8
CYAN
 10
244.900348631
 20
108.3593857642
 11
245.607364631
 21
107.1055537642
  0
LINE
  8
CYAN
 10
245.607364631
 20
107.1055537642
 11
246.148306631
 21
106.3915957642
  0
LINE
  8
CYAN
 10
246.148306631
 20
106.3915957642
 11
247.289998631
 21
105.0304297642
  0
LINE
  8
CYAN
 10
247.289998631
 20
105.0304297642
 11
248.299792631
 21
104.0622877642
  0
ARC
  8
CYAN
 10
250.0522780732
 20
106.0899503555
 40
2.6800411954
 50
229.1635215379
 51
246.4307092916
  0
LINE
  8
CYAN
 10
248.980642631
 20
103.6334857642
 11
249.670036631
 21
103.3328437642
  0
LINE
  8
CYAN
 10
249.670036631
 20
103.3328437642
 11
251.059504631
 21
102.5841757642
  0
LINE
  8
CYAN
 10
251.059504631
 20
102.5841757642
 11
252.541354631
 21
101.6630257642
  0
LINE
  8
CYAN
 10
252.541354631
 20
101.6630257642
 11
253.565566631
 21
100.8678997642
  0
ARC
  8
CYAN
 10
254.7964909747
 20
102.4549322518
 40
2.0084438894
 50
232.2023496918
 51
275.9349501804
  0
ARC
  8
CYAN
 10
233.99285912
 20
227.1393954313
 40
128.4127715323
 50
279.4172603935
 51
281.5027558684
  0
ARC
  8
CYAN
 10
65.1922400844
 20
1080.2840783286
 40
998.0946864229
 50
281.2318239585
 51
281.621439102
  0
ARC
  8
CYAN
 10
313.2224266898
 20
-141.7998103724
 40
248.9217554436
 50
99.7534220457
 51
100.8764630392
  0
ARC
  8
CYAN
 10
263.8456194152
 20
142.6160929263
 40
39.7509347312
 50
280.4462740451
 51
284.1129161194
  0
ARC
  8
CYAN
 10
273.0679174137
 20
106.0114579874
 40
2.0025137712
 50
283.5835715305
 51
310.7677090231
  0
LINE
  8
CYAN
 10
274.375546631
 20
104.4948277642
 11
274.769638631
 21
104.8349857642
  0
LINE
  8
CYAN
 10
274.769638631
 20
104.8349857642
 11
275.912398631
 21
106.0978957642
  0
LINE
  8
CYAN
 10
275.912398631
 20
106.0978957642
 11
277.112830631
 21
107.5626577642
  0
LINE
  8
CYAN
 10
277.112830631
 20
107.5626577642
 11
278.066554631
 21
108.8426557642
  0
LINE
  8
CYAN
 10
278.066554631
 20
108.8426557642
 11
278.469724631
 21
109.5502057642
  0
ARC
  8
CYAN
 10
260.8213654291
 20
122.5755429289
 40
21.9345387636
 50
323.5708919699
 51
327.4670088542
  0
LINE
  8
CYAN
 10
279.313978631
 20
110.7794737642
 11
279.787636631
 21
111.3497857642
  0
LINE
  8
CYAN
 10
279.787636631
 20
111.3497857642
 11
280.354744631
 21
112.2554497642
  0
LINE
  8
CYAN
 10
280.354744631
 20
112.2554497642
 11
280.983262631
 21
113.0447017642
  0
LINE
  8
CYAN
 10
280.983262631
 20
113.0447017642
 11
281.939122631
 21
113.5119517642
  0
LINE
  8
CYAN
 10
281.939122631
 20
113.5119517642
 11
285.804214631
 21
103.6094557642
  0
LINE
  8
CYAN
 10
285.804214631
 20
103.6094557642
 11
284.848888631
 21
103.2340537642
  0
LINE
  8
CYAN
 10
284.848888631
 20
103.2340537642
 11
283.655398631
 21
103.0866697642
  0
LINE
  8
CYAN
 10
283.655398631
 20
103.0866697642
 11
282.650944631
 21
102.8970997642
  0
LINE
  8
CYAN
 10
282.650944631
 20
102.8970997642
 11
282.200782631
 21
102.7182097642
  0
ARC
  8
CYAN
 10
282.9398709876
 20
100.8577765429
 40
2.0018649729
 50
111.6662817817
 51
138.6239513456
  0
ARC
  8
CYAN
 10
283.6222120693
 20
100.6743688851
 40
2.6536884492
 50
145.4063870124
 51
175.7599584311
  0
LINE
  8
CYAN
 10
280.975786631
 20
100.8705697642
 11
280.890880631
 21
99.3219697642
  0
ARC
  8
CYAN
 10
274.7764738608
 20
99.9855824201
 40
6.1503131553
 50
346.9547608019
 51
353.8057835987
  0
ARC
  8
CYAN
 10
278.611930207
 20
99.0506740015
 40
2.2032742882
 50
304.4110048209
 51
348.1261001459
  0
ARC
  8
CYAN
 10
278.7839347348
 20
98.9232887744
 40
2.0021977938
 50
269.779821574
 51
302.4098520724
  0
LINE
  8
CYAN
 10
278.776240631
 20
96.9211057642
 11
277.816642631
 21
96.9243097642
  0
ARC
  8
CYAN
 10
288.9639273379
 20
148.1656080575
 40
52.4397998387
 50
254.2663035871
 51
257.726821585
  0
LINE
  8
CYAN
 10
274.744006631
 20
97.6905997642
 11
273.305410631
 21
97.8411877642
  0
LINE
  8
CYAN
 10
273.305410631
 20
97.8411877642
 11
271.760548631
 21
97.9063357642
  0
LINE
  8
CYAN
 10
271.760548631
 20
97.9063357642
 11
270.139858631
 21
97.7685637642
  0
LINE
  8
CYAN
 10
270.139858631
 20
97.7685637642
 11
268.513294631
 21
97.4898157642
  0
ARC
  8
CYAN
 10
280.3381499497
 20
42.6450865812
 40
56.1050044333
 50
102.1670658341
 51
105.3067598822
  0
LINE
  8
CYAN
 10
265.527166631
 20
96.7598377642
 11
264.203914631
 21
96.4784197642
  0
ARC
  8
CYAN
 10
272.5661592057
 20
63.4641863573
 40
34.0568163775
 50
104.2136335382
 51
108.9799871689
  0
ARC
  8
CYAN
 10
275.713026595
 20
55.6850672926
 40
42.4388232237
 50
109.5817489821
 51
120.7344128912
  0
ARC
  8
CYAN
 10
253.0167205265
 20
93.8948223429
 40
2.0034459688
 50
286.0901530416
 51
300.1926814929
  0
LINE
  8
CYAN
 10
253.571974631
 20
91.9698577642
 11
252.768838631
 21
91.7391697642
  0
ARC
  8
CYAN
 10
252.213158627
 20
93.6639341824
 40
2.003371741
 50
271.9643817735
 51
286.1034430259
  0
LINE
  8
CYAN
 10
252.281830631
 20
91.6617397642
 11
251.081398631
 21
91.6222237642
  0
LINE
  8
CYAN
 10
251.081398631
 20
91.6222237642
 11
249.572848631
 21
91.8449017642
  0
LINE
  8
CYAN
 10
249.572848631
 20
91.8449017642
 11
248.112892631
 21
92.2881217642
  0
LINE
  8
CYAN
 10
248.112892631
 20
92.2881217642
 11
246.810466631
 21
92.9027557642
  0
LINE
  8
CYAN
 10
246.810466631
 20
92.9027557642
 11
245.775040631
 21
93.6391417642
  0
LINE
  8
CYAN
 10
245.775040631
 20
93.6391417642
 11
244.558054631
 21
94.9517137642
  0
LINE
  8
CYAN
 10
244.558054631
 20
94.9517137642
 11
243.521026631
 21
95.8856797642
  0
LINE
  8
CYAN
 10
243.521026631
 20
95.8856797642
 11
242.522446631
 21
96.4917697642
  0
LINE
  8
CYAN
 10
242.522446631
 20
96.4917697642
 11
241.419202631
 21
96.8223157642
  0
LINE
  8
CYAN
 10
241.419202631
 20
96.8223157642
 11
240.069784631
 21
96.9291157642
  0
ARC
  8
CYAN
 10
241.8368371501
 20
30.4811403697
 40
66.4714668759
 50
91.5233089448
 51
93.6318340146
  0
ARC
  8
CYAN
 10
237.989010459
 20
94.4437731745
 40
2.4028866779
 50
98.6842538541
 51
119.2460197611
  0
ARC
  8
CYAN
 10
237.9451812206
 20
94.8883646162
 40
2.0015712062
 50
124.3758886951
 51
143.2508625742
  0
LINE
  8
CYAN
 10
236.341396631
 20
96.0859297642
 11
234.114616631
 21
93.0592177642
  0
LINE
  8
CYAN
 10
234.114616631
 20
93.0592177642
 11
233.838538631
 21
92.7948877642
  0
ARC
  8
CYAN
 10
229.5700340743
 20
95.8327566788
 40
5.2391582046
 50
312.7470820085
 51
324.5607715808
  0
LINE
  8
CYAN
 10
233.126182631
 20
91.9853437642
 11
232.010656631
 21
90.9654037642
  0
LINE
  8
CYAN
 10
232.010656631
 20
90.9654037642
 11
230.851876631
 21
90.0298357642
  0
LINE
  8
CYAN
 10
230.851876631
 20
90.0298357642
 11
229.653580631
 21
89.1706297642
  0
ARC
  8
CYAN
 10
210.6905996677
 20
117.8207882025
 40
34.3573314673
 50
293.7428498842
 51
303.4997980355
  0
ARC
  8
CYAN
 10
215.320486252
 20
111.8138381446
 40
27.0559014658
 50
286.5636306048
 51
289.8869713438
  0
LINE
  8
CYAN
 10
223.033582631
 20
85.8806557642
 11
222.826390631
 21
85.8048277642
  0
ARC
  8
CYAN
 10
202.737217076
 20
149.5879343089
 40
66.8719640404
 50
285.1675940761
 51
287.4823801993
  0
LINE
  8
CYAN
 10
220.233820631
 20
85.0454797642
 11
218.939938631
 21
84.6695437642
  0
LINE
  8
CYAN
 10
218.939938631
 20
84.6695437642
 11
216.559900631
 21
84.1403497642
  0
ARC
  8
CYAN
 10
208.0841452068
 20
123.3523122833
 40
40.1175327583
 50
276.3078649466
 51
282.1969694634
  0
LINE
  8
CYAN
 10
212.491888631
 20
83.4776557642
 11
211.114168631
 21
83.3810017642
  0
LINE
  8
CYAN
 10
211.114168631
 20
83.3810017642
 11
209.281480631
 21
83.3826037642
  0
ARC
  8
CYAN
 10
209.2816634167
 20
85.3863333829
 40
2.003729627
 50
257.0116300227
 51
269.9947733205
  0
LINE
  8
CYAN
 10
208.831318631
 20
83.4338677642
 11
207.405004631
 21
83.7644137642
  0
LINE
  8
CYAN
 10
207.405004631
 20
83.7644137642
 11
206.017672631
 21
84.3251137642
  0
ARC
  8
CYAN
 10
206.7677558303
 20
86.1819428142
 40
2.0026080313
 50
230.5350729687
 51
248.0033008888
  0
LINE
  8
CYAN
 10
205.494886631
 20
84.6359017642
 11
204.696556631
 21
85.2927217642
  0
ARC
  8
CYAN
 10
141.1298596641
 20
0.5106057604
 40
105.9657121778
 50
53.138706006
 51
54.8805664531
  0
ARC
  8
CYAN
 10
222.6864315877
 20
110.1547545318
 40
30.8509943865
 50
211.9414038174
 51
228.1173875713
  0
ARC
  8
CYAN
 10
216.6195235541
 20
106.2263466577
 40
23.6246733898
 50
196.7195242642
 51
211.6409183495
  0
LINE
  8
CYAN
 10
193.993594631
 20
99.4298377642
 11
193.686544631
 21
100.6137157642
  0
LINE
  8
CYAN
 10
193.686544631
 20
100.6137157642
 11
193.453186631
 21
101.8162837642
  0
LINE
  8
CYAN
 10
193.453186631
 20
101.8162837642
 11
193.297258631
 21
103.0348717642
  0
LINE
  8
CYAN
 10
193.297258631
 20
103.0348717642
 11
193.223032631
 21
104.2684117642
  0
LINE
  8
CYAN
 10
193.223032631
 20
104.2684117642
 11
193.342114631
 21
105.5622937642
  0
LINE
  8
CYAN
 10
193.342114631
 20
105.5622937642
 11
193.557316631
 21
106.8860797642
  0
LINE
  8
CYAN
 10
193.557316631
 20
106.8860797642
 11
193.898542631
 21
108.0747637642
  0
LINE
  8
CYAN
 10
193.898542631
 20
108.0747637642
 11
194.693668631
 21
109.7152117642
  0
LINE
  8
CYAN
 10
194.693668631
 20
109.7152117642
 11
195.415102631
 21
111.4111957642
  0
LINE
  8
CYAN
 10
195.415102631
 20
111.4111957642
 11
196.231054631
 21
112.9998457642
  0
LINE
  8
CYAN
 10
196.231054631
 20
112.9998457642
 11
196.923652631
 21
113.9674537642
  0
LINE
  8
CYAN
 10
200.312950631
 20
100.4134657642
 11
217.695718631
 21
99.7336837642
  0
LINE
  8
CYAN
 10
217.695718631
 20
99.7336837642
 11
217.773682631
 21
101.7345817642
  0
LINE
  8
CYAN
 10
217.773682631
 20
101.7345817642
 11
200.390914631
 21
102.4143637642
  0
LINE
  8
CYAN
 10
200.390914631
 20
102.4143637642
 11
200.312950631
 21
100.4134657642
  0
ARC
  8
CYAN
 10
264.8107976004
 20
-12.3410362123
 40
36.4230580907
 50
59.8189084507
 51
66.4178570398
  0
LINE
  8
CYAN
 10
283.121932631
 20
19.1445397642
 11
284.341054631
 21
18.3494137642
  0
LINE
  8
CYAN
 10
284.341054631
 20
18.3494137642
 11
285.414394631
 21
17.4800617642
  0
LINE
  8
CYAN
 10
285.414394631
 20
17.4800617642
 11
286.241560631
 21
16.5492997642
  0
LINE
  8
CYAN
 10
286.241560631
 20
16.5492997642
 11
286.987558631
 21
15.3477997642
  0
ARC
  8
CYAN
 10
283.557623231
 20
13.9899979642
 40
3.6889134683
 50
15.272868099
 51
21.5970295468
  0
LINE
  8
CYAN
 10
287.116252631
 20
14.9617177642
 11
287.683360631
 21
13.5866677642
  0
LINE
  8
CYAN
 10
287.683360631
 20
13.5866677642
 11
287.960506631
 21
12.1389937642
  0
LINE
  8
CYAN
 10
287.960506631
 20
12.1389937642
 11
287.900164631
 21
10.6603477642
  0
LINE
  8
CYAN
 10
287.900164631
 20
10.6603477642
 11
287.571754631
 21
9.2148097642
  0
LINE
  8
CYAN
 10
287.571754631
 20
9.2148097642
 11
287.042026631
 21
7.8653917642
  0
LINE
  8
CYAN
 10
287.042026631
 20
7.8653917642
 11
286.199908631
 21
6.8256937642
  0
LINE
  8
CYAN
 10
286.199908631
 20
6.8256937642
 11
285.231766631
 21
5.8927957642
  0
LINE
  8
CYAN
 10
285.231766631
 20
5.8927957642
 11
284.157892631
 21
5.0613577642
  0
LINE
  8
CYAN
 10
284.157892631
 20
5.0613577642
 11
282.996976631
 21
4.3249717642
  0
LINE
  8
CYAN
 10
282.996976631
 20
4.3249717642
 11
281.767708631
 21
3.6772297642
  0
LINE
  8
CYAN
 10
281.767708631
 20
3.6772297642
 11
280.489846631
 21
3.1117237642
  0
ARC
  8
CYAN
 10
268.495002
 20
33.7432545117
 40
32.8963063832
 50
281.8784643307
 51
291.3845604769
  0
LINE
  8
CYAN
 10
275.266258631
 20
1.5513757642
 11
270.907750631
 21
1.2021397642
  0
ARC
  8
CYAN
 10
270.7444040801
 20
3.1965584667
 40
2.0010967135
 50
260.3974719229
 51
274.6821789123
  0
LINE
  8
CYAN
 10
270.410596631
 20
1.2234997642
 11
268.470040631
 21
1.5503077642
  0
ARC
  8
CYAN
 10
282.2720462485
 20
59.6692008783
 40
59.735258398
 50
253.295070342
 51
256.6409307927
  0
ARC
  8
CYAN
 10
294.3052187454
 20
99.874558098
 40
101.7027149615
 50
251.0208211153
 51
253.3127599432
  0
ARC
  8
CYAN
 10
229.7338279147
 20
-60.5835019057
 40
71.584969313
 50
63.8980919967
 51
66.30423983
  0
LINE
  8
CYAN
 10
258.502396631
 20
4.9663057642
 11
256.808548631
 21
5.5440937642
  0
ARC
  8
CYAN
 10
256.1625791413
 20
3.6471994601
 40
2.0038674064
 50
71.1942077755
 51
88.4778514421
  0
LINE
  8
CYAN
 10
256.215808631
 20
5.6503597642
 11
255.032998631
 21
5.6818657642
  0
ARC
  8
CYAN
 10
260.4879884514
 20
-26.6096097324
 40
32.7489893536
 50
99.5884345504
 51
104.5831093903
  0
ARC
  8
CYAN
 10
233.9999192539
 20
74.0794126913
 40
71.3660131794
 50
282.4722863002
 51
284.8101726028
  0
ARC
  8
CYAN
 10
255.3112651523
 20
-34.1604386025
 40
39.0066108639
 50
98.6976886783
 51
101.6081218594
  0
ARC
  8
CYAN
 10
206.6897742776
 20
221.7139353155
 40
221.4513860049
 50
278.3637345475
 51
280.6095878954
  0
LINE
  8
CYAN
 10
238.901392631
 20
2.6177737642
 11
238.122286631
 21
2.5424797642
  0
LINE
  8
CYAN
 10
238.122286631
 20
2.5424797642
 11
235.088098631
 21
1.0360657642
  0
LINE
  8
CYAN
 10
235.088098631
 20
1.0360657642
 11
233.231914631
 21
0.6937717642
  0
ARC
  8
CYAN
 10
215.6769846052
 20
-125.6036704472
 40
127.5116444774
 50
82.0867761254
 51
85.7075695725
  0
ARC
  8
CYAN
 10
146.9438480486
 20
-1056.9923390477
 40
1061.4329105631
 50
85.7707954476
 51
86.4354292081
  0
ARC
  8
CYAN
 10
219.8529044465
 20
121.0445821802
 40
118.8588877308
 50
263.1579862042
 51
266.6641730852
  0
LINE
  8
CYAN
 10
205.693000631
 20
3.0321577642
 11
204.421546631
 21
3.5229037642
  0
LINE
  8
CYAN
 10
204.421546631
 20
3.5229037642
 11
203.129800631
 21
3.8972377642
  0
LINE
  8
CYAN
 10
203.129800631
 20
3.8972377642
 11
201.694942631
 21
4.0302037642
  0
LINE
  8
CYAN
 10
201.694942631
 20
4.0302037642
 11
200.036338631
 21
3.5143597642
  0
LINE
  8
CYAN
 10
200.036338631
 20
3.5143597642
 11
198.520312631
 21
2.7053497642
  0
LINE
  8
CYAN
 10
198.520312631
 20
2.7053497642
 11
196.965304631
 21
1.9924597642
  0
LINE
  8
CYAN
 10
196.965304631
 20
1.9924597642
 11
195.108586631
 21
1.7959477642
  0
LINE
  8
CYAN
 10
195.108586631
 20
1.7959477642
 11
193.207012631
 21
1.7537617642
  0
LINE
  8
CYAN
 10
193.207012631
 20
1.7537617642
 11
191.325730631
 21
2.2044577642
  0
LINE
  8
CYAN
 10
191.325730631
 20
2.2044577642
 11
194.852266631
 21
10.6507357642
  0
ARC
  8
CYAN
 10
194.6808820785
 20
-6.2532179761
 40
16.9048225284
 50
84.996624304
 51
89.4191137033
  0
ARC
  8
CYAN
 10
196.4826026494
 20
8.6087163851
 40
2.0053757676
 50
69.2591863893
 51
99.3955428455
  0
LINE
  8
CYAN
 10
197.192788631
 20
10.4841277642
 11
197.693680631
 21
10.2945577642
  0
LINE
  8
CYAN
 10
197.693680631
 20
10.2945577642
 11
199.264708631
 21
9.9095437642
  0
LINE
  8
CYAN
 10
199.264708631
 20
9.9095437642
 11
201.074968631
 21
9.5832697642
  0
LINE
  8
CYAN
 10
201.074968631
 20
9.5832697642
 11
202.783234631
 21
9.3830197642
  0
LINE
  8
CYAN
 10
202.783234631
 20
9.3830197642
 11
204.049882631
 21
9.3771457642
  0
ARC
  8
CYAN
 10
159.238152118
 20
121.181459485
 40
120.4503871233
 50
291.841160868
 51
293.2161867093
  0
ARC
  8
CYAN
 10
208.3674487659
 20
22.3808310417
 40
12.009717634
 50
262.1149503902
 51
268.3225998629
  0
LINE
  8
CYAN
 10
208.015900631
 20
10.3762597642
 11
208.626796631
 21
10.2828097642
  0
LINE
  8
CYAN
 10
208.626796631
 20
10.2828097642
 11
211.228444631
 21
9.1320397642
  0
ARC
  8
CYAN
 10
224.9052133124
 20
41.12673612
 40
34.7953243478
 50
246.8547517653
 51
251.7358884207
  0
LINE
  8
CYAN
 10
214.000438631
 20
8.0843317642
 11
215.393644631
 21
7.7121337642
  0
LINE
  8
CYAN
 10
215.393644631
 20
7.7121337642
 11
216.762820631
 21
7.5022717642
  0
ARC
  8
CYAN
 10
217.1187132293
 20
-63.944174639
 40
71.4473327927
 50
87.8332634931
 51
90.2854022308
  0
ARC
  8
CYAN
 10
216.0424503428
 20
76.2946929639
 40
68.9461790271
 50
273.1407745129
 51
276.02813715
  0
LINE
  8
CYAN
 10
223.282960631
 20
7.7297557642
 11
224.937292631
 21
7.8643237642
  0
ARC
  8
CYAN
 10
216.2808638555
 20
58.6004539202
 40
51.4692982501
 50
279.6823810929
 51
283.4639561243
  0
ARC
  8
CYAN
 10
200.7982936202
 20
151.1582622533
 40
145.2334026511
 50
280.901357297
 51
282.1617560785
  0
ARC
  8
CYAN
 10
241.6078076818
 20
-54.3511754224
 40
64.3511314876
 50
96.4733609289
 51
99.1317438551
  0
ARC
  8
CYAN
 10
229.757598395
 20
49.3254222499
 40
40.0005636163
 50
276.5965847073
 51
280.8817405776
  0
LINE
  8
CYAN
 10
237.309004631
 20
10.0441117642
 11
237.321286631
 21
10.0756177642
  0
LINE
  8
CYAN
 10
237.321286631
 20
10.0756177642
 11
238.602352631
 21
10.3458217642
  0
LINE
  8
CYAN
 10
238.602352631
 20
10.3458217642
 11
240.013714631
 21
10.8867637642
  0
LINE
  8
CYAN
 10
240.013714631
 20
10.8867637642
 11
241.471534631
 21
11.6103337642
  0
ARC
  8
CYAN
 10
220.5240749529
 20
49.2255401135
 40
43.0546143365
 50
299.112912087
 51
305.0928114248
  0
ARC
  8
CYAN
 10
296.17911472
 20
-75.7107324915
 40
103.1437427772
 50
116.2259345806
 51
119.5717769047
  0
LINE
  8
CYAN
 10
250.598662631
 20
16.8152317642
 11
251.707780631
 21
17.2402957642
  0
LINE
  8
CYAN
 10
251.707780631
 20
17.2402957642
 11
254.653324631
 21
18.5566057642
  0
ARC
  8
CYAN
 10
319.338258355
 20
-136.0004273497
 40
167.5470594664
 50
110.9684781322
 51
112.7101982506
  0
LINE
  8
CYAN
 10
259.380826631
 20
20.4512377642
 11
260.095318631
 21
20.9414497642
  0
LINE
  8
CYAN
 10
260.095318631
 20
20.9414497642
 11
261.592654631
 21
21.4311277642
  0
ARC
  8
CYAN
 10
276.2303812004
 20
-36.2319632412
 40
59.4919751178
 50
100.5768671045
 51
104.2436217841
  0
LINE
  8
CYAN
 10
265.310362631
 20
22.2492157642
 11
267.273880631
 21
22.5920437642
  0
ARC
  8
CYAN
 10
267.6625059241
 20
27.0269102556
 40
4.451861455
 50
264.9919900084
 51
278.180319837
  0
LINE
  8
CYAN
 10
268.295956631
 20
22.6203457642
 11
268.769080631
 21
22.6774837642
  0
ARC
  8
CYAN
 10
269.7580113267
 20
-8.4059657548
 40
31.0991771261
 50
81.5617470039
 51
91.8222703612
  0
ARC
  8
CYAN
 10
269.6823967987
 20
-5.8659300576
 40
28.601235827
 50
70.1752773462
 51
80.6651911435
  0
LINE
  8
CYAN
 10
265.567750631
 20
10.9086577642
 11
282.894982631
 21
9.3637957642
  0
LINE
  8
CYAN
 10
282.894982631
 20
9.3637957642
 11
283.073338631
 21
11.3582857642
  0
LINE
  8
CYAN
 10
283.073338631
 20
11.3582857642
 11
265.746106631
 21
12.9031477642
  0
LINE
  8
CYAN
 10
265.746106631
 20
12.9031477642
 11
265.567750631
 21
10.9086577642
  0
LINE
  8
CYAN
 10
253.676638631
 20
109.1432977642
 11
253.689988631
 21
115.8177637642
  0
ARC
  8
CYAN
 10
255.6922216334
 20
115.8137599034
 40
2.0022370057
 50
89.8701124662
 51
179.8854259121
  0
LINE
  8
CYAN
 10
255.696760631
 20
117.8159917642
 11
267.710692631
 21
117.7914277642
  0
ARC
  8
CYAN
 10
267.7066881661
 20
115.7891952972
 40
2.0022364715
 50
359.88537803
 51
89.8854085958
  0
LINE
  8
CYAN
 10
269.708920631
 20
115.7851897642
 11
269.695570631
 21
109.1107237642
  0
ARC
  8
CYAN
 10
267.6933376286
 20
109.114727625
 40
2.0022370057
 50
269.8701124662
 51
359.8854259121
  0
LINE
  8
CYAN
 10
267.688798631
 20
107.1124957642
 11
255.674866631
 21
107.1370597642
  0
ARC
  8
CYAN
 10
255.679139164
 20
109.139559229
 40
2.0025040228
 50
179.8930327196
 51
269.8777539062
  0
LINE
  8
CYAN
 10
258.353410631
 20
111.4699357642
 11
265.027876631
 21
111.4560517642
  0
LINE
  8
CYAN
 10
265.027876631
 20
111.4560517642
 11
265.032148631
 21
113.4585517642
  0
LINE
  8
CYAN
 10
265.032148631
 20
113.4585517642
 11
258.357682631
 21
113.4724357642
  0
LINE
  8
CYAN
 10
258.357682631
 20
113.4724357642
 11
258.353410631
 21
111.4699357642
  0
LINE
  8
CYAN
 10
149.518870631
 20
3.7605337642
 11
149.202742631
 21
4.2379297642
  0
ARC
  8
CYAN
 10
150.9209736542
 20
5.3684734994
 40
2.0568050434
 50
180.239839422
 51
213.343699849
  0
LINE
  8
CYAN
 10
148.864186631
 20
5.3598637642
 11
148.907440631
 21
6.0182857642
  0
LINE
  8
CYAN
 10
148.907440631
 20
6.0182857642
 11
149.062300631
 21
6.6617557642
  0
LINE
  8
CYAN
 10
149.062300631
 20
6.6617557642
 11
149.499646631
 21
7.7575237642
  0
LINE
  8
CYAN
 10
149.499646631
 20
7.7575237642
 11
149.789608631
 21
8.9536837642
  0
LINE
  8
CYAN
 10
149.789608631
 20
8.9536837642
 11
149.951944631
 21
10.2310117642
  0
LINE
  8
CYAN
 10
149.951944631
 20
10.2310117642
 11
150.006946631
 21
11.5692157642
  0
ARC
  8
CYAN
 10
116.704666052
 20
11.3435066559
 40
33.3030454518
 50
0.388321192
 51
5.1772627371
  0
ARC
  8
CYAN
 10
62.8532717609
 20
5.5227483841
 40
87.4650169781
 50
5.791471028
 51
8.5187281126
  0
ARC
  8
CYAN
 10
200.9471344822
 20
26.3958876748
 40
52.1976524694
 50
184.7364323007
 51
188.7236001586
  0
LINE
  8
CYAN
 10
148.927732631
 20
22.0858117642
 11
148.931470631
 21
23.1335197642
  0
ARC
  8
CYAN
 10
151.0141320713
 20
23.1277689629
 40
2.0826693801
 50
127.1465322003
 51
179.8417909908
  0
ARC
  8
CYAN
 10
150.6844809908
 20
23.0138873988
 40
2.0020232561
 50
79.0646696375
 51
117.6145630156
  0
LINE
  8
CYAN
 10
151.064266631
 20
24.9795577642
 11
153.246190631
 21
24.5582317642
  0
LINE
  8
CYAN
 10
153.246190631
 20
24.5582317642
 11
155.219854631
 21
23.8843237642
  0
LINE
  8
CYAN
 10
155.219854631
 20
23.8843237642
 11
155.812594631
 21
14.8933657642
  0
LINE
  8
CYAN
 10
155.812594631
 20
14.8933657642
 11
157.810822631
 21
15.0247297642
  0
LINE
  8
CYAN
 10
157.810822631
 20
15.0247297642
 11
157.261870631
 21
23.3540617642
  0
ARC
  8
CYAN
 10
141.0308657807
 20
-86.112442139
 40
110.663277537
 50
79.6867546994
 51
81.5659913478
  0
ARC
  8
CYAN
 10
152.5813250116
 20
-21.1150790357
 40
44.6489902665
 50
75.8082404619
 51
79.3369266451
  0
ARC
  8
CYAN
 10
163.0580396207
 20
20.2245269591
 40
2.0026076255
 50
55.8770864423
 51
76.4326827835
  0
LINE
  8
CYAN
 10
164.181442631
 20
21.8823577642
 11
164.678596631
 21
21.5448697642
  0
ARC
  8
CYAN
 10
163.553764086
 20
19.8875597254
 40
2.0029789861
 50
34.8165400883
 51
55.834877778
  0
LINE
  8
CYAN
 10
165.198178631
 20
21.0311617642
 11
165.525520631
 21
20.5607077642
  0
ARC
  8
CYAN
 10
163.8810150048
 20
19.4164412142
 40
2.0034332262
 50
17.2703434478
 51
34.8306550399
  0
LINE
  8
CYAN
 10
165.794122631
 20
20.0112217642
 11
166.102774631
 21
19.0163797642
  0
ARC
  8
CYAN
 10
164.1909045188
 20
18.4206009768
 40
2.0025482988
 50
4.7370045883
 51
17.3081284367
  0
LINE
  8
CYAN
 10
166.186612631
 20
18.5859757642
 11
166.258702631
 21
17.7022057642
  0
LINE
  8
CYAN
 10
166.258702631
 20
17.7022057642
 11
166.235740631
 21
16.5845437642
  0
LINE
  8
CYAN
 10
166.235740631
 20
16.5845437642
 11
166.105444631
 21
15.4615417642
  0
LINE
  8
CYAN
 10
166.105444631
 20
15.4615417642
 11
165.872620631
 21
14.3390737642
  0
LINE
  8
CYAN
 10
165.872620631
 20
14.3390737642
 11
165.543142631
 21
13.2251497642
  0
LINE
  8
CYAN
 10
165.543142631
 20
13.2251497642
 11
165.122884631
 21
12.1267117642
  0
LINE
  8
CYAN
 10
165.122884631
 20
12.1267117642
 11
164.617186631
 21
11.0507017642
  0
LINE
  8
CYAN
 10
164.617186631
 20
11.0507017642
 11
164.031388631
 21
10.0045957642
  0
LINE
  8
CYAN
 10
164.031388631
 20
10.0045957642
 11
163.371364631
 21
8.9953357642
  0
LINE
  8
CYAN
 10
163.371364631
 20
8.9953357642
 11
162.642454631
 21
8.0309317642
  0
LINE
  8
CYAN
 10
162.642454631
 20
8.0309317642
 11
161.850532631
 21
7.1172577642
  0
LINE
  8
CYAN
 10
161.850532631
 20
7.1172577642
 11
161.000938631
 21
6.2617897642
  0
LINE
  8
CYAN
 10
161.000938631
 20
6.2617897642
 11
160.099012631
 21
5.4725377642
  0
LINE
  8
CYAN
 10
160.099012631
 20
5.4725377642
 11
159.151162631
 21
4.7564437642
  0
LINE
  8
CYAN
 10
159.151162631
 20
4.7564437642
 11
158.161660631
 21
4.1199157642
  0
LINE
  8
CYAN
 10
158.161660631
 20
4.1199157642
 11
157.137448631
 21
3.5704297642
  0
LINE
  8
CYAN
 10
157.137448631
 20
3.5704297642
 11
156.082798631
 21
3.1159957642
  0
LINE
  8
CYAN
 10
156.082798631
 20
3.1159957642
 11
155.004118631
 21
2.7624877642
  0
LINE
  8
CYAN
 10
155.004118631
 20
2.7624877642
 11
153.906748631
 21
2.5179157642
  0
LINE
  8
CYAN
 10
153.906748631
 20
2.5179157642
 11
153.128176631
 21
2.4282037642
  0
ARC
  8
CYAN
 10
152.8975160687
 20
4.4168327406
 40
2.0019614135
 50
260.4490264792
 51
276.616157971
  0
LINE
  8
CYAN
 10
152.565340631
 20
2.4426217642
 11
151.365976631
 21
2.6450077642
  0
ARC
  8
CYAN
 10
151.6983777063
 20
4.6194655719
 40
2.0022422703
 50
244.1903699598
 51
260.4438311529
  0
LINE
  8
CYAN
 10
150.826636631
 20
2.8169557642
 11
150.315598631
 21
3.0647317642
  0
ARC
  8
CYAN
 10
151.188195533
 20
4.8679463987
 40
2.0032494531
 50
213.5598782623
 51
244.1771107705
  0
LINE
  8
CYAN
 10
377.6598296007
 20
85.1999287042
 11
377.4280736007
 21
85.3953727042
  0
LINE
  8
CYAN
 10
377.4280736007
 20
85.3953727042
 11
376.5122636007
 21
86.6091547042
  0
LINE
  8
CYAN
 10
376.5122636007
 20
86.6091547042
 11
375.5921816007
 21
87.9543007042
  0
LINE
  8
CYAN
 10
375.5921816007
 20
87.9543007042
 11
374.7468596007
 21
89.3977027042
  0
LINE
  8
CYAN
 10
374.7468596007
 20
89.3977027042
 11
374.0579996007
 21
90.9051847042
  0
ARC
  8
CYAN
 10
326.0842377054
 20
74.889460259
 40
50.576528745
 50
18.4612477102
 51
20.8905523429
  0
LINE
  8
CYAN
 10
373.3360316007
 20
92.9242387042
 11
373.0818476007
 21
94.1353507042
  0
LINE
  8
CYAN
 10
373.0818476007
 20
94.1353507042
 11
372.8495576007
 21
95.8356067042
  0
ARC
  8
CYAN
 10
499.0020598415
 20
109.8772265341
 40
126.931559941
 50
183.0052945317
 51
186.3512617598
  0
ARC
  8
CYAN
 10
413.7443370457
 20
105.4664641964
 40
41.5598952569
 50
177.4588089094
 51
183.0952031969
  0
LINE
  8
CYAN
 10
372.2253116007
 20
107.3091307042
 11
372.3625496007
 21
108.5992747042
  0
ARC
  8
CYAN
 10
425.201577631
 20
103.8991328701
 40
53.0476598583
 50
171.8687675034
 51
174.9167995439
  0
LINE
  8
CYAN
 10
372.6872216007
 20
111.4022407042
 11
372.9665036007
 21
112.8103987042
  0
LINE
  8
CYAN
 10
372.9665036007
 20
112.8103987042
 11
373.3840916007
 21
114.1534087042
  0
LINE
  8
CYAN
 10
373.3840916007
 20
114.1534087042
 11
373.8225056007
 21
115.0446547042
  0
ARC
  8
CYAN
 10
375.8819807459
 20
113.9775607161
 40
2.3195101752
 50
117.0846868291
 51
152.6095733441
  0
ARC
  8
CYAN
 10
375.8115438797
 20
114.2858377148
 40
2.0144671699
 50
63.7717631014
 51
119.2937185124
  0
LINE
  8
CYAN
 10
376.7018336007
 20
116.0928967042
 11
377.1973856007
 21
115.8483247042
  0
LINE
  8
CYAN
 10
377.1973856007
 20
115.8483247042
 11
380.7287276007
 21
114.2564707042
  0
ARC
  8
CYAN
 10
391.3788703071
 20
147.5401486623
 40
34.9460835872
 50
252.2563187696
 51
268.2048165847
  0
ARC
  8
CYAN
 10
392.2004978706
 20
176.4861587819
 40
63.9036831159
 50
268.2815290713
 51
272.0397002477
  0
ARC
  8
CYAN
 10
399.1906616491
 20
75.2733750804
 40
37.6461117328
 50
88.2392869808
 51
97.1960070806
  0
LINE
  8
CYAN
 10
400.3473536007
 20
112.9017127042
 11
401.7870176007
 21
112.7986507042
  0
LINE
  8
CYAN
 10
401.7870176007
 20
112.7986507042
 11
403.2186716007
 21
112.6085467042
  0
LINE
  8
CYAN
 10
403.2186716007
 20
112.6085467042
 11
404.4383276007
 21
112.3420807042
  0
LINE
  8
CYAN
 10
404.4383276007
 20
112.3420807042
 11
405.6286136007
 21
111.9271627042
  0
ARC
  8
CYAN
 10
404.9701154496
 20
110.0365581306
 40
2.0020003668
 50
52.9827880513
 51
70.7967572272
  0
LINE
  8
CYAN
 10
406.1754296007
 20
111.6350647042
 11
406.7713736007
 21
111.1859707042
  0
LINE
  8
CYAN
 10
406.7713736007
 20
111.1859707042
 11
407.2183316007
 21
110.7107107042
  0
ARC
  8
CYAN
 10
405.7601575706
 20
109.3391522737
 40
2.0018601425
 50
29.0350658891
 51
43.2467744384
  0
LINE
  8
CYAN
 10
407.5104296007
 20
110.3107447042
 11
408.1448216007
 21
109.1167207042
  0
ARC
  8
CYAN
 10
406.9198188293
 20
108.5868600929
 40
1.334685003
 50
330.7634830682
 51
23.3903308399
  0
LINE
  8
CYAN
 10
408.0844796007
 20
107.9349787042
 11
407.0992496007
 21
106.2598207042
  0
ARC
  8
CYAN
 10
408.827101669
 20
105.2450247355
 40
2.0038172641
 50
149.5735823901
 51
160.843554284
  0
LINE
  8
CYAN
 10
406.9342436007
 20
105.9025747042
 11
406.4296136007
 21
104.4549007042
  0
LINE
  8
CYAN
 10
406.4296136007
 20
104.4549007042
 11
404.0303516007
 21
99.0465487042
  0
LINE
  8
CYAN
 10
404.0303516007
 20
99.0465487042
 11
403.4434856007
 21
97.3927507042
  0
ARC
  8
CYAN
 10
545.6551029491
 20
51.4995334749
 40
149.4333680826
 50
162.1145519599
 51
163.4438021289
  0
LINE
  8
CYAN
 10
402.4171376007
 20
94.0814167042
 11
401.9381396007
 21
92.8500127042
  0
ARC
  8
CYAN
 10
430.5581176066
 20
83.6942645659
 40
30.0488080468
 50
162.2601314844
 51
167.4162556811
  0
LINE
  8
CYAN
 10
401.2311236007
 20
90.2408887042
 11
400.6528016007
 21
87.5591407042
  0
ARC
  8
CYAN
 10
369.9662619673
 20
94.3272617697
 40
31.4240541215
 50
342.6348237804
 51
347.5621625064
  0
LINE
  8
CYAN
 10
399.9580676007
 20
84.9484147042
 11
399.4902836007
 21
83.7154087042
  0
ARC
  8
CYAN
 10
337.397508238
 20
122.4798632447
 40
73.1996973222
 50
326.3278288215
 51
328.0235101238
  0
LINE
  8
CYAN
 10
398.3160176007
 20
81.8950027042
 11
397.0312136007
 21
80.6075287042
  0
LINE
  8
CYAN
 10
397.0312136007
 20
80.6075287042
 11
396.3765296007
 21
80.1520267042
  0
ARC
  8
CYAN
 10
395.2331231584
 20
81.7963011665
 40
2.0027523062
 50
258.888462251
 51
304.8142342034
  0
LINE
  8
CYAN
 10
394.8471536007
 20
79.8310927042
 11
393.0822836007
 21
80.1771247042
  0
ARC
  8
CYAN
 10
393.4669340696
 20
82.1413145315
 40
2.0014988536
 50
239.5531759081
 51
258.9198955131
  0
ARC
  8
CYAN
 10
367.5658678474
 20
39.3358434077
 40
48.0303965648
 50
58.7919289134
 51
63.4206193285
  0
LINE
  8
CYAN
 10
389.0564576007
 20
82.2901627042
 11
387.7513616007
 21
82.8754267042
  0
LINE
  8
CYAN
 10
387.7513616007
 20
82.8754267042
 11
386.4056816007
 21
83.3640367042
  0
LINE
  8
CYAN
 10
386.4056816007
 20
83.3640367042
 11
385.0178156007
 21
83.7271567042
  0
LINE
  8
CYAN
 10
385.0178156007
 20
83.7271567042
 11
383.6304836007
 21
83.9204647042
  0
ARC
  8
CYAN
 10
391.5946077499
 20
158.3706914221
 40
74.8749860221
 50
261.5797554203
 51
263.8941486514
  0
LINE
  8
CYAN
 10
380.6304716007
 20
84.3028087042
 11
379.1571656007
 21
84.6119947042
  0
LINE
  8
CYAN
 10
379.1571656007
 20
84.6119947042
 11
378.1350896007
 21
84.9622987042
  0
ARC
  8
CYAN
 10
378.7844336007
 20
86.8550617042
 40
2.0010495757
 50
235.8052863506
 51
251.0646112953
  0
LINE
  8
CYAN
 10
380.8376636007
 20
97.9246147042
 11
398.2311116007
 21
97.6309147042
  0
LINE
  8
CYAN
 10
398.2311116007
 20
97.6309147042
 11
398.2647536007
 21
99.6328807042
  0
LINE
  8
CYAN
 10
398.2647536007
 20
99.6328807042
 11
380.8713056007
 21
99.9271147042
  0
LINE
  8
CYAN
 10
380.8713056007
 20
99.9271147042
 11
380.8376636007
 21
97.9246147042
  0
ARC
  8
CYAN
 10
322.3423776252
 20
102.8775707601
 40
1.3347088121
 50
301.0112246691
 51
334.0125021232
  0
LINE
  8
CYAN
 10
323.0300276007
 20
101.7336367042
 11
322.7443376007
 21
101.5622227042
  0
ARC
  8
CYAN
 10
322.056851904
 20
102.7065215436
 40
1.3349368588
 50
270.0097727919
 51
300.9971152275
  0
LINE
  8
CYAN
 10
322.0570796007
 20
101.3715847042
 11
316.7437796007
 21
101.3715847042
  0
LINE
  8
CYAN
 10
316.7437796007
 20
101.3715847042
 11
316.7437796007
 21
99.3690847042
  0
LINE
  8
CYAN
 10
316.7437796007
 20
99.3690847042
 11
322.6145756007
 21
99.3690847042
  0
LINE
  8
CYAN
 10
322.6145756007
 20
99.3690847042
 11
322.4554436007
 21
96.4678627042
  0
ARC
  8
CYAN
 10
321.122396676
 20
96.5408443472
 40
1.3350432291
 50
271.039198154
 51
356.8662995208
  0
LINE
  8
CYAN
 10
321.1466096007
 20
95.2060207042
 11
306.9325976007
 21
94.9529047042
  0
ARC
  8
CYAN
 10
306.9090431702
 20
96.287945591
 40
1.3352486587
 50
199.0243471205
 51
271.010777621
  0
LINE
  8
CYAN
 10
305.6467256007
 20
95.8526947042
 11
303.6954896007
 21
101.5130947042
  0
ARC
  8
CYAN
 10
305.0755277249
 20
101.9652748734
 40
1.452230054
 50
179.3211512544
 51
198.1417832845
  0
LINE
  8
CYAN
 10
303.6233996007
 20
101.9824807042
 11
303.6527696007
 21
104.6337907042
  0
ARC
  8
CYAN
 10
304.4035490153
 20
104.6252223985
 40
0.7508283061
 50
89.9981238827
 51
179.3461375867
  0
LINE
  8
CYAN
 10
304.4035736007
 20
105.3760507042
 11
305.6947856007
 21
105.3760507042
  0
LINE
  8
CYAN
 10
305.6947856007
 20
105.3760507042
 11
305.6531336007
 21
109.3810507042
  0
LINE
  8
CYAN
 10
305.6531336007
 20
109.3810507042
 11
313.4062796007
 21
109.3810507042
  0
LINE
  8
CYAN
 10
313.4062796007
 20
109.3810507042
 11
313.4062796007
 21
111.3835507042
  0
LINE
  8
CYAN
 10
313.4062796007
 20
111.3835507042
 11
305.6323076007
 21
111.3835507042
  0
LINE
  8
CYAN
 10
305.6323076007
 20
111.3835507042
 11
305.6210936007
 21
112.4515507042
  0
ARC
  8
CYAN
 10
307.6229316893
 20
112.4723901479
 40
2.0019465566
 50
151.7930768349
 51
180.5964363701
  0
ARC
  8
CYAN
 10
307.56104894
 20
112.3639163862
 40
2.0025786369
 50
114.1431190707
 51
148.2189207595
  0
LINE
  8
CYAN
 10
306.7419596007
 20
114.1913227042
 11
306.6453056007
 21
114.1480687042
  0
ARC
  8
CYAN
 10
307.3723126721
 20
112.6944468525
 40
1.6252863655
 50
91.0059908214
 51
116.5712358421
  0
LINE
  8
CYAN
 10
307.3437776007
 20
114.3194827042
 11
318.1086836007
 21
114.5106547042
  0
LINE
  8
CYAN
 10
318.1086836007
 20
114.5106547042
 11
319.3133876007
 21
114.3547267042
  0
ARC
  8
CYAN
 10
319.0545579961
 20
112.3701966139
 40
2.0013376635
 50
70.2947037272
 51
82.5692207246
  0
LINE
  8
CYAN
 10
319.7293736007
 20
114.2543347042
 11
320.2078376007
 21
114.0839887042
  0
ARC
  8
CYAN
 10
319.5336095029
 20
112.1981073412
 40
2.0027810772
 50
43.9846795509
 51
70.3273427966
  0
LINE
  8
CYAN
 10
320.9746616007
 20
113.5889707042
 11
321.3062756007
 21
113.2450747042
  0
LINE
  8
CYAN
 10
321.3062756007
 20
113.2450747042
 11
321.6122576007
 21
112.7997187042
  0
ARC
  8
CYAN
 10
319.9620626558
 20
111.667410981
 40
2.0013156014
 50
13.0997920533
 51
34.456590881
  0
LINE
  8
CYAN
 10
321.9112976007
 20
112.1210047042
 11
322.1435876007
 21
111.1240267042
  0
LINE
  8
CYAN
 10
322.1435876007
 20
111.1240267042
 11
322.5061736007
 21
105.3760507042
  0
LINE
  8
CYAN
 10
322.5061736007
 20
105.3760507042
 11
323.0001236007
 21
105.3760507042
  0
ARC
  8
CYAN
 10
323.0001236007
 20
104.6252467042
 40
0.750804
 50
0.0
 51
90.0
  0
LINE
  8
CYAN
 10
323.7509276007
 20
104.6252467042
 11
323.7509276007
 21
103.0285867042
  0
ARC
  8
CYAN
 10
322.1841764345
 20
103.0755957398
 40
1.5674562407
 50
330.0365913222
 51
358.2814044874
  0
ARC
  8
CYAN
 10
346.5634624394
 20
101.4266531406
 40
1.5069286016
 50
302.684529524
 51
338.240714018
  0
LINE
  8
CYAN
 10
347.3772236007
 20
100.1583367042
 11
347.0915336007
 21
99.9869227042
  0
ARC
  8
CYAN
 10
346.4041854467
 20
101.1307256964
 40
1.3344409953
 50
270.0038708681
 51
301.0030171513
  0
LINE
  8
CYAN
 10
346.4042756007
 20
99.7962847042
 11
341.0909756007
 21
99.7962847042
  0
LINE
  8
CYAN
 10
341.0909756007
 20
99.7962847042
 11
341.0909756007
 21
97.7937847042
  0
LINE
  8
CYAN
 10
341.0909756007
 20
97.7937847042
 11
346.9617716007
 21
97.7937847042
  0
LINE
  8
CYAN
 10
346.9617716007
 20
97.7937847042
 11
346.8026396007
 21
94.8925627042
  0
ARC
  8
CYAN
 10
345.469592676
 20
94.9655443472
 40
1.3350432291
 50
271.039198154
 51
356.8662995208
  0
LINE
  8
CYAN
 10
345.4938056007
 20
93.6307207042
 11
331.2797936007
 21
93.3776047042
  0
ARC
  8
CYAN
 10
331.2562391702
 20
94.712645591
 40
1.3352486587
 50
199.0243471205
 51
271.010777621
  0
LINE
  8
CYAN
 10
329.9939216007
 20
94.2773947042
 11
328.0426856007
 21
99.9377947042
  0
ARC
  8
CYAN
 10
329.3057484647
 20
100.3720093898
 40
1.3356160345
 50
178.4910327531
 51
198.9719017857
  0
LINE
  8
CYAN
 10
327.9705956007
 20
100.4071807042
 11
327.9999656007
 21
103.0584907042
  0
ARC
  8
CYAN
 10
328.7507450153
 20
103.0499223985
 40
0.7508283061
 50
89.9981238827
 51
179.3461375867
  0
LINE
  8
CYAN
 10
328.7507696007
 20
103.8007507042
 11
330.0419816007
 21
103.8007507042
  0
LINE
  8
CYAN
 10
330.0419816007
 20
103.8007507042
 11
330.0003296007
 21
107.8057507042
  0
LINE
  8
CYAN
 10
330.0003296007
 20
107.8057507042
 11
337.7534756007
 21
107.8057507042
  0
LINE
  8
CYAN
 10
337.7534756007
 20
107.8057507042
 11
337.7534756007
 21
109.8082507042
  0
LINE
  8
CYAN
 10
337.7534756007
 20
109.8082507042
 11
329.9795036007
 21
109.8082507042
  0
LINE
  8
CYAN
 10
329.9795036007
 20
109.8082507042
 11
329.9688236007
 21
110.8762507042
  0
ARC
  8
CYAN
 10
331.776932837
 20
110.9365766953
 40
1.8091153185
 50
92.7234065515
 51
181.910914976
  0
LINE
  8
CYAN
 10
331.6909736007
 20
112.7436487042
 11
342.4558796007
 21
112.9353547042
  0
LINE
  8
CYAN
 10
342.4558796007
 20
112.9353547042
 11
343.6605836007
 21
112.7794267042
  0
ARC
  8
CYAN
 10
343.401632216
 20
110.7943920037
 40
2.0018537863
 50
70.2962921272
 51
82.5676323245
  0
LINE
  8
CYAN
 10
344.0765696007
 20
112.6790347042
 11
344.5550336007
 21
112.5081547042
  0
ARC
  8
CYAN
 10
343.8810488245
 20
110.6226502666
 40
2.0023442419
 50
43.9817543388
 51
70.3302680087
  0
LINE
  8
CYAN
 10
345.3218576007
 20
112.0131367042
 11
345.6534716007
 21
111.6697747042
  0
LINE
  8
CYAN
 10
345.6534716007
 20
111.6697747042
 11
345.9594536007
 21
111.2244187042
  0
ARC
  8
CYAN
 10
344.3090616253
 20
110.0920241698
 40
2.0015271804
 50
13.1009341059
 51
34.4554488284
  0
LINE
  8
CYAN
 10
346.2584936007
 20
110.5457047042
 11
346.4907836007
 21
109.5481927042
  0
LINE
  8
CYAN
 10
346.4907836007
 20
109.5481927042
 11
346.8533696007
 21
103.8007507042
  0
LINE
  8
CYAN
 10
346.8533696007
 20
103.8007507042
 11
347.3473196007
 21
103.8007507042
  0
ARC
  8
CYAN
 10
347.3473196007
 20
103.0499467042
 40
0.750804
 50
0.0
 51
90.0
  0
LINE
  8
CYAN
 10
348.0981236007
 20
103.0499467042
 11
348.0981236007
 21
101.4532867042
  0
ARC
  8
CYAN
 10
346.7636185722
 20
101.4531176323
 40
1.3345050392
 50
333.9958715917
 51
0.0072589506
  0
ARC
  8
CYAN
 10
353.3129149006
 20
102.6562808854
 40
22.1344759832
 50
271.8034392895
 51
277.530840225
  0
LINE
  8
CYAN
 10
356.2138556007
 20
80.7127267042
 11
357.4276376007
 21
80.9354047042
  0
LINE
  8
CYAN
 10
357.4276376007
 20
80.9354047042
 11
358.6296716007
 21
81.2744947042
  0
LINE
  8
CYAN
 10
358.6296716007
 20
81.2744947042
 11
359.7569456007
 21
81.7502887042
  0
LINE
  8
CYAN
 10
359.7569456007
 20
81.7502887042
 11
360.7448456007
 21
82.3846807042
  0
LINE
  8
CYAN
 10
360.7448456007
 20
82.3846807042
 11
361.4609396007
 21
83.1264067042
  0
ARC
  8
CYAN
 10
360.9799623456
 20
83.5893891301
 40
0.6676015628
 50
316.0921048041
 51
332.9776840042
  0
LINE
  8
CYAN
 10
361.5746816007
 20
83.2860727042
 11
361.9981436007
 21
84.1137727042
  0
ARC
  8
CYAN
 10
361.4038291291
 20
84.417704199
 40
0.6675208196
 50
332.9148683233
 51
351.3891017681
  0
LINE
  8
CYAN
 10
362.0638256007
 20
84.3177607042
 11
362.2176176007
 21
85.3344967042
  0
ARC
  8
CYAN
 10
360.3161017761
 20
85.3876657281
 40
1.9022590192
 50
358.3983477383
 51
29.8754795811
  0
LINE
  8
CYAN
 10
361.9655696007
 20
86.3352127042
 11
361.8694496007
 21
86.5354627042
  0
ARC
  8
CYAN
 10
361.2633798535
 20
86.2550948592
 40
0.6677774082
 50
24.8252595445
 51
72.4075641695
  0
LINE
  8
CYAN
 10
361.4652116007
 20
86.8916407042
 11
360.4543496007
 21
87.2115067042
  0
LINE
  8
CYAN
 10
360.4543496007
 20
87.2115067042
 11
358.7439476007
 21
87.8651227042
  0
LINE
  8
CYAN
 10
358.7439476007
 20
87.8651227042
 11
357.8777996007
 21
88.5224767042
  0
LINE
  8
CYAN
 10
357.8777996007
 20
88.5224767042
 11
356.7088736007
 21
89.6962087042
  0
ARC
  8
CYAN
 10
357.655146216
 20
90.6393458841
 40
1.3360163182
 50
213.2608967562
 51
224.9049189601
  0
LINE
  8
CYAN
 10
356.5379936007
 20
89.9066047042
 11
355.7738396007
 21
91.0733947042
  0
ARC
  8
CYAN
 10
356.8901052111
 20
91.8050826789
 40
1.3346970463
 50
200.9382740963
 51
213.2439749417
  0
LINE
  8
CYAN
 10
355.6435436007
 20
91.3281127042
 11
355.1026016007
 21
92.7442807042
  0
LINE
  8
CYAN
 10
355.1026016007
 20
92.7442807042
 11
354.9178376007
 21
93.4988227042
  0
LINE
  8
CYAN
 10
354.9178376007
 20
93.4988227042
 11
354.8825936007
 21
93.7273747042
  0
LINE
  8
CYAN
 10
354.8825936007
 20
93.7273747042
 11
354.8425436007
 21
94.9651867042
  0
ARC
  8
CYAN
 10
356.1733393996
 20
95.0799261309
 40
1.3357329803
 50
167.2949544564
 51
184.9277788094
  0
LINE
  8
CYAN
 10
354.8703116007
 20
95.3736967042
 11
355.1052716007
 21
96.4117927042
  0
ARC
  8
CYAN
 10
356.4071219478
 20
96.1174546431
 40
1.3347094143
 50
149.1101193232
 51
167.2600735842
  0
LINE
  8
CYAN
 10
355.2617336007
 20
96.8026807042
 11
355.6440776007
 21
97.4418787042
  0
ARC
  8
CYAN
 10
356.7894460703
 20
96.7566838143
 40
1.3346763534
 50
130.5500103488
 51
149.1108295677
  0
LINE
  8
CYAN
 10
355.9217576007
 20
97.7708227042
 11
356.4685736007
 21
98.2386067042
  0
ARC
  8
CYAN
 10
357.3368961523
 20
97.223497605
 40
1.3358257884
 50
115.1738170178
 51
130.54362189
  0
LINE
  8
CYAN
 10
356.7686816007
 20
98.4324487042
 11
357.6444416007
 21
98.8436287042
  0
LINE
  8
CYAN
 10
357.6444416007
 20
98.8436287042
 11
358.8165716007
 21
99.1367947042
  0
LINE
  8
CYAN
 10
358.8165716007
 20
99.1367947042
 11
360.0655976007
 21
99.2788387042
  0
ARC
  8
CYAN
 10
361.3197844808
 20
73.6330056385
 40
25.6764822039
 50
88.3311325114
 51
92.7997690711
  0
ARC
  8
CYAN
 10
362.0326025591
 20
97.9375427463
 40
1.3615029015
 50
43.3681711469
 51
88.5285816653
  0
ARC
  8
CYAN
 10
362.1190485239
 20
97.889871894
 40
1.33471057
 50
16.5759704878
 51
47.407372933
  0
LINE
  8
CYAN
 10
363.3982916007
 20
98.2706467042
 11
363.5109656007
 21
97.8941767042
  0
ARC
  8
CYAN
 10
362.2304419599
 20
97.5128417879
 40
1.3360977184
 50
359.5674322271
 51
16.5833249891
  0
LINE
  8
CYAN
 10
363.5665016007
 20
97.5027547042
 11
363.5600936007
 21
96.6392767042
  0
ARC
  8
CYAN
 10
392.6302513477
 20
92.84100371
 40
29.3172466165
 50
172.5559697886
 51
176.3606866017
  0
ARC
  8
CYAN
 10
365.4040652703
 20
94.6253719965
 40
2.0333812082
 50
177.8424193965
 51
193.1400656939
  0
ARC
  8
CYAN
 10
364.7395464714
 20
94.3887548372
 40
1.3348315259
 50
189.7318423557
 51
226.2452792116
  0
LINE
  8
CYAN
 10
363.8164136007
 20
93.4245967042
 11
364.0171976007
 21
93.2318227042
  0
LINE
  8
CYAN
 10
364.0171976007
 20
93.2318227042
 11
364.4385236007
 21
92.6454907042
  0
ARC
  8
CYAN
 10
365.522242731
 20
93.4242950011
 40
1.3345348577
 50
215.7025487748
 51
248.9550812733
  0
LINE
  8
CYAN
 10
365.0430116007
 20
92.1787747042
 11
365.7083756007
 21
91.9224547042
  0
ARC
  8
CYAN
 10
366.1883343855
 20
93.1686965059
 40
1.3354696041
 50
248.9370608066
 51
261.1026156879
  0
LINE
  8
CYAN
 10
365.9817836007
 20
91.8492967042
 11
367.1512436007
 21
91.6672027042
  0
ARC
  8
CYAN
 10
367.4465232987
 20
94.0488221265
 40
2.3998544066
 50
262.9323789217
 51
272.4618631863
  0
LINE
  8
CYAN
 10
367.5496076007
 20
91.6511827042
 11
368.8178576007
 21
91.6976407042
  0
LINE
  8
CYAN
 10
368.8178576007
 20
91.6976407042
 11
370.0311056007
 21
91.5620047042
  0
ARC
  8
CYAN
 10
369.8827085302
 20
90.2355307355
 40
1.3347489952
 50
60.1551933375
 51
83.6166720837
  0
LINE
  8
CYAN
 10
370.5469496007
 20
91.3932607042
 11
370.8550676007
 21
91.2170407042
  0
ARC
  8
CYAN
 10
370.1911879231
 20
90.0589770336
 40
1.3348586785
 50
5.5016013558
 51
60.175776131
  0
LINE
  8
CYAN
 10
371.5198976007
 20
90.1869547042
 11
371.5818416007
 21
89.5456207042
  0
LINE
  8
CYAN
 10
371.5818416007
 20
89.5456207042
 11
371.3057636007
 21
87.9313387042
  0
LINE
  8
CYAN
 10
371.3057636007
 20
87.9313387042
 11
370.7744336007
 21
86.2438987042
  0
LINE
  8
CYAN
 10
370.7744336007
 20
86.2438987042
 11
370.1395076007
 21
84.6776767042
  0
LINE
  8
CYAN
 10
370.1395076007
 20
84.6776767042
 11
369.5510396007
 21
83.4259807042
  0
LINE
  8
CYAN
 10
369.5510396007
 20
83.4259807042
 11
367.5832496007
 21
80.2972747042
  0
ARC
  8
CYAN
 10
338.2944762535
 20
103.0625210337
 40
37.0956693513
 50
313.6441078414
 51
322.1431953002
  0
ARC
  8
CYAN
 10
343.3062243518
 20
98.1443635015
 40
30.0785948083
 50
305.2982959803
 51
313.2015893677
  0
ARC
  8
CYAN
 10
388.080016333
 20
30.692391608
 40
50.9026542391
 50
122.5579412949
 51
125.4224583506
  0
LINE
  8
CYAN
 10
358.5768056007
 20
72.1729987042
 11
357.1622396007
 21
71.3276767042
  0
ARC
  8
CYAN
 10
394.2854406581
 20
-0.6501238133
 40
80.987257171
 50
117.2828298213
 51
118.9331281876
  0
ARC
  8
CYAN
 10
328.5903952103
 20
119.8338854514
 40
56.246638205
 50
292.4193496041
 51
298.1248390839
  0
ARC
  8
CYAN
 10
332.3567630624
 20
111.7223787674
 40
47.3133859174
 50
288.5807734716
 51
291.9493513566
  0
LINE
  8
CYAN
 10
347.4327596007
 20
66.8751847042
 11
344.2495856007
 21
66.0645727042
  0
LINE
  8
CYAN
 10
344.2495856007
 20
66.0645727042
 11
342.0585836007
 21
65.0798767042
  0
LINE
  8
CYAN
 10
342.0585836007
 20
65.0798767042
 11
333.4547756007
 21
73.6089247042
  0
LINE
  8
CYAN
 10
333.4547756007
 20
73.6089247042
 11
332.0455496007
 21
72.1868827042
  0
LINE
  8
CYAN
 10
332.0455496007
 20
72.1868827042
 11
341.0429156007
 21
63.2669467042
  0
LINE
  8
CYAN
 10
341.0429156007
 20
63.2669467042
 11
340.6947476007
 21
61.7327647042
  0
LINE
  8
CYAN
 10
340.6947476007
 20
61.7327647042
 11
340.2883736007
 21
60.3246067042
  0
LINE
  8
CYAN
 10
340.2883736007
 20
60.3246067042
 11
339.7965596007
 21
59.0104327042
  0
LINE
  8
CYAN
 10
339.7965596007
 20
59.0104327042
 11
339.1936736007
 21
57.7662127042
  0
LINE
  8
CYAN
 10
339.1936736007
 20
57.7662127042
 11
338.4540836007
 21
56.5673827042
  0
LINE
  8
CYAN
 10
338.4540836007
 20
56.5673827042
 11
337.5537596007
 21
55.3899127042
  0
LINE
  8
CYAN
 10
337.5537596007
 20
55.3899127042
 11
336.4660016007
 21
54.2097727042
  0
ARC
  8
CYAN
 10
372.7121318388
 20
5.0519469509
 40
61.0759673688
 50
126.4029111146
 51
129.0841458284
  0
LINE
  8
CYAN
 10
334.2061136007
 20
52.4603887042
 11
333.2534576007
 21
51.3838447042
  0
LINE
  8
CYAN
 10
333.2534576007
 20
51.3838447042
 11
332.6137256007
 21
49.9495207042
  0
LINE
  8
CYAN
 10
332.6137256007
 20
49.9495207042
 11
332.0572976007
 21
48.4238827042
  0
LINE
  8
CYAN
 10
332.0572976007
 20
48.4238827042
 11
331.5857756007
 21
46.8475147042
  0
LINE
  8
CYAN
 10
331.5857756007
 20
46.8475147042
 11
331.2012956007
 21
45.2615347042
  0
ARC
  8
CYAN
 10
528.440974923
 20
6.5843551769
 40
200.9960579598
 50
168.9055125909
 51
170.4867678744
  0
ARC
  8
CYAN
 10
391.5601862997
 20
29.5604445491
 40
62.2003572603
 50
170.5209292472
 51
175.6766855498
  0
ARC
  8
CYAN
 10
375.1510174337
 20
31.1958875478
 40
45.7162890391
 50
176.1702280822
 51
179.6993929975
  0
LINE
  8
CYAN
 10
329.4353576007
 20
31.4357407042
 11
329.5774016007
 21
29.8599067042
  0
ARC
  8
CYAN
 10
331.5708003039
 20
30.0399670212
 40
2.0015144535
 50
185.1614231035
 51
200.4928237423
  0
LINE
  8
CYAN
 10
329.6959496007
 20
29.3392567042
 11
330.8985176007
 21
26.1539467042
  0
LINE
  8
CYAN
 10
330.8985176007
 20
26.1539467042
 11
331.4928596007
 21
24.8007907042
  0
LINE
  8
CYAN
 10
331.4928596007
 20
24.8007907042
 11
332.4124076007
 21
21.5118847042
  0
ARC
  8
CYAN
 10
295.5685450052
 20
13.4190949205
 40
37.7221878666
 50
355.7330177771
 51
12.3883418471
  0
LINE
  8
CYAN
 10
333.1861736007
 20
10.6124107042
 11
332.9181056007
 21
9.5086327042
  0
LINE
  8
CYAN
 10
332.9181056007
 20
9.5086327042
 11
332.3680856007
 21
7.6876927042
  0
LINE
  8
CYAN
 10
332.3680856007
 20
7.6876927042
 11
331.4127596007
 21
5.6066947042
  0
LINE
  8
CYAN
 10
331.4127596007
 20
5.6066947042
 11
331.2931436007
 21
5.3840167042
  0
LINE
  8
CYAN
 10
331.2931436007
 20
5.3840167042
 11
330.4355396007
 21
4.0062967042
  0
LINE
  8
CYAN
 10
330.4355396007
 20
4.0062967042
 11
329.4796796007
 21
2.7887767042
  0
LINE
  8
CYAN
 10
329.4796796007
 20
2.7887767042
 11
328.3347836007
 21
1.6182487042
  0
LINE
  8
CYAN
 10
328.3347836007
 20
1.6182487042
 11
327.1364876007
 21
0.6186007042
  0
LINE
  8
CYAN
 10
327.1364876007
 20
0.6186007042
 11
325.3748216007
 21
-0.4825072958
  0
LINE
  8
CYAN
 10
325.3748216007
 20
-0.4825072958
 11
325.1158316007
 21
-0.6170752958
  0
ARC
  8
CYAN
 10
298.3632582698
 20
60.18160408
 40
66.4242395039
 50
292.2606331091
 51
293.7504059265
  0
LINE
  8
CYAN
 10
323.5261136007
 20
-1.2920512958
 11
321.6758036007
 21
-1.9098892958
  0
LINE
  8
CYAN
 10
321.6758036007
 20
-1.9098892958
 11
320.1592436007
 21
-2.1961132958
  0
ARC
  8
CYAN
 10
315.547112583
 20
35.4694459686
 40
37.9468853429
 50
272.5583404474
 51
276.9810899586
  0
ARC
  8
CYAN
 10
317.8233857441
 20
26.0660989593
 40
28.5116662038
 50
260.5137000765
 51
268.829448586
  0
LINE
  8
CYAN
 10
313.1243276007
 20
-2.0556712958
 11
311.8464656007
 21
-1.7897392958
  0
LINE
  8
CYAN
 10
311.8464656007
 20
-1.7897392958
 11
310.5985076007
 21
-1.4474452958
  0
LINE
  8
CYAN
 10
310.5985076007
 20
-1.4474452958
 11
309.3703076007
 21
-1.0245172958
  0
LINE
  8
CYAN
 10
309.3703076007
 20
-1.0245172958
 11
308.1517196007
 21
-0.5166832958
  0
LINE
  8
CYAN
 10
308.1517196007
 20
-0.5166832958
 11
306.9325976007
 21
0.0813967042
  0
LINE
  8
CYAN
 10
306.9325976007
 20
0.0813967042
 11
305.7022616007
 21
0.7729267042
  0
ARC
  8
CYAN
 10
234.5260634127
 20
-99.2003424126
 40
122.7220669904
 50
54.5509478451
 51
55.9488778595
  0
LINE
  8
CYAN
 10
303.2421236007
 20
2.4795907042
 11
302.0278076007
 21
3.3996727042
  0
LINE
  8
CYAN
 10
302.0278076007
 20
3.3996727042
 11
301.1093276007
 21
4.2834427042
  0
ARC
  8
CYAN
 10
302.4985412327
 20
5.7259850722
 40
2.0027089151
 50
215.2288623063
 51
226.0788889845
  0
LINE
  8
CYAN
 10
300.8626196007
 20
4.5707347042
 11
299.8554956007
 21
5.9981167042
  0
LINE
  8
CYAN
 10
299.8554956007
 20
5.9981167042
 11
299.5959716007
 21
6.4301227042
  0
ARC
  8
CYAN
 10
317.2965455234
 20
15.7648125997
 40
20.0111656991
 50
201.8494424328
 51
207.8056630678
  0
ARC
  8
CYAN
 10
346.6025252167
 20
28.7308242058
 40
52.0497177009
 50
198.3701836867
 51
203.0910359068
  0
LINE
  8
CYAN
 10
297.2052536007
 20
12.3270847042
 11
296.7732476007
 21
13.8110707042
  0
LINE
  8
CYAN
 10
296.7732476007
 20
13.8110707042
 11
296.4656636007
 21
15.2502007042
  0
LINE
  8
CYAN
 10
296.4656636007
 20
15.2502007042
 11
296.3359016007
 21
16.5734527042
  0
LINE
  8
CYAN
 10
296.3359016007
 20
16.5734527042
 11
296.4368276007
 21
17.7087367042
  0
ARC
  8
CYAN
 10
326.7214249507
 20
4.8752393557
 40
32.8915717296
 50
153.6201510694
 51
157.0345575175
  0
LINE
  8
CYAN
 10
297.2549156007
 20
19.4896267042
 11
297.8455196007
 21
20.4615067042
  0
LINE
  8
CYAN
 10
297.8455196007
 20
20.4615067042
 11
298.9188596007
 21
22.5232807042
  0
LINE
  8
CYAN
 10
298.9188596007
 20
22.5232807042
 11
299.4304316007
 21
23.7274507042
  0
LINE
  8
CYAN
 10
299.4304316007
 20
23.7274507042
 11
299.8597676007
 21
25.0010407042
  0
LINE
  8
CYAN
 10
299.8597676007
 20
25.0010407042
 11
300.1961876007
 21
26.3216227042
  0
LINE
  8
CYAN
 10
300.1961876007
 20
26.3216227042
 11
300.4295456007
 21
27.6678367042
  0
LINE
  8
CYAN
 10
300.4295456007
 20
27.6678367042
 11
300.5502296007
 21
29.0172547042
  0
LINE
  8
CYAN
 10
300.5502296007
 20
29.0172547042
 11
300.5486276007
 21
30.3479827042
  0
LINE
  8
CYAN
 10
300.5486276007
 20
30.3479827042
 11
300.4129916007
 21
31.6381267042
  0
ARC
  8
CYAN
 10
382.8353571571
 20
50.7755565223
 40
84.6149370026
 50
190.9175935595
 51
193.0717362287
  0
LINE
  8
CYAN
 10
299.7518996007
 20
34.7497447042
 11
299.2451336007
 21
36.5818987042
  0
LINE
  8
CYAN
 10
299.2451336007
 20
36.5818987042
 11
298.8734696007
 21
38.3318167042
  0
LINE
  8
CYAN
 10
298.8734696007
 20
38.3318167042
 11
298.2481556007
 21
40.1645047042
  0
ARC
  8
CYAN
 10
506.1937865526
 20
93.2741213265
 40
214.6206346318
 50
193.2958429889
 51
194.3271470602
  0
LINE
  8
CYAN
 10
297.3259376007
 20
43.9158547042
 11
296.7935396007
 21
45.4687267042
  0
LINE
  8
CYAN
 10
296.7935396007
 20
45.4687267042
 11
296.5297436007
 21
47.1679147042
  0
LINE
  8
CYAN
 10
296.5297436007
 20
47.1679147042
 11
296.1655556007
 21
48.7095727042
  0
ARC
  8
CYAN
 10
381.5143344667
 20
62.4582711035
 40
86.4490645501
 50
185.2782424441
 51
189.1510708269
  0
ARC
  8
CYAN
 10
340.1217417556
 20
58.1356944451
 40
44.8370926477
 50
180.9539525429
 51
184.6438444842
  0
ARC
  8
CYAN
 10
364.0264521741
 20
57.1649496282
 40
68.7359544101
 50
177.0404148085
 51
179.8130654986
  0
LINE
  8
CYAN
 10
295.3821776007
 20
60.7138927042
 11
295.7111216007
 21
64.3520347042
  0
LINE
  8
CYAN
 10
295.7111216007
 20
64.3520347042
 11
296.0438036007
 21
65.8397587042
  0
LINE
  8
CYAN
 10
296.0438036007
 20
65.8397587042
 11
296.2894436007
 21
67.3354927042
  0
LINE
  8
CYAN
 10
296.2894436007
 20
67.3354927042
 11
296.4186716007
 21
68.8157407042
  0
LINE
  8
CYAN
 10
296.4186716007
 20
68.8157407042
 11
296.4010496007
 21
70.2559387042
  0
ARC
  8
CYAN
 10
351.8052605685
 20
82.4219804038
 40
56.7242378847
 50
187.7327374957
 51
192.3848431019
  0
ARC
  8
CYAN
 10
320.3614673405
 20
78.0342922388
 40
24.9762792675
 50
179.2174518374
 51
187.4644496537
  0
LINE
  8
CYAN
 10
295.3875176007
 20
78.3754087042
 11
295.4590736007
 21
79.5427327042
  0
LINE
  8
CYAN
 10
295.4590736007
 20
79.5427327042
 11
295.6208756007
 21
80.6769487042
  0
LINE
  8
CYAN
 10
295.6208756007
 20
80.6769487042
 11
295.8862736007
 21
81.7657747042
  0
LINE
  8
CYAN
 10
295.8862736007
 20
81.7657747042
 11
296.2670156007
 21
82.7974627042
  0
LINE
  8
CYAN
 10
296.2670156007
 20
82.7974627042
 11
296.7759176007
 21
83.7602647042
  0
LINE
  8
CYAN
 10
296.7759176007
 20
83.7602647042
 11
297.4252616007
 21
84.6424327042
  0
LINE
  8
CYAN
 10
297.4252616007
 20
84.6424327042
 11
298.2267956007
 21
85.4322187042
  0
LINE
  8
CYAN
 10
298.2267956007
 20
85.4322187042
 11
299.1928016007
 21
86.1173407042
  0
LINE
  8
CYAN
 10
299.1928016007
 20
86.1173407042
 11
300.3761456007
 21
86.7853747042
  0
LINE
  8
CYAN
 10
300.3761456007
 20
86.7853747042
 11
302.0208656007
 21
87.2253907042
  0
ARC
  8
CYAN
 10
293.9118414853
 20
134.1110761592
 40
47.581758823
 50
279.8124116676
 51
283.6166968836
  0
LINE
  8
CYAN
 10
305.1137936007
 20
87.8667247042
 11
306.4231616007
 21
87.9756607042
  0
LINE
  8
CYAN
 10
306.4231616007
 20
87.9756607042
 11
307.7522876007
 21
88.2015427042
  0
ARC
  8
CYAN
 10
307.5273209603
 20
89.5169244265
 40
1.3344808222
 50
279.7052615664
 51
296.0965699215
  0
ARC
  8
CYAN
 10
317.7321319479
 20
69.6597580614
 40
20.9916687959
 50
113.4649198278
 51
117.2692050052
  0
LINE
  8
CYAN
 10
309.3735116007
 20
88.9155007042
 11
310.1237816007
 21
89.2978447042
  0
LINE
  8
CYAN
 10
310.1237816007
 20
89.2978447042
 11
310.9194416007
 21
89.5995547042
  0
LINE
  8
CYAN
 10
310.9194416007
 20
89.5995547042
 11
313.2882656007
 21
90.7594027042
  0
LINE
  8
CYAN
 10
313.2882656007
 20
90.7594027042
 11
314.1613556007
 21
91.2303907042
  0
ARC
  8
CYAN
 10
314.795670388
 20
90.0556728366
 40
1.3350345755
 50
82.0184484539
 51
118.367805356
  0
LINE
  8
CYAN
 10
314.9810456007
 20
91.3777747042
 11
315.8028716007
 21
91.2618967042
  0
ARC
  8
CYAN
 10
330.4180395297
 20
121.988204608
 40
34.0251249959
 50
244.561599721
 51
249.1675669797
  0
LINE
  8
CYAN
 10
318.3174776007
 20
90.1874887042
 11
318.6656456007
 21
89.9600047042
  0
ARC
  8
CYAN
 10
337.4745316406
 20
130.1683852281
 40
44.390179752
 50
244.9305018662
 51
248.1846421411
  0
ARC
  8
CYAN
 10
391.0870075577
 20
262.5564360929
 40
187.2216015922
 50
248.0085281311
 51
250.1857132391
  0
ARC
  8
CYAN
 10
339.7924693072
 20
120.5506726014
 40
36.2358736368
 50
250.3780797007
 51
255.3052589322
  0
ARC
  8
CYAN
 10
243.5119167696
 20
-186.1309456237
 40
285.2504510638
 50
71.2150192432
 51
72.2234350314
  0
ARC
  8
CYAN
 10
352.7109282526
 20
137.264757661
 40
56.088262286
 50
251.9880358274
 51
258.3804238906
  0
ARC
  8
CYAN
 10
360.187884735
 20
173.9303365574
 40
93.5084080469
 50
258.4179122551
 51
263.1155183655
  0
ARC
  8
CYAN
 10
371.2689477472
 20
261.8476095865
 40
182.1206359221
 50
262.9699500695
 51
264.5513267243
  0
LINE
  8
CYAN
 10
353.9758616007
 20
80.5498567042
 11
354.0095036007
 21
80.5327687042
  0
LINE
  8
CYAN
 10
302.9051696007
 20
20.9901667042
 11
317.4748256007
 21
11.0337367042
  0
LINE
  8
CYAN
 10
317.4748256007
 20
11.0337367042
 11
318.6042356007
 21
12.6870007042
  0
LINE
  8
CYAN
 10
318.6042356007
 20
12.6870007042
 11
304.0351136007
 21
22.6434307042
  0
LINE
  8
CYAN
 10
304.0351136007
 20
22.6434307042
 11
302.9051696007
 21
20.9901667042
  0
LINE
  8
CYAN
 10
299.6253416007
 20
80.8659847042
 11
316.3966796007
 21
75.3786007042
  0
LINE
  8
CYAN
 10
316.3966796007
 20
75.3786007042
 11
317.0193236007
 21
77.2817767042
  0
LINE
  8
CYAN
 10
317.0193236007
 20
77.2817767042
 11
300.2479856007
 21
82.7691607042
  0
LINE
  8
CYAN
 10
300.2479856007
 20
82.7691607042
 11
299.6253416007
 21
80.8659847042
  0
LINE
  8
CYAN
 10
306.8492936007
 20
50.6981887042
 11
324.4947896007
 21
50.8663987042
  0
LINE
  8
CYAN
 10
324.4947896007
 20
50.8663987042
 11
324.4755656007
 21
52.8688987042
  0
LINE
  8
CYAN
 10
324.4755656007
 20
52.8688987042
 11
306.8300696007
 21
52.7006887042
  0
LINE
  8
CYAN
 10
306.8300696007
 20
52.7006887042
 11
306.8492936007
 21
50.6981887042
  0
ARC
  8
CYAN
 10
388.2704249761
 20
3.5454722809
 40
0.667628788
 50
263.4309253482
 51
14.2129382974
  0
LINE
  8
CYAN
 10
388.1940476007
 20
2.8822267042
 11
382.8657956007
 21
3.4941907042
  0
ARC
  8
CYAN
 10
395.0024163535
 20
96.8387107953
 40
94.130212973
 50
259.3150197854
 51
262.5919813743
  0
LINE
  8
CYAN
 10
377.5498256007
 20
4.3405807042
 11
376.7573696007
 21
4.5718027042
  0
LINE
  8
CYAN
 10
376.7573696007
 20
4.5718027042
 11
375.0704636007
 21
4.8783187042
  0
LINE
  8
CYAN
 10
375.0704636007
 20
4.8783187042
 11
375.6033956007
 21
3.8017747042
  0
LINE
  8
CYAN
 10
375.6033956007
 20
3.8017747042
 11
375.7465076007
 21
3.4375867042
  0
ARC
  8
CYAN
 10
374.0879005038
 20
2.7465607921
 40
1.7968011334
 50
325.5598469744
 51
22.6180877269
  0
ARC
  8
CYAN
 10
375.0103412865
 20
2.094855555
 40
0.6676662509
 50
291.2218891122
 51
326.915057038
  0
LINE
  8
CYAN
 10
375.2520236007
 20
1.4724667042
 11
374.9230796007
 21
1.3453747042
  0
ARC
  8
CYAN
 10
374.1995110185
 20
3.2117050247
 40
2.0016843803
 50
274.283777372
 51
291.191106912
  0
LINE
  8
CYAN
 10
374.3490296007
 20
1.2156127042
 11
373.5170576007
 21
1.1531347042
  0
LINE
  8
CYAN
 10
373.5170576007
 20
1.1531347042
 11
372.1676396007
 21
1.2487207042
  0
LINE
  8
CYAN
 10
372.1676396007
 20
1.2487207042
 11
370.6980716007
 21
1.4756707042
  0
ARC
  8
CYAN
 10
380.7443591779
 20
52.3827886611
 40
51.8889444174
 50
253.085424373
 51
258.836387193
  0
ARC
  8
CYAN
 10
367.0725910458
 20
8.3951058582
 40
5.8332805903
 50
244.4772383374
 51
255.8593176301
  0
LINE
  8
CYAN
 10
364.5592076007
 20
3.1310707042
 11
363.4458176007
 21
3.4877827042
  0
LINE
  8
CYAN
 10
363.4458176007
 20
3.4877827042
 11
364.3797836007
 21
1.6182487042
  0
ARC
  8
CYAN
 10
358.3017508139
 20
-0.5461191831
 40
6.4518966909
 50
13.0935544553
 51
19.6006505776
  0
ARC
  8
CYAN
 10
363.9419245329
 20
0.7388459038
 40
0.6677743057
 50
319.8584856173
 51
15.340136068
  0
LINE
  8
CYAN
 10
364.4524076007
 20
0.3083467042
 11
363.9718076007
 21
-0.2608972958
  0
ARC
  8
CYAN
 10
363.4615191454
 20
0.1693775529
 40
0.6674809009
 50
264.2881376422
 51
319.8624379569
  0
LINE
  8
CYAN
 10
363.3950876007
 20
-0.4947892958
 11
362.9374496007
 21
-0.4488652958
  0
ARC
  8
CYAN
 10
364.6400360509
 20
7.9761506253
 40
8.5953297721
 50
249.2513248356
 51
258.5751349195
  0
LINE
  8
CYAN
 10
361.5949736007
 20
-0.0617152958
 11
360.0928316007
 21
0.4610707042
  0
ARC
  8
CYAN
 10
412.7758506548
 20
104.0032754511
 40
116.1743890042
 50
240.5117659168
 51
243.0326803873
  0
LINE
  8
CYAN
 10
355.5896096007
 20
2.8784887042
 11
354.8430776007
 21
3.3751087042
  0
LINE
  8
CYAN
 10
354.8430776007
 20
3.3751087042
 11
354.7309376007
 21
2.4267247042
  0
ARC
  8
CYAN
 10
354.0681766802
 20
2.5049893868
 40
0.6673660152
 50
334.7267224136
 51
353.2651966146
  0
LINE
  8
CYAN
 10
354.6716636007
 20
2.2200667042
 11
354.4612676007
 21
1.7747107042
  0
ARC
  8
CYAN
 10
353.8577793846
 20
2.0592629377
 40
0.6672091131
 50
296.5319546186
 51
334.7555368097
  0
LINE
  8
CYAN
 10
354.1558196007
 20
1.4623207042
 11
353.6768216007
 21
1.2230887042
  0
ARC
  8
CYAN
 10
353.3787496147
 20
1.8206319532
 40
0.6677610675
 50
246.6407455758
 51
296.5113578523
  0
LINE
  8
CYAN
 10
353.1139856007
 20
1.2076027042
 11
352.0710836007
 21
1.6577647042
  0
ARC
  8
CYAN
 10
352.3365946449
 20
2.2703871074
 40
0.6676842993
 50
228.7620750626
 51
246.5680524674
  0
ARC
  8
CYAN
 10
415.2204098911
 20
75.3641621372
 40
97.0889924047
 50
227.2966375428
 51
229.2903725064
  0
ARC
  8
CYAN
 10
322.196157135
 20
-21.8715587011
 40
37.5342105616
 50
43.6066239557
 51
46.9300541835
  0
LINE
  8
CYAN
 10
347.8279196007
 20
5.5479547042
 11
347.6207276007
 21
5.8138867042
  0
LINE
  8
CYAN
 10
347.6207276007
 20
5.8138867042
 11
347.3414456007
 21
5.3199367042
  0
ARC
  8
CYAN
 10
346.7591653185
 20
5.6466476654
 40
0.6676753546
 50
314.9544491356
 51
330.7037038845
  0
LINE
  8
CYAN
 10
347.2309076007
 20
5.1741547042
 11
346.9820636007
 21
4.9274467042
  0
ARC
  8
CYAN
 10
346.5118120216
 20
5.4008885927
 40
0.6672958634
 50
291.3834759235
 51
314.8063030278
  0
LINE
  8
CYAN
 10
346.7551136007
 20
4.7795287042
 11
346.4566076007
 21
4.6631167042
  0
ARC
  8
CYAN
 10
346.2131232686
 20
5.2841576912
 40
0.6670656096
 50
242.6949424012
 51
291.4080794707
  0
LINE
  8
CYAN
 10
345.9071216007
 20
4.6914187042
 11
345.3133136007
 21
4.9979347042
  0
ARC
  8
CYAN
 10
345.6201255339
 20
5.5905387838
 40
0.6673178834
 50
219.5513939329
 51
242.627811303
  0
LINE
  8
CYAN
 10
345.1055876007
 20
5.1656107042
 11
344.4920216007
 21
5.9062687042
  0
LINE
  8
CYAN
 10
344.4920216007
 20
5.9062687042
 11
344.4028436007
 21
6.0461767042
  0
LINE
  8
CYAN
 10
344.4028436007
 20
6.0461767042
 11
343.8773876007
 21
7.1579647042
  0
LINE
  8
CYAN
 10
343.8773876007
 20
7.1579647042
 11
343.4726156007
 21
8.4967027042
  0
ARC
  8
CYAN
 10
374.1781932051
 20
15.4683682626
 40
31.4870865066
 50
187.9345264195
 51
192.7920673412
  0
LINE
  8
CYAN
 10
342.9925496007
 20
11.1218467042
 11
342.8264756007
 21
12.2998507042
  0
LINE
  8
CYAN
 10
342.8264756007
 20
12.2998507042
 11
341.9218796007
 21
11.8139107042
  0
LINE
  8
CYAN
 10
341.9218796007
 20
11.8139107042
 11
341.5822556007
 21
11.6772067042
  0
ARC
  8
CYAN
 10
341.3336801634
 20
12.2966235069
 40
0.6674330854
 50
238.2607023399
 51
291.8658682807
  0
LINE
  8
CYAN
 10
340.9825736007
 20
11.7290047042
 11
340.4768756007
 21
12.0413947042
  0
ARC
  8
CYAN
 10
340.8279449488
 20
12.6093874352
 40
0.6677315551
 50
203.3026642934
 51
238.2802967931
  0
LINE
  8
CYAN
 10
340.2146816007
 20
12.3452407042
 11
339.9791876007
 21
12.8925907042
  0
ARC
  8
CYAN
 10
340.5924026896
 20
13.1557167195
 40
0.6672840813
 50
187.3446550154
 51
203.2238098039
  0
ARC
  8
CYAN
 10
291.6974349602
 20
7.1253662114
 40
48.5981601528
 50
7.0266325165
 51
9.501549805
  0
LINE
  8
CYAN
 10
339.6288836007
 20
15.1476727042
 11
339.5413076007
 21
16.3630567042
  0
LINE
  8
CYAN
 10
339.5413076007
 20
16.3630567042
 11
339.6828176007
 21
17.5357207042
  0
LINE
  8
CYAN
 10
339.6828176007
 20
17.5357207042
 11
346.1709176007
 21
23.2105387042
  0
LINE
  8
CYAN
 10
346.1709176007
 20
23.2105387042
 11
344.8530056007
 21
24.7180207042
  0
LINE
  8
CYAN
 10
344.8530056007
 20
24.7180207042
 11
339.9855956007
 21
20.4609727042
  0
LINE
  8
CYAN
 10
339.9855956007
 20
20.4609727042
 11
339.7832096007
 21
23.6297287042
  0
LINE
  8
CYAN
 10
339.7832096007
 20
23.6297287042
 11
339.9695756007
 21
24.9887587042
  0
ARC
  8
CYAN
 10
373.3731267064
 20
19.1094924197
 40
33.9170016144
 50
165.3658042527
 51
170.0177692728
  0
ARC
  8
CYAN
 10
390.9417986318
 20
13.9139936933
 40
52.2316599091
 50
160.1604027297
 51
164.7204747218
  0
LINE
  8
CYAN
 10
341.8102736007
 20
31.6407967042
 11
343.2542096007
 21
35.5165687042
  0
ARC
  8
CYAN
 10
266.279392743
 20
64.9494606863
 40
82.4100574002
 50
339.0746252255
 51
341.8705702409
  0
ARC
  8
CYAN
 10
321.2267013352
 20
50.570008313
 40
25.9441836807
 50
334.2688437068
 51
341.6009006694
  0
LINE
  8
CYAN
 10
345.8446436007
 20
42.3811387042
 11
347.3510576007
 21
45.8158267042
  0
LINE
  8
CYAN
 10
347.3510576007
 20
45.8158267042
 11
348.0965216007
 21
47.3836507042
  0
LINE
  8
CYAN
 10
348.0965216007
 20
47.3836507042
 11
348.5963456007
 21
48.0367327042
  0
LINE
  8
CYAN
 10
348.5963456007
 20
48.0367327042
 11
349.0865576007
 21
48.5066527042
  0
LINE
  8
CYAN
 10
349.0865576007
 20
48.5066527042
 11
349.6456556007
 21
48.8462767042
  0
LINE
  8
CYAN
 10
349.6456556007
 20
48.8462767042
 11
351.3491156007
 21
49.6675687042
  0
LINE
  8
CYAN
 10
351.3491156007
 20
49.6675687042
 11
353.5673516007
 21
50.5844467042
  0
LINE
  8
CYAN
 10
353.5673516007
 20
50.5844467042
 11
353.9651816007
 21
50.7777547042
  0
ARC
  8
CYAN
 10
354.2565307613
 20
50.1771658942
 40
0.6675262182
 50
350.3612875387
 51
115.8782960507
  0
ARC
  8
CYAN
 10
414.7637434487
 20
35.5953407213
 40
61.573521319
 50
166.408108719
 51
168.9746772415
  0
LINE
  8
CYAN
 10
354.3266996007
 20
47.3708347042
 11
354.0463496007
 21
45.2695447042
  0
LINE
  8
CYAN
 10
354.0463496007
 20
45.2695447042
 11
355.2547916007
 21
45.2076007042
  0
LINE
  8
CYAN
 10
355.2547916007
 20
45.2076007042
 11
355.6414076007
 21
46.5126967042
  0
LINE
  8
CYAN
 10
355.6414076007
 20
46.5126967042
 11
356.5550816007
 21
48.1066867042
  0
LINE
  8
CYAN
 10
356.5550816007
 20
48.1066867042
 11
357.3683636007
 21
49.1778907042
  0
LINE
  8
CYAN
 10
357.3683636007
 20
49.1778907042
 11
357.6828896007
 21
48.6737947042
  0
ARC
  8
CYAN
 10
356.260892647
 20
47.2645026637
 40
2.0020438036
 50
23.8530180347
 51
44.7428969569
  0
LINE
  8
CYAN
 10
358.0919336007
 20
48.0741127042
 11
358.3135436007
 21
47.5726867042
  0
ARC
  8
CYAN
 10
356.482403875
 20
46.7635489566
 40
2.0019432035
 50
351.2274743636
 51
23.8395123602
  0
LINE
  8
CYAN
 10
358.4609276007
 20
46.4582287042
 11
358.3952456007
 21
46.0315627042
  0
ARC
  8
CYAN
 10
356.4168970907
 20
46.3368268812
 40
2.0017614855
 50
330.5044178414
 51
351.2282957468
  0
LINE
  8
CYAN
 10
358.1592176007
 20
45.3512467042
 11
357.5947796007
 21
44.3537347042
  0
LINE
  8
CYAN
 10
357.5947796007
 20
44.3537347042
 11
356.8247516007
 21
43.4069527042
  0
ARC
  8
CYAN
 10
358.3779351051
 20
42.1440683312
 40
2.0018131626
 50
140.8856426776
 51
160.9112286364
  0
LINE
  8
CYAN
 10
356.4861956007
 20
42.7987267042
 11
356.2800716007
 21
42.2027827042
  0
LINE
  8
CYAN
 10
356.2800716007
 20
42.2027827042
 11
356.0039936007
 21
41.0130307042
  0
LINE
  8
CYAN
 10
356.0039936007
 20
41.0130307042
 11
355.8122876007
 21
39.6630787042
  0
LINE
  8
CYAN
 10
355.8122876007
 20
39.6630787042
 11
355.7423336007
 21
38.2517167042
  0
LINE
  8
CYAN
 10
355.7423336007
 20
38.2517167042
 11
355.8320456007
 21
36.8798707042
  0
LINE
  8
CYAN
 10
355.8320456007
 20
36.8798707042
 11
356.0328296007
 21
36.0179947042
  0
ARC
  8
CYAN
 10
357.9842123532
 20
36.47209761
 40
2.0035229212
 50
193.1000533287
 51
214.7091254809
  0
LINE
  8
CYAN
 10
356.3372096007
 20
35.3312707042
 11
356.7489236007
 21
34.7374627042
  0
LINE
  8
CYAN
 10
356.7489236007
 20
34.7374627042
 11
357.4377836007
 21
33.9909307042
  0
LINE
  8
CYAN
 10
357.4377836007
 20
33.9909307042
 11
358.4614616007
 21
32.7066607042
  0
LINE
  8
CYAN
 10
358.4614616007
 20
32.7066607042
 11
359.0857076007
 21
31.6995367042
  0
ARC
  8
CYAN
 10
357.3844315501
 20
30.6453231725
 40
2.0014260843
 50
20.5752444583
 51
31.7848590089
  0
LINE
  8
CYAN
 10
359.2581896007
 20
31.3486987042
 11
359.5460156007
 21
30.5818747042
  0
ARC
  8
CYAN
 10
357.6718145689
 20
29.878034214
 40
2.0020042316
 50
7.1718126618
 51
20.5832469446
  0
LINE
  8
CYAN
 10
359.6581556007
 20
30.1279747042
 11
359.7889856007
 21
29.0850727042
  0
LINE
  8
CYAN
 10
359.7889856007
 20
29.0850727042
 11
359.6789816007
 21
27.5952127042
  0
LINE
  8
CYAN
 10
359.6789816007
 20
27.5952127042
 11
359.3062496007
 21
25.7849527042
  0
LINE
  8
CYAN
 10
359.3062496007
 20
25.7849527042
 11
359.0782316007
 21
25.2237187042
  0
LINE
  8
CYAN
 10
359.0782316007
 20
25.2237187042
 11
358.8806516007
 21
24.5396647042
  0
LINE
  8
CYAN
 10
358.8806516007
 20
24.5396647042
 11
358.7530256007
 21
23.7979387042
  0
LINE
  8
CYAN
 10
358.7530256007
 20
23.7979387042
 11
359.6143676007
 21
23.9079427042
  0
LINE
  8
CYAN
 10
359.6143676007
 20
23.9079427042
 11
360.5173616007
 21
24.1578547042
  0
ARC
  8
CYAN
 10
359.8125915366
 20
27.1425990827
 40
3.066822435
 50
283.2855711029
 51
293.1819958791
  0
LINE
  8
CYAN
 10
361.0198556007
 20
24.3233947042
 11
361.7055116007
 21
24.6165607042
  0
LINE
  8
CYAN
 10
361.7055116007
 20
24.6165607042
 11
363.0656096007
 21
25.3636267042
  0
LINE
  8
CYAN
 10
363.0656096007
 20
25.3636267042
 11
364.2441476007
 21
26.3878387042
  0
ARC
  8
CYAN
 10
335.9055342745
 20
53.4637878805
 40
39.1941836124
 50
316.3053032812
 51
320.8193881607
  0
LINE
  8
CYAN
 10
366.2872316007
 20
28.7021947042
 11
367.2377516007
 21
29.7872827042
  0
LINE
  8
CYAN
 10
367.2377516007
 20
29.7872827042
 11
367.2713936007
 21
29.7872827042
  0
LINE
  8
CYAN
 10
367.2713936007
 20
29.7872827042
 11
368.1338036007
 21
31.0592707042
  0
LINE
  8
CYAN
 10
368.1338036007
 20
31.0592707042
 11
369.4036556007
 21
32.7130687042
  0
LINE
  8
CYAN
 10
369.4036556007
 20
32.7130687042
 11
370.0914476007
 21
33.5343607042
  0
ARC
  8
CYAN
 10
451.8343461135
 20
-24.0054392143
 40
99.9636435507
 50
143.0701142969
 51
144.8578292477
  0
LINE
  8
CYAN
 10
371.9262716007
 20
36.0564427042
 11
372.8901416007
 21
37.2638167042
  0
LINE
  8
CYAN
 10
372.8901416007
 20
37.2638167042
 11
373.8983336007
 21
38.3862847042
  0
ARC
  8
CYAN
 10
424.6342002267
 20
-14.3837190309
 40
73.2038349849
 50
131.7886909325
 51
133.8741462663
  0
LINE
  8
CYAN
 10
375.8522396007
 20
40.1976127042
 11
376.5790136007
 21
40.8069067042
  0
LINE
  8
CYAN
 10
376.5790136007
 20
40.8069067042
 11
378.0683396007
 21
41.8455367042
  0
LINE
  8
CYAN
 10
378.0683396007
 20
41.8455367042
 11
379.6847576007
 21
42.8206207042
  0
LINE
  8
CYAN
 10
379.6847576007
 20
42.8206207042
 11
380.6197916007
 21
43.3332607042
  0
ARC
  8
CYAN
 10
361.6878646501
 20
85.1414565462
 40
45.8949136357
 50
294.3623549154
 51
296.5628425476
  0
LINE
  8
CYAN
 10
382.2111116007
 20
44.0910067042
 11
383.2646936007
 21
44.5721407042
  0
ARC
  8
CYAN
 10
440.7442191272
 20
-123.1915226399
 40
177.3373694216
 50
107.8354211864
 51
108.9125891154
  0
LINE
  8
CYAN
 10
386.4286436007
 20
45.6230527042
 11
387.9110276007
 21
46.0075327042
  0
ARC
  8
CYAN
 10
389.5634957274
 20
37.5067500635
 40
8.6599051042
 50
94.9294291288
 51
101.0005414533
  0
ARC
  8
CYAN
 10
389.0574023105
 20
44.1466760427
 40
2.0021496598
 50
60.2368941073
 51
96.8281937131
  0
ARC
  8
CYAN
 10
388.9199778044
 20
44.232121002
 40
2.0027352149
 50
3.466054286
 51
55.6054613232
  0
LINE
  8
CYAN
 10
390.9190496007
 20
44.3532007042
 11
390.9372056007
 21
44.0504227042
  0
LINE
  8
CYAN
 10
390.9372056007
 20
44.0504227042
 11
382.3542236007
 21
9.6458707042
  0
LINE
  8
CYAN
 10
382.3542236007
 20
9.6458707042
 11
386.0398916007
 21
7.4698207042
  0
LINE
  8
CYAN
 10
386.0398916007
 20
7.4698207042
 11
387.2744996007
 21
6.5443987042
  0
LINE
  8
CYAN
 10
387.2744996007
 20
6.5443987042
 11
387.9596216007
 21
5.9660767042
  0
ARC
  8
CYAN
 10
386.6665411297
 20
4.43659297
 40
2.0028423796
 50
14.2337519769
 51
49.7876218223
  0
LINE
  8
CYAN
 10
388.6078976007
 20
4.9290487042
 11
388.9176176007
 21
3.7093927042
  0
LINE
  8
CYAN
 10
358.2329096007
 20
12.4418947042
 11
377.7265796007
 21
18.3089527042
  0
LINE
  8
CYAN
 10
377.7265796007
 20
18.3089527042
 11
377.1493256007
 21
20.2260127042
  0
LINE
  8
CYAN
 10
377.1493256007
 20
20.2260127042
 11
357.6556556007
 21
14.3594887042
  0
LINE
  8
CYAN
 10
357.6556556007
 20
14.3594887042
 11
358.2329096007
 21
12.4418947042
  0
LINE
  8
CYAN
 10
357.3742376007
 20
57.8126707042
 11
357.3598196007
 21
58.3856527042
  0
LINE
  8
CYAN
 10
357.3598196007
 20
58.3856527042
 11
357.4708916007
 21
59.8504147042
  0
ARC
  8
CYAN
 10
370.0983968024
 20
56.179973307
 40
13.1501341312
 50
152.9147274063
 51
163.7924184967
  0
LINE
  8
CYAN
 10
358.3904396007
 20
62.1674407042
 11
358.6296716007
 21
62.8701847042
  0
LINE
  8
CYAN
 10
358.6296716007
 20
62.8701847042
 11
361.3002056007
 21
66.7812007042
  0
LINE
  8
CYAN
 10
361.3002056007
 20
66.7812007042
 11
362.0162996007
 21
67.6227847042
  0
ARC
  8
CYAN
 10
382.5197278645
 20
48.3773352625
 40
28.1207733674
 50
126.6669228183
 51
136.8127009271
  0
ARC
  8
CYAN
 10
391.6541987256
 20
36.107394671
 40
43.4175050447
 50
115.925850225
 51
126.6666616606
  0
ARC
  8
CYAN
 10
388.6942977126
 20
42.1270528991
 40
36.7095827092
 50
109.9900501627
 51
115.8787487206
  0
ARC
  8
CYAN
 10
399.2616402448
 20
19.0531543703
 40
62.0394827229
 50
110.0432179088
 51
111.8769089146
  0
LINE
  8
CYAN
 10
377.9989196007
 20
77.3351767042
 11
379.2495476007
 21
77.6998987042
  0
LINE
  8
CYAN
 10
379.2495476007
 20
77.6998987042
 11
380.8114976007
 21
78.0352507042
  0
LINE
  8
CYAN
 10
380.8114976007
 20
78.0352507042
 11
382.5101516007
 21
78.2985127042
  0
LINE
  8
CYAN
 10
382.5101516007
 20
78.2985127042
 11
384.1724936007
 21
78.4453627042
  0
LINE
  8
CYAN
 10
384.1724936007
 20
78.4453627042
 11
385.6244396007
 21
78.4330807042
  0
LINE
  8
CYAN
 10
385.6244396007
 20
78.4330807042
 11
386.6924396007
 21
78.2178787042
  0
LINE
  8
CYAN
 10
386.6924396007
 20
78.2178787042
 11
387.5131976007
 21
77.5525147042
  0
LINE
  8
CYAN
 10
387.5131976007
 20
77.5525147042
 11
388.7328536007
 21
75.7780327042
  0
LINE
  8
CYAN
 10
388.7328536007
 20
75.7780327042
 11
368.8525676007
 21
66.1500127042
  0
LINE
  8
CYAN
 10
368.8525676007
 20
66.1500127042
 11
369.7251236007
 21
64.3477627042
  0
LINE
  8
CYAN
 10
369.7251236007
 20
64.3477627042
 11
392.2706036007
 21
75.2664607042
  0
ARC
  8
CYAN
 10
-118.7405922408
 20
-174.6699323903
 40
568.8590711841
 50
25.0549213578
 51
26.0633308703
  0
LINE
  8
CYAN
 10
396.5901296007
 20
66.2343847042
 11
373.9389176007
 21
55.5372967042
  0
LINE
  8
CYAN
 10
373.9389176007
 20
55.5372967042
 11
374.7938516007
 21
53.7265027042
  0
LINE
  8
CYAN
 10
374.7938516007
 20
53.7265027042
 11
394.7675876007
 21
63.1590787042
  0
LINE
  8
CYAN
 10
394.7675876007
 20
63.1590787042
 11
395.3838236007
 21
61.0957027042
  0
LINE
  8
CYAN
 10
395.3838236007
 20
61.0957027042
 11
395.3864936007
 21
60.0394507042
  0
LINE
  8
CYAN
 10
395.3864936007
 20
60.0394507042
 11
394.8834656007
 21
59.0729107042
  0
LINE
  8
CYAN
 10
394.8834656007
 20
59.0729107042
 11
393.9820736007
 21
57.9349567042
  0
LINE
  8
CYAN
 10
393.9820736007
 20
57.9349567042
 11
392.8238276007
 21
56.7329227042
  0
LINE
  8
CYAN
 10
392.8238276007
 20
56.7329227042
 11
391.5529076007
 21
55.5757447042
  0
LINE
  8
CYAN
 10
391.5529076007
 20
55.5757447042
 11
390.3113576007
 21
54.5707567042
  0
LINE
  8
CYAN
 10
390.3113576007
 20
54.5707567042
 11
389.2422896007
 21
53.8258267042
  0
LINE
  8
CYAN
 10
389.2422896007
 20
53.8258267042
 11
388.4882816007
 21
53.4493567042
  0
ARC
  8
CYAN
 10
371.2024048119
 20
79.3421020993
 40
31.1325521031
 50
299.3961007365
 51
303.7268897358
  0
ARC
  8
CYAN
 10
366.2288068635
 20
88.9768981056
 40
41.9699721145
 50
282.4509019654
 51
298.855553178
  0
ARC
  8
CYAN
 10
368.9904261953
 20
78.1204381366
 40
30.7754896457
 50
277.1365059458
 51
281.7881384702
  0
ARC
  8
CYAN
 10
370.4359432447
 20
68.9056738671
 40
21.4544841114
 50
270.2921736544
 51
276.3632600507
  0
LINE
  8
CYAN
 10
370.5453476007
 20
47.4514687042
 11
365.8242536007
 21
47.8268707042
  0
LINE
  8
CYAN
 10
365.8242536007
 20
47.8268707042
 11
365.1268496007
 21
48.0821227042
  0
ARC
  8
CYAN
 10
367.5539904659
 20
60.1153728184
 40
12.275590458
 50
246.9401972092
 51
258.5962846432
  0
LINE
  8
CYAN
 10
362.7457436007
 20
48.8206447042
 11
361.5356996007
 21
49.6536847042
  0
LINE
  8
CYAN
 10
361.5356996007
 20
49.6536847042
 11
361.0994216007
 21
50.0242807042
  0
ARC
  8
CYAN
 10
361.9627279124
 20
51.041208724
 40
1.3339566655
 50
213.9300304038
 51
229.6708901771
  0
LINE
  8
CYAN
 10
360.8559176007
 20
50.2966207042
 11
359.8797656007
 21
51.7485667042
  0
LINE
  8
CYAN
 10
359.8797656007
 20
51.7485667042
 11
359.1273596007
 21
53.0899747042
  0
ARC
  8
CYAN
 10
339.9180081369
 20
44.675692626
 40
20.9713930523
 50
23.6548856041
 51
27.4821812071
  0
LINE
  8
CYAN
 10
358.5228716007
 20
54.3534187042
 11
357.9509576007
 21
55.7813347042
  0
LINE
  8
CYAN
 10
357.9509576007
 20
55.7813347042
 11
357.4335116007
 21
57.4522207042
  0
ARC
  8
CYAN
 10
358.7081563005
 20
57.8469275837
 40
1.3343585094
 50
181.4711116066
 51
197.2056783459
  0
LINE
  8
CYAN
 10
363.3571736007
 20
57.0340987042
 11
364.2302636007
 21
55.2318487042
  0
LINE
  8
CYAN
 10
364.2302636007
 20
55.2318487042
 11
377.3575856007
 21
61.4310547042
  0
LINE
  8
CYAN
 10
377.3575856007
 20
61.4310547042
 11
376.4850296007
 21
63.2333047042
  0
LINE
  8
CYAN
 10
376.4850296007
 20
63.2333047042
 11
363.3571736007
 21
57.0340987042
  0
LINE
  8
CYAN
 10
399.4379516007
 20
57.6610147042
 11
399.4379516007
 21
66.3379807042
  0
ARC
  8
CYAN
 10
400.1054516007
 20
66.3379807042
 40
0.6675
 50
90.0
 51
180.0
  0
LINE
  8
CYAN
 10
400.1054516007
 20
67.0054807042
 11
418.7943836007
 21
67.0054807042
  0
ARC
  8
CYAN
 10
418.7943836007
 20
66.3379807042
 40
0.6675
 50
0.0
 51
90.0
  0
LINE
  8
CYAN
 10
419.4618836007
 20
66.3379807042
 11
419.4618836007
 21
57.6610147042
  0
ARC
  8
CYAN
 10
418.7943836007
 20
57.6610147042
 40
0.6675
 50
270.0
 51
0.0
  0
LINE
  8
CYAN
 10
418.7943836007
 20
56.9935147042
 11
400.1054516007
 21
56.9935147042
  0
ARC
  8
CYAN
 10
400.1054516007
 20
57.6610147042
 40
0.6675
 50
180.0
 51
270.0
  0
LINE
  8
CYAN
 10
434.3028116007
 20
70.3862347042
 11
433.1445656007
 21
69.3668287042
  0
LINE
  8
CYAN
 10
433.1445656007
 20
69.3668287042
 11
431.9735036007
 21
68.6325787042
  0
LINE
  8
CYAN
 10
431.9735036007
 20
68.6325787042
 11
430.7121956007
 21
67.9997887042
  0
ARC
  8
CYAN
 10
413.9322740968
 20
152.0211396851
 40
85.6805297972
 50
279.529369509
 51
281.2939663512
  0
LINE
  8
CYAN
 10
428.1169556007
 20
67.5229267042
 11
426.7702076007
 21
67.4150587042
  0
LINE
  8
CYAN
 10
426.7702076007
 20
67.4150587042
 11
425.6557496007
 21
67.6089007042
  0
LINE
  8
CYAN
 10
425.6557496007
 20
67.6089007042
 11
424.5738656007
 21
67.9666807042
  0
LINE
  8
CYAN
 10
424.5738656007
 20
67.9666807042
 11
423.5208176007
 21
68.4558247042
  0
LINE
  8
CYAN
 10
423.5208176007
 20
68.4558247042
 11
422.4912656007
 21
69.0421567042
  0
ARC
  8
CYAN
 10
462.6492184956
 20
131.8355194753
 40
74.5363507881
 50
234.6269831076
 51
237.4000504865
  0
ARC
  8
CYAN
 10
404.3117234949
 20
49.0119725633
 40
26.7720933619
 50
55.4357617994
 51
60.3851364452
  0
LINE
  8
CYAN
 10
417.5416196007
 20
72.2867407042
 11
416.5590596007
 21
72.7673407042
  0
ARC
  8
CYAN
 10
393.676941105
 20
37.8189533372
 40
41.7729712423
 50
56.7856139378
 51
62.5136949432
  0
LINE
  8
CYAN
 10
412.9566956007
 20
74.8766407042
 11
411.6937856007
 21
75.4725847042
  0
ARC
  8
CYAN
 10
423.4609893604
 20
109.6980541736
 40
36.1918477661
 50
247.8868931898
 51
251.0263005602
  0
LINE
  8
CYAN
 10
409.8370676007
 20
76.1683867042
 11
407.9445716007
 21
76.8770047042
  0
ARC
  8
CYAN
 10
416.5137022766
 20
99.0039248081
 40
23.7282657147
 50
243.5370492749
 51
248.830022685
  0
LINE
  8
CYAN
 10
405.9399356007
 20
77.7618427042
 11
405.0251936007
 21
78.2899687042
  0
LINE
  8
CYAN
 10
405.0251936007
 20
78.2899687042
 11
404.2370096007
 21
78.8853787042
  0
LINE
  8
CYAN
 10
404.2370096007
 20
78.8853787042
 11
403.6277156007
 21
79.5555487042
  0
LINE
  8
CYAN
 10
403.6277156007
 20
79.5555487042
 11
403.2496436007
 21
80.3079547042
  0
LINE
  8
CYAN
 10
403.2496436007
 20
80.3079547042
 11
403.1529896007
 21
81.1511407042
  0
LINE
  8
CYAN
 10
403.1529896007
 20
81.1511407042
 11
403.3906196007
 21
82.0920487042
  0
LINE
  8
CYAN
 10
403.3906196007
 20
82.0920487042
 11
403.8130136007
 21
83.2924807042
  0
LINE
  8
CYAN
 10
403.8130136007
 20
83.2924807042
 11
404.6262956007
 21
84.5511187042
  0
ARC
  8
CYAN
 10
438.7514890516
 20
57.6925287076
 40
43.4270962035
 50
137.8761526015
 51
141.79511579
  0
LINE
  8
CYAN
 10
406.5417536007
 20
86.8206187042
 11
407.4586316007
 21
87.6851647042
  0
ARC
  8
CYAN
 10
491.7297261025
 20
-5.7611465126
 40
125.8325492413
 50
130.2797708138
 51
132.044550261
  0
ARC
  8
CYAN
 10
361.9157579704
 20
147.3467148403
 40
74.9003262047
 50
310.3159337743
 51
313.3176770727
  0
ARC
  8
CYAN
 10
389.5585332622
 20
117.5712244147
 40
34.2741599187
 50
313.8450251841
 51
318.1762812098
  0
ARC
  8
CYAN
 10
383.8194111487
 20
119.4159377902
 40
39.8566047695
 50
321.7039544197
 51
325.6455672395
  0
ARC
  8
CYAN
 10
357.447714389
 20
136.6682051719
 40
71.3665885136
 50
326.1585892717
 51
329.5276481539
  0
ARC
  8
CYAN
 10
390.381388214
 20
111.3523226909
 40
30.575004376
 50
339.1632613044
 51
343.4021022755
  0
LINE
  8
CYAN
 10
419.6824256007
 20
102.6184747042
 11
420.0866636007
 21
103.5748687042
  0
LINE
  8
CYAN
 10
420.0866636007
 20
103.5748687042
 11
420.6697916007
 21
104.2936327042
  0
LINE
  8
CYAN
 10
420.6697916007
 20
104.2936327042
 11
421.5450176007
 21
104.6530147042
  0
LINE
  8
CYAN
 10
421.5450176007
 20
104.6530147042
 11
422.8260836007
 21
104.5317967042
  0
ARC
  8
CYAN
 10
408.4168863633
 20
81.0662907286
 40
27.5364292478
 50
46.8838934694
 51
58.4476341225
  0
ARC
  8
CYAN
 10
396.6281851739
 20
68.3686993734
 40
44.862681548
 50
39.5314954254
 51
46.977299291
  0
ARC
  8
CYAN
 10
379.317196662
 20
54.1180967284
 40
67.2847577264
 50
32.7262823231
 51
39.5082033523
  0
ARC
  8
CYAN
 10
443.2825105816
 20
92.9558366905
 40
7.761898747
 50
198.491791057
 51
213.6634852843
  0
LINE
  8
CYAN
 10
436.8222236007
 20
88.6533067042
 11
437.2803956007
 21
87.5724907042
  0
LINE
  8
CYAN
 10
437.2803956007
 20
87.5724907042
 11
437.6509916007
 21
86.4863347042
  0
LINE
  8
CYAN
 10
437.6509916007
 20
86.4863347042
 11
437.9361476007
 21
85.3964407042
  0
LINE
  8
CYAN
 10
437.9361476007
 20
85.3964407042
 11
438.1379996007
 21
84.3017407042
  0
LINE
  8
CYAN
 10
438.1379996007
 20
84.3017407042
 11
438.2602856007
 21
83.2043707042
  0
LINE
  8
CYAN
 10
438.2602856007
 20
83.2043707042
 11
438.3046076007
 21
82.1048647042
  0
ARC
  8
CYAN
 10
418.4968196899
 20
82.1833939035
 40
19.8079435771
 50
353.3803544109
 51
359.7728485313
  0
ARC
  8
CYAN
 10
416.9631861191
 20
82.7339934304
 40
21.3980262124
 50
340.2083500343
 51
352.3892241247
  0
LINE
  8
CYAN
 10
437.0972336007
 20
75.4886047042
 11
436.8158156007
 21
74.3223487042
  0
LINE
  8
CYAN
 10
436.8158156007
 20
74.3223487042
 11
436.0580696007
 21
72.8517127042
  0
LINE
  8
CYAN
 10
436.0580696007
 20
72.8517127042
 11
435.1267736007
 21
71.4237967042
  0
LINE
  8
CYAN
 10
435.1267736007
 20
71.4237967042
 11
434.3028116007
 21
70.3862347042
  0
LINE
  8
CYAN
 10
414.9933716007
 20
78.7139647042
 11
416.3753636007
 21
77.2652227042
  0
LINE
  8
CYAN
 10
416.3753636007
 20
77.2652227042
 11
428.9644136007
 21
89.2700767042
  0
LINE
  8
CYAN
 10
428.9644136007
 20
89.2700767042
 11
427.5829556007
 21
90.7193527042
  0
LINE
  8
CYAN
 10
427.5829556007
 20
90.7193527042
 11
414.9933716007
 21
78.7139647042
  0
ARC
  8
CYAN
 10
432.5308347393
 20
61.5775081806
 40
2.5429633023
 50
43.1316802561
 51
57.2194912334
  0
LINE
  8
CYAN
 10
434.3866496007
 20
63.3160747042
 11
435.3628016007
 21
62.2678327042
  0
ARC
  8
CYAN
 10
433.9111707796
 20
60.8910724207
 40
2.0006751158
 50
32.7390403505
 51
43.4836735443
  0
LINE
  8
CYAN
 10
435.5940236007
 20
61.9730647042
 11
436.1718116007
 21
61.0759447042
  0
LINE
  8
CYAN
 10
436.1718116007
 20
61.0759447042
 11
436.4073056007
 21
60.6562207042
  0
LINE
  8
CYAN
 10
436.4073056007
 20
60.6562207042
 11
437.2002956007
 21
59.4125347042
  0
LINE
  8
CYAN
 10
437.2002956007
 20
59.4125347042
 11
437.9521676007
 21
57.6610147042
  0
LINE
  8
CYAN
 10
437.9521676007
 20
57.6610147042
 11
438.4423796007
 21
56.1481927042
  0
LINE
  8
CYAN
 10
438.4423796007
 20
56.1481927042
 11
438.7264676007
 21
54.8831467042
  0
LINE
  8
CYAN
 10
438.7264676007
 20
54.8831467042
 11
438.9977396007
 21
52.9650187042
  0
LINE
  8
CYAN
 10
438.9977396007
 20
52.9650187042
 11
439.0570136007
 21
51.3523387042
  0
ARC
  8
CYAN
 10
437.0567385745
 20
51.279537323
 40
2.0015994159
 50
346.5056369448
 51
2.0843991441
  0
LINE
  8
CYAN
 10
439.0030796007
 20
50.8124647042
 11
438.5769476007
 21
49.0337107042
  0
LINE
  8
CYAN
 10
438.5769476007
 20
49.0337107042
 11
438.3195596007
 21
48.1339207042
  0
ARC
  8
CYAN
 10
507.0342652264
 20
37.421935497
 40
69.5446431891
 50
171.139436364
 51
173.1332060155
  0
ARC
  8
CYAN
 10
344.3080412029
 20
65.420097305
 40
95.7259470556
 50
339.8642701468
 51
348.1341227718
  0
ARC
  8
CYAN
 10
432.0975371678
 20
33.2910519608
 40
2.2425891916
 50
283.7435459201
 51
338.438324431
  0
LINE
  8
CYAN
 10
432.6303236007
 20
31.1126707042
 11
431.0331296007
 21
30.7388707042
  0
ARC
  8
CYAN
 10
431.5129381697
 20
28.795225119
 40
2.0019926134
 50
103.8667989957
 51
121.0823092955
  0
LINE
  8
CYAN
 10
430.4793716007
 20
30.5097847042
 11
430.0051796007
 21
30.2240947042
  0
ARC
  8
CYAN
 10
431.0396233576
 20
28.5102845725
 40
2.0018039499
 50
121.1148859838
 51
132.5327198193
  0
LINE
  8
CYAN
 10
429.6863816007
 20
29.9853967042
 11
428.4202676007
 21
28.8121987042
  0
ARC
  8
CYAN
 10
426.3775857551
 20
31.1249473742
 40
3.0856693817
 50
299.2022172118
 51
311.4518080561
  0
ARC
  8
CYAN
 10
426.8977353151
 20
29.9506818492
 40
1.8107779741
 50
242.6895592433
 51
302.9663497401
  0
ARC
  8
CYAN
 10
434.9924791224
 20
47.2101730715
 40
20.8730214228
 50
240.3978331635
 51
244.6839080737
  0
LINE
  8
CYAN
 10
424.6817336007
 20
29.0615767042
 11
423.7434956007
 21
29.6527147042
  0
LINE
  8
CYAN
 10
423.7434956007
 20
29.6527147042
 11
423.1528916007
 21
30.1616167042
  0
LINE
  8
CYAN
 10
423.1528916007
 20
30.1616167042
 11
421.8979916007
 21
30.9829087042
  0
LINE
  8
CYAN
 10
421.8979916007
 20
30.9829087042
 11
420.0877316007
 21
32.2933447042
  0
LINE
  8
CYAN
 10
420.0877316007
 20
32.2933447042
 11
418.4600996007
 21
33.5722747042
  0
LINE
  8
CYAN
 10
418.4600996007
 20
33.5722747042
 11
417.7541516007
 21
34.2995827042
  0
LINE
  8
CYAN
 10
417.7541516007
 20
34.2995827042
 11
414.7936556007
 21
37.0240507042
  0
LINE
  8
CYAN
 10
414.7936556007
 20
37.0240507042
 11
414.2073236007
 21
37.6402867042
  0
ARC
  8
CYAN
 10
385.0100922138
 20
7.5113203767
 40
41.9551299918
 50
45.8997726675
 51
54.2847358244
  0
LINE
  8
CYAN
 10
409.5017156007
 20
41.5758667042
 11
408.1928816007
 21
42.4291987042
  0
LINE
  8
CYAN
 10
408.1928816007
 20
42.4291987042
 11
407.2065836007
 21
42.9316927042
  0
ARC
  8
CYAN
 10
406.2978449692
 20
41.1462788699
 40
2.0033742686
 50
63.0248493512
 51
75.3986592707
  0
ARC
  8
CYAN
 10
406.1141977679
 20
41.0108954545
 40
2.1854033599
 50
71.6314576104
 51
108.851122672
  0
LINE
  8
CYAN
 10
405.4080716007
 20
43.0790767042
 11
404.7341636007
 21
42.6193027042
  0
ARC
  8
CYAN
 10
405.8641024345
 20
40.9666028254
 40
2.0020436203
 50
124.3601309555
 51
149.3383117894
  0
LINE
  8
CYAN
 10
404.1419576007
 20
41.9875807042
 11
403.6688336007
 21
41.1913867042
  0
LINE
  8
CYAN
 10
403.6688336007
 20
41.1913867042
 11
403.2475076007
 21
39.7645387042
  0
LINE
  8
CYAN
 10
403.2475076007
 20
39.7645387042
 11
403.0408496007
 21
38.3083207042
  0
LINE
  8
CYAN
 10
403.0408496007
 20
38.3083207042
 11
402.9858476007
 21
37.0411387042
  0
LINE
  8
CYAN
 10
402.9858476007
 20
37.0411387042
 11
403.1855636007
 21
35.2351507042
  0
LINE
  8
CYAN
 10
403.1855636007
 20
35.2351507042
 11
403.5978116007
 21
33.7463587042
  0
LINE
  8
CYAN
 10
403.5978116007
 20
33.7463587042
 11
404.3603636007
 21
32.4118927042
  0
LINE
  8
CYAN
 10
404.3603636007
 20
32.4118927042
 11
405.3573416007
 21
31.3412227042
  0
ARC
  8
CYAN
 10
403.8359888662
 20
29.9378011082
 40
2.0698082808
 50
338.8919877333
 51
42.6910019535
  0
ARC
  8
CYAN
 10
436.8152541797
 20
-0.5615893562
 40
43.003480809
 50
136.2195081078
 51
139.0385514254
  0
ARC
  8
CYAN
 10
405.8397402402
 20
26.3011845668
 40
2.002480988
 50
138.4495489245
 51
168.7859540958
  0
LINE
  8
CYAN
 10
403.8754916007
 20
26.6906167042
 11
403.6565516007
 21
25.5814987042
  0
LINE
  8
CYAN
 10
403.6565516007
 20
25.5814987042
 11
403.6084916007
 21
23.9212927042
  0
LINE
  8
CYAN
 10
403.6084916007
 20
23.9212927042
 11
403.8124796007
 21
23.8166287042
  0
LINE
  8
CYAN
 10
403.8124796007
 20
23.8166287042
 11
404.4831836007
 21
23.7194407042
  0
LINE
  8
CYAN
 10
404.4831836007
 20
23.7194407042
 11
404.5168256007
 21
23.7028867042
  0
LINE
  8
CYAN
 10
404.5168256007
 20
23.7028867042
 11
406.0339196007
 21
23.7461407042
  0
ARC
  8
CYAN
 10
406.8000603791
 20
86.1461049115
 40
62.4046673316
 50
269.2965632575
 51
271.8635408758
  0
LINE
  8
CYAN
 10
408.8294096007
 20
23.7744427042
 11
409.8482816007
 21
23.3493787042
  0
LINE
  8
CYAN
 10
409.8482816007
 20
23.3493787042
 11
409.9155656007
 21
23.3328247042
  0
LINE
  8
CYAN
 10
409.9155656007
 20
23.3328247042
 11
410.3187356007
 21
22.0741867042
  0
LINE
  8
CYAN
 10
410.3187356007
 20
22.0741867042
 11
410.5419476007
 21
20.4823327042
  0
LINE
  8
CYAN
 10
410.5419476007
 20
20.4823327042
 11
410.6535536007
 21
18.7441627042
  0
ARC
  8
CYAN
 10
497.6844945797
 20
21.3858747194
 40
87.0710246297
 50
181.7386057004
 51
183.8242216382
  0
LINE
  8
CYAN
 10
410.8073456007
 20
15.5786107042
 11
410.6252516007
 21
14.7135307042
  0
LINE
  8
CYAN
 10
410.6252516007
 20
14.7135307042
 11
410.1820316007
 21
14.2404067042
  0
LINE
  8
CYAN
 10
410.1820316007
 20
14.2404067042
 11
409.3479236007
 21
14.0198647042
  0
LINE
  8
CYAN
 10
409.3479236007
 20
14.0198647042
 11
407.7459236007
 21
14.5042027042
  0
ARC
  8
CYAN
 10
438.4304844766
 20
77.6836289388
 40
70.2366156323
 50
241.3455348011
 51
244.0953917564
  0
LINE
  8
CYAN
 10
404.7501836007
 20
16.0490647042
 11
403.3559096007
 21
16.5878707042
  0
ARC
  8
CYAN
 10
369.9900581503
 20
-48.568456772
 40
73.2026437582
 50
62.8835045441
 51
64.8999617757
  0
LINE
  8
CYAN
 10
401.0426216007
 20
17.7215527042
 11
400.3788596007
 21
18.1690447042
  0
LINE
  8
CYAN
 10
400.3788596007
 20
18.1690447042
 11
399.7252436007
 21
18.8002327042
  0
ARC
  8
CYAN
 10
401.1159681881
 20
20.2401855406
 40
2.0018938656
 50
209.1408548484
 51
225.9963292092
  0
ARC
  8
CYAN
 10
247.7756281692
 20
-64.9986747235
 40
173.4373370318
 50
29.0679848197
 51
30.3972557204
  0
ARC
  8
CYAN
 10
436.4993186705
 20
44.9584841231
 40
44.9861961363
 50
205.5125040189
 51
209.5686725405
  0
LINE
  8
CYAN
 10
395.8996676007
 20
25.5825667042
 11
395.3496476007
 21
26.9154307042
  0
ARC
  8
CYAN
 10
425.715698002
 20
29.3428747892
 40
30.4629201121
 50
179.598024433
 51
184.5704716409
  0
ARC
  8
CYAN
 10
434.7893359738
 20
28.8203971981
 40
39.5426621572
 50
173.0902398988
 51
178.9332168124
  0
ARC
  8
CYAN
 10
469.9271967189
 20
24.1632099331
 40
74.9866451217
 50
168.6399335377
 51
172.7876111057
  0
LINE
  8
CYAN
 10
396.4096376007
 20
38.9336347042
 11
397.4520056007
 21
44.1219787042
  0
LINE
  8
CYAN
 10
397.4520056007
 20
44.1219787042
 11
397.8183296007
 21
45.5765947042
  0
LINE
  8
CYAN
 10
397.8183296007
 20
45.5765947042
 11
398.1018836007
 21
47.0130547042
  0
LINE
  8
CYAN
 10
398.1018836007
 20
47.0130547042
 11
398.5007816007
 21
48.3416467042
  0
LINE
  8
CYAN
 10
398.5007816007
 20
48.3416467042
 11
399.2158076007
 21
49.4710567042
  0
ARC
  8
CYAN
 10
343.1355300227
 20
132.692811887
 40
100.3536649501
 50
303.9746744646
 51
305.4186930246
  0
LINE
  8
CYAN
 10
401.2952036007
 20
50.9107207042
 11
402.5169956007
 21
51.4415167042
  0
LINE
  8
CYAN
 10
402.5169956007
 20
51.4415167042
 11
403.7857796007
 21
51.7800727042
  0
ARC
  8
CYAN
 10
404.3029518428
 20
49.8460703377
 40
2.0019571128
 50
95.8096620808
 51
104.9711906383
  0
LINE
  8
CYAN
 10
404.1003056007
 20
51.8377447042
 11
405.1672376007
 21
51.9461467042
  0
ARC
  8
CYAN
 10
405.3690366483
 20
49.9537933879
 40
2.0025470263
 50
82.7370329463
 51
95.7835807639
  0
LINE
  8
CYAN
 10
405.6222056007
 20
51.9402727042
 11
406.3212116007
 21
51.8510947042
  0
ARC
  8
CYAN
 10
406.068020331
 20
49.8651736287
 40
2.0019960882
 50
60.6225366634
 51
82.7343795646
  0
ARC
  8
CYAN
 10
388.3740246716
 20
18.1955308664
 40
38.2793035463
 50
55.4586262846
 51
60.7979956068
  0
LINE
  8
CYAN
 10
410.0784356007
 20
49.7268427042
 11
411.4582916007
 21
49.0278367042
  0
ARC
  8
CYAN
 10
414.36001552
 20
53.1838852922
 40
5.0688008019
 50
235.0775254005
 51
242.2686634828
  0
ARC
  8
CYAN
 10
438.1361465407
 20
89.4634257932
 40
48.4242122889
 50
237.3364584666
 51
240.4531262765
  0
LINE
  8
CYAN
 10
414.2564516007
 20
47.3366587042
 11
415.0457036007
 21
46.7796967042
  0
LINE
  8
CYAN
 10
415.0457036007
 20
46.7796967042
 11
416.4955136007
 21
45.9279667042
  0
LINE
  8
CYAN
 10
416.4955136007
 20
45.9279667042
 11
419.4949916007
 21
44.0546947042
  0
LINE
  8
CYAN
 10
419.4949916007
 20
44.0546947042
 11
421.7853176007
 21
42.7319767042
  0
LINE
  8
CYAN
 10
421.7853176007
 20
42.7319767042
 11
421.4483636007
 21
45.1670167042
  0
ARC
  8
CYAN
 10
449.3974344026
 20
48.3712512191
 40
28.1321466923
 50
169.519861649
 51
186.540147973
  0
LINE
  8
CYAN
 10
421.7345876007
 20
53.4883387042
 11
422.0293556007
 21
54.8249407042
  0
LINE
  8
CYAN
 10
422.0293556007
 20
54.8249407042
 11
422.3962136007
 21
56.1316387042
  0
LINE
  8
CYAN
 10
422.3962136007
 20
56.1316387042
 11
423.0989576007
 21
57.7843687042
  0
LINE
  8
CYAN
 10
423.0989576007
 20
57.7843687042
 11
424.1156936007
 21
59.7772567042
  0
LINE
  8
CYAN
 10
424.1156936007
 20
59.7772567042
 11
425.2221416007
 21
61.0935667042
  0
LINE
  8
CYAN
 10
425.2221416007
 20
61.0935667042
 11
426.2356736007
 21
62.0013667042
  0
LINE
  8
CYAN
 10
426.2356736007
 20
62.0013667042
 11
427.2839156007
 21
62.8194547042
  0
LINE
  8
CYAN
 10
427.2839156007
 20
62.8194547042
 11
428.3812856007
 21
63.5008387042
  0
LINE
  8
CYAN
 10
428.3812856007
 20
63.5008387042
 11
429.5443376007
 21
64.0001287042
  0
LINE
  8
CYAN
 10
429.5443376007
 20
64.0001287042
 11
430.5744236007
 21
64.2233407042
  0
ARC
  8
CYAN
 10
430.9986331651
 20
62.2645951197
 40
2.0041551884
 50
89.746578304
 51
102.2199450136
  0
LINE
  8
CYAN
 10
431.0074976007
 20
64.2687307042
 11
431.9099576007
 21
64.2649927042
  0
ARC
  8
CYAN
 10
431.9016309889
 20
62.2630020132
 40
2.0020080068
 50
77.2785024669
 51
89.7616987102
  0
LINE
  8
CYAN
 10
432.3424976007
 20
64.2158647042
 11
433.2134516007
 21
64.0193527042
  0
ARC
  8
CYAN
 10
432.7723150297
 20
62.0665377141
 40
2.0020209439
 50
55.4520838057
 51
77.2706655455
  0
LINE
  8
CYAN
 10
428.3706056007
 20
42.2684647042
 11
430.3693676007
 21
42.1408387042
  0
LINE
  8
CYAN
 10
430.3693676007
 20
42.1408387042
 11
431.4795536007
 21
59.5011787042
  0
LINE
  8
CYAN
 10
431.4795536007
 20
59.5011787042
 11
429.4813256007
 21
59.6288047042
  0
LINE
  8
CYAN
 10
429.4813256007
 20
59.6288047042
 11
428.3706056007
 21
42.2684647042
  0
ARC
  8
CYAN
 10
416.9144917222
 20
21.1313381786
 40
1.837779678
 50
93.0581372493
 51
149.4435072962
  0
LINE
  8
CYAN
 10
416.8164476007
 20
22.9665007042
 11
427.5813536007
 21
23.1582067042
  0
LINE
  8
CYAN
 10
427.5813536007
 20
23.1582067042
 11
428.7860576007
 21
23.0017447042
  0
ARC
  8
CYAN
 10
428.530330517
 20
21.0164685102
 40
2.0016787724
 50
70.3762741803
 51
82.6600430707
  0
LINE
  8
CYAN
 10
429.2025776007
 20
22.9018867042
 11
429.6805076007
 21
22.7310067042
  0
ARC
  8
CYAN
 10
429.0064365775
 20
20.8453686628
 40
2.0024990805
 50
43.9827913462
 51
70.3292310013
  0
LINE
  8
CYAN
 10
430.4473316007
 20
22.2359887042
 11
430.7789456007
 21
21.8926267042
  0
LINE
  8
CYAN
 10
430.7789456007
 20
21.8926267042
 11
431.0849276007
 21
21.4467367042
  0
ARC
  8
CYAN
 10
429.4357460043
 20
20.3133424244
 40
2.0010953329
 50
13.1332036719
 51
34.498659038
  0
LINE
  8
CYAN
 10
431.3845016007
 20
20.7680227042
 11
431.6167916007
 21
19.7710447042
  0
LINE
  8
CYAN
 10
431.6167916007
 20
19.7710447042
 11
431.9788436007
 21
12.0211027042
  0
LINE
  8
CYAN
 10
431.9788436007
 20
12.0211027042
 11
437.6483216007
 21
12.0211027042
  0
ARC
  8
CYAN
 10
437.6483696651
 20
10.5194460928
 40
1.5016566122
 50
359.3498473645
 51
90.0018339007
  0
LINE
  8
CYAN
 10
439.1499296007
 20
10.5024067042
 11
439.1221616007
 21
8.0161027042
  0
LINE
  8
CYAN
 10
439.1221616007
 20
8.0161027042
 11
433.1146616007
 21
8.0161027042
  0
LINE
  8
CYAN
 10
433.1146616007
 20
8.0161027042
 11
433.0922336007
 21
6.0141367042
  0
LINE
  8
CYAN
 10
433.0922336007
 20
6.0141367042
 11
439.0997336007
 21
6.0141367042
  0
LINE
  8
CYAN
 10
439.0997336007
 20
6.0141367042
 11
439.0714316007
 21
3.4600147042
  0
ARC
  8
CYAN
 10
437.5697497238
 20
3.4764943191
 40
1.5017722987
 50
271.0215339733
 51
359.3712553275
  0
LINE
  8
CYAN
 10
437.5965236007
 20
1.9749607042
 11
430.0414916007
 21
1.8403927042
  0
ARC
  8
CYAN
 10
430.0147916007
 20
3.3420007042
 40
1.5018453568
 50
181.0186654056
 51
271.0186654056
  0
LINE
  8
CYAN
 10
428.5131836007
 20
3.3153007042
 11
428.4448316007
 21
7.1542267042
  0
LINE
  8
CYAN
 10
428.4448316007
 20
7.1542267042
 11
414.6233096007
 21
6.9080527042
  0
ARC
  8
CYAN
 10
414.5966758099
 20
8.4095948883
 40
1.5017783756
 50
179.3251596578
 51
271.0161844357
  0
LINE
  8
CYAN
 10
413.0950016007
 20
8.4272827042
 11
413.1254396007
 21
11.0283967042
  0
ARC
  8
CYAN
 10
413.8767498463
 20
11.0192912851
 40
0.7513654196
 50
89.9978835713
 51
179.30564431
  0
LINE
  8
CYAN
 10
413.8767776007
 20
11.7706567042
 11
415.1674556007
 21
11.7706567042
  0
LINE
  8
CYAN
 10
415.1674556007
 20
11.7706567042
 11
415.1263376007
 21
18.0280687042
  0
LINE
  8
CYAN
 10
415.1263376007
 20
18.0280687042
 11
422.8794836007
 21
18.0280687042
  0
LINE
  8
CYAN
 10
422.8794836007
 20
18.0280687042
 11
422.8794836007
 21
20.0305687042
  0
LINE
  8
CYAN
 10
422.8794836007
 20
20.0305687042
 11
417.7541516007
 21
20.0305687042
  0
LINE
  8
CYAN
 10
417.7541516007
 20
20.0305687042
 11
415.1028416007
 21
20.2810147042
  0
LINE
  8
CYAN
 10
415.1028416007
 20
20.2810147042
 11
415.0942976007
 21
21.0985687042
  0
ARC
  8
CYAN
 10
417.0961356893
 20
21.1194081479
 40
2.0019465566
 50
151.7930768349
 51
180.5964363701
  0
ARC
  8
CYAN
 10
395.7720416007
 20
8.6499607042
 40
2.0025
 50
90.0
 51
180.0
  0
LINE
  8
CYAN
 10
395.7720416007
 20
10.6524607042
 11
407.7859736007
 21
10.6524607042
  0
ARC
  8
CYAN
 10
407.7859736007
 20
8.6499607042
 40
2.0025
 50
0.0
 51
90.0
  0
LINE
  8
CYAN
 10
409.7884736007
 20
8.6499607042
 11
409.7884736007
 21
1.9754947042
  0
ARC
  8
CYAN
 10
407.7859736007
 20
1.9754947042
 40
2.0025
 50
270.0
 51
0.0
  0
LINE
  8
CYAN
 10
407.7859736007
 20
-0.0270052958
 11
395.7720416007
 21
-0.0270052958
  0
ARC
  8
CYAN
 10
395.7720416007
 20
1.9754947042
 40
2.0025
 50
180.0
 51
270.0
  0
LINE
  8
CYAN
 10
393.7695416007
 20
1.9754947042
 11
393.7695416007
 21
8.6499607042
  0
LINE
  8
CYAN
 10
405.1165076007
 20
4.3117447042
 11
405.1165076007
 21
6.3142447042
  0
LINE
  8
CYAN
 10
405.1165076007
 20
6.3142447042
 11
398.4415076007
 21
6.3142447042
  0
LINE
  8
CYAN
 10
398.4415076007
 20
6.3142447042
 11
398.4415076007
 21
4.3117447042
  0
LINE
  8
CYAN
 10
398.4415076007
 20
4.3117447042
 11
405.1165076007
 21
4.3117447042
  0
ENDSEC
  0
EOF
