  0
SECTION
  2
HEADER
  9
$ACADVER
  1
AC1009
  9
$EXTMIN
 10
-114.62576257
 20
-108.79608515
 30
0.0
  9
$EXTMAX
 10
133.27927802
 20
117.93831033
 30
0.0
  0
ENDSEC
  0
SECTION
  2
TABLES
  0
TABLE
  2
LAYER
 70
1
 0
LAYER
 2
По_умолчанию
 70
0
 62
1
 6
CONTINUOUS
 0
ENDTAB
 0
ENDSEC
  0
SECTION
  2
ENTITIES
  0
POLYLINE
  8
По_умолчанию
 66
   1
 39
0.000000
 70
    1
  0
VERTEX
  8
0
 10
-88.98741980
 20
-80.38691219
  0
VERTEX
  8
0
 10
-95.27561619
 20
-80.38691219
 42
0.28493959
  0
VERTEX
  8
0
 10
-96.10655643
 20
-80.76869554
  0
VERTEX
  8
0
 10
-96.10655643
 20
-82.56532308
  0
VERTEX
  8
0
 10
-98.84641343
 20
-82.56532308
 42
0.66791907
  0
VERTEX
  8
0
 10
-99.74472720
 20
-83.41872116
  0
VERTEX
  8
0
 10
-99.74472720
 20
-106.19097522
  0
VERTEX
  8
0
 10
-91.14337285
 20
-106.19097522
  0
VERTEX
  8
0
 10
-91.14337285
 20
-89.05564006
  0
VERTEX
  8
0
 10
-91.99677093
 20
-89.05564006
 42
-0.20647049
  0
VERTEX
  8
0
 10
-92.69296410
 20
-86.96706055
  0
VERTEX
  8
0
 10
-91.09845716
 20
-86.96706055
  0
VERTEX
  8
0
 10
-91.09845716
 20
-84.15983002
 42
-0.27478197
  0
VERTEX
  8
0
 10
-88.96496196
 20
-80.90344260
 42
0.74476581
  0
VERTEX
  8
0
 10
-88.98741980
 20
-80.38691219
  0
SEQEND
  0
POLYLINE
  8
По_умолчанию
 66
   1
 39
0.000000
 70
    1
  0
VERTEX
  8
0
 10
133.27715561
 20
47.33131515
  0
VERTEX
  8
0
 10
133.27821682
 20
47.33237636
  0
VERTEX
  8
0
 10
133.27927802
 20
47.33131515
  0
VERTEX
  8
0
 10
133.27821682
 20
47.33025394
  0
VERTEX
  8
0
 10
133.27715561
 20
47.33131515
  0
SEQEND
  0
POLYLINE
  8
По_умолчанию
 66
   1
 39
0.000000
 70
    1
  0
VERTEX
  8
0
 10
5.49285550
 20
112.50328206
  0
VERTEX
  8
0
 10
5.50700201
 20
112.78343513
  0
VERTEX
  8
0
 10
5.54852335
 20
113.05549550
  0
VERTEX
  8
0
 10
5.61604223
 20
113.31808585
  0
VERTEX
  8
0
 10
5.70818135
 20
113.56982891
  0
VERTEX
  8
0
 10
5.82356341
 20
113.80934737
  0
VERTEX
  8
0
 10
5.96081113
 20
114.03526395
  0
VERTEX
  8
0
 10
6.11854721
 20
114.24620134
  0
VERTEX
  8
0
 10
6.29539435
 20
114.44078225
  0
VERTEX
  8
0
 10
6.48997527
 20
114.61762940
  0
VERTEX
  8
0
 10
6.70091266
 20
114.77536547
  0
VERTEX
  8
0
 10
6.92682923
 20
114.91261319
  0
VERTEX
  8
0
 10
7.16634770
 20
115.02799526
  0
VERTEX
  8
0
 10
7.41809075
 20
115.12013438
  0
VERTEX
  8
0
 10
7.68068111
 20
115.18765326
  0
VERTEX
  8
0
 10
7.95274148
 20
115.22917460
  0
VERTEX
  8
0
 10
8.23289455
 20
115.24332111
  0
VERTEX
  8
0
 10
8.51304763
 20
115.22917460
  0
VERTEX
  8
0
 10
8.78510799
 20
115.18765326
  0
VERTEX
  8
0
 10
9.04769835
 20
115.12013438
  0
VERTEX
  8
0
 10
9.29944141
 20
115.02799526
  0
VERTEX
  8
0
 10
9.53895987
 20
114.91261319
  0
VERTEX
  8
0
 10
9.76487644
 20
114.77536547
  0
VERTEX
  8
0
 10
9.97581383
 20
114.61762940
  0
VERTEX
  8
0
 10
10.17039475
 20
114.44078225
  0
VERTEX
  8
0
 10
10.34724189
 20
114.24620134
  0
VERTEX
  8
0
 10
10.50497797
 20
114.03526395
  0
VERTEX
  8
0
 10
10.64222569
 20
113.80934737
  0
VERTEX
  8
0
 10
10.75760776
 20
113.56982891
  0
VERTEX
  8
0
 10
10.84974688
 20
113.31808585
  0
VERTEX
  8
0
 10
10.91726575
 20
113.05549550
  0
VERTEX
  8
0
 10
10.95878710
 20
112.78343513
  0
VERTEX
  8
0
 10
10.97293361
 20
112.50328206
  0
VERTEX
  8
0
 10
10.95878710
 20
112.22312898
  0
VERTEX
  8
0
 10
10.91726575
 20
111.95106862
  0
VERTEX
  8
0
 10
10.84974688
 20
111.68847826
  0
VERTEX
  8
0
 10
10.75760776
 20
111.43673520
  0
VERTEX
  8
0
 10
10.64222569
 20
111.19721674
  0
VERTEX
  8
0
 10
10.50497797
 20
110.97130016
  0
VERTEX
  8
0
 10
10.34724189
 20
110.76036277
  0
VERTEX
  8
0
 10
10.17039475
 20
110.56578186
  0
VERTEX
  8
0
 10
9.97581383
 20
110.38893472
  0
VERTEX
  8
0
 10
9.76487644
 20
110.23119864
  0
VERTEX
  8
0
 10
9.53895987
 20
110.09395092
  0
VERTEX
  8
0
 10
9.29944141
 20
109.97856885
  0
VERTEX
  8
0
 10
9.04769835
 20
109.88642973
  0
VERTEX
  8
0
 10
8.78510799
 20
109.81891085
  0
VERTEX
  8
0
 10
8.51304763
 20
109.77738951
  0
VERTEX
  8
0
 10
8.23289455
 20
109.76324300
  0
VERTEX
  8
0
 10
7.95274148
 20
109.77738951
  0
VERTEX
  8
0
 10
7.68068111
 20
109.81891085
  0
VERTEX
  8
0
 10
7.41809075
 20
109.88642973
  0
VERTEX
  8
0
 10
7.16634770
 20
109.97856885
  0
VERTEX
  8
0
 10
6.92682923
 20
110.09395092
  0
VERTEX
  8
0
 10
6.70091266
 20
110.23119864
  0
VERTEX
  8
0
 10
6.48997527
 20
110.38893472
  0
VERTEX
  8
0
 10
6.29539435
 20
110.56578186
  0
VERTEX
  8
0
 10
6.11854721
 20
110.76036277
  0
VERTEX
  8
0
 10
5.96081113
 20
110.97130016
  0
VERTEX
  8
0
 10
5.82356341
 20
111.19721674
  0
VERTEX
  8
0
 10
5.70818135
 20
111.43673520
  0
VERTEX
  8
0
 10
5.61604223
 20
111.68847826
  0
VERTEX
  8
0
 10
5.54852335
 20
111.95106862
  0
VERTEX
  8
0
 10
5.50700201
 20
112.22312898
  0
VERTEX
  8
0
 10
5.49285550
 20
112.50328206
  0
SEQEND
  0
POLYLINE
  8
По_умолчанию
 66
   1
 39
0.000000
 70
    0
  0
VERTEX
  8
0
 10
-100.95745079
 20
-5.93915852
  0
VERTEX
  8
0
 10
-101.09219785
 20
-5.84932714
  0
SEQEND
  0
POLYLINE
  8
По_умолчанию
 66
   1
 39
0.000000
 70
    1
  0
VERTEX
  8
0
 10
-112.12413102
 20
2.28306393
  0
VERTEX
  8
0
 10
-112.10160728
 20
2.72911710
  0
VERTEX
  8
0
 10
-112.03549797
 20
3.16228525
  0
VERTEX
  8
0
 10
-111.92799599
 20
3.58037548
  0
VERTEX
  8
0
 10
-111.78129424
 20
3.98119488
  0
VERTEX
  8
0
 10
-111.59758561
 20
4.36255058
  0
VERTEX
  8
0
 10
-111.37906301
 20
4.72224966
  0
VERTEX
  8
0
 10
-111.12791931
 20
5.05809924
  0
VERTEX
  8
0
 10
-110.84634743
 20
5.36790642
  0
VERTEX
  8
0
 10
-110.53654025
 20
5.64947830
  0
VERTEX
  8
0
 10
-110.20069067
 20
5.90062200
  0
VERTEX
  8
0
 10
-109.84099158
 20
6.11914461
  0
VERTEX
  8
0
 10
-109.45963589
 20
6.30285323
  0
VERTEX
  8
0
 10
-109.05881648
 20
6.44955498
  0
VERTEX
  8
0
 10
-108.64072626
 20
6.55705696
  0
VERTEX
  8
0
 10
-108.20755811
 20
6.62316627
  0
VERTEX
  8
0
 10
-107.76150494
 20
6.64569002
  0
VERTEX
  8
0
 10
-107.31545176
 20
6.62316627
  0
VERTEX
  8
0
 10
-106.88228361
 20
6.55705696
  0
VERTEX
  8
0
 10
-106.46419339
 20
6.44955498
  0
VERTEX
  8
0
 10
-106.06337398
 20
6.30285323
  0
VERTEX
  8
0
 10
-105.68201829
 20
6.11914461
  0
VERTEX
  8
0
 10
-105.32231920
 20
5.90062200
  0
VERTEX
  8
0
 10
-104.98646962
 20
5.64947830
  0
VERTEX
  8
0
 10
-104.67666244
 20
5.36790642
  0
VERTEX
  8
0
 10
-104.39509056
 20
5.05809924
  0
VERTEX
  8
0
 10
-104.14394687
 20
4.72224966
  0
VERTEX
  8
0
 10
-103.92542426
 20
4.36255058
  0
VERTEX
  8
0
 10
-103.74171563
 20
3.98119488
  0
VERTEX
  8
0
 10
-103.59501388
 20
3.58037548
  0
VERTEX
  8
0
 10
-103.48751190
 20
3.16228525
  0
VERTEX
  8
0
 10
-103.42140259
 20
2.72911710
  0
VERTEX
  8
0
 10
-103.39887885
 20
2.28306393
  0
VERTEX
  8
0
 10
-103.42140259
 20
1.83701075
  0
VERTEX
  8
0
 10
-103.48751190
 20
1.40384261
  0
VERTEX
  8
0
 10
-103.59501388
 20
0.98575238
  0
VERTEX
  8
0
 10
-103.74171563
 20
0.58493298
  0
VERTEX
  8
0
 10
-103.92542426
 20
0.20357728
  0
VERTEX
  8
0
 10
-104.14394687
 20
-0.15612180
  0
VERTEX
  8
0
 10
-104.39509056
 20
-0.49197138
  0
VERTEX
  8
0
 10
-104.67666244
 20
-0.80177856
  0
VERTEX
  8
0
 10
-104.98646962
 20
-1.08335045
  0
VERTEX
  8
0
 10
-105.32231920
 20
-1.33449414
  0
VERTEX
  8
0
 10
-105.68201829
 20
-1.55301675
  0
VERTEX
  8
0
 10
-106.06337398
 20
-1.73672538
  0
VERTEX
  8
0
 10
-106.46419339
 20
-1.88342712
  0
VERTEX
  8
0
 10
-106.88228361
 20
-1.99092910
  0
VERTEX
  8
0
 10
-107.31545176
 20
-2.05703841
  0
VERTEX
  8
0
 10
-107.76150494
 20
-2.07956216
  0
VERTEX
  8
0
 10
-108.20755811
 20
-2.05703841
  0
VERTEX
  8
0
 10
-108.64072626
 20
-1.99092910
  0
VERTEX
  8
0
 10
-109.05881648
 20
-1.88342712
  0
VERTEX
  8
0
 10
-109.45963589
 20
-1.73672538
  0
VERTEX
  8
0
 10
-109.84099158
 20
-1.55301675
  0
VERTEX
  8
0
 10
-110.20069067
 20
-1.33449414
  0
VERTEX
  8
0
 10
-110.53654025
 20
-1.08335045
  0
VERTEX
  8
0
 10
-110.84634743
 20
-0.80177856
  0
VERTEX
  8
0
 10
-111.12791931
 20
-0.49197138
  0
VERTEX
  8
0
 10
-111.37906301
 20
-0.15612180
  0
VERTEX
  8
0
 10
-111.59758561
 20
0.20357728
  0
VERTEX
  8
0
 10
-111.78129424
 20
0.58493298
  0
VERTEX
  8
0
 10
-111.92799599
 20
0.98575238
  0
VERTEX
  8
0
 10
-112.03549797
 20
1.40384261
  0
VERTEX
  8
0
 10
-112.10160728
 20
1.83701075
  0
VERTEX
  8
0
 10
-112.12413102
 20
2.28306393
  0
SEQEND
  0
POLYLINE
  8
По_умолчанию
 66
   1
 39
0.000000
 70
    1
  0
VERTEX
  8
0
 10
-84.15898329
 20
-73.22285987
 42
-0.18427054
  0
VERTEX
  8
0
 10
-87.61749130
 20
-77.35510321
  0
VERTEX
  8
0
 10
-52.31376015
 20
-77.35510321
  0
VERTEX
  8
0
 10
-51.90951896
 20
-74.74999328
 42
0.43152704
  0
VERTEX
  8
0
 10
-55.41294266
 20
-69.49485773
 42
0.39661476
  0
VERTEX
  8
0
 10
-60.57824684
 20
-73.89659520
  0
VERTEX
  8
0
 10
-61.02740372
 20
-76.23221100
  0
VERTEX
  8
0
 10
-63.85709210
 20
-75.64830705
 42
0.08455593
  0
VERTEX
  8
0
 10
-63.27318814
 20
-69.53977342
 42
0.60200211
  0
VERTEX
  8
0
 10
-68.97748058
 20
-68.95586947
 42
0.11200929
  0
VERTEX
  8
0
 10
-70.45969830
 20
-74.30083640
  0
VERTEX
  8
0
 10
-72.57073566
 20
-73.73939029
  0
VERTEX
  8
0
 10
-66.21516574
 20
-51.28154605
  0
VERTEX
  8
0
 10
-65.56388826
 20
-51.43875096
  0
VERTEX
  8
0
 10
-65.56388826
 20
-47.98024294
 42
-0.11627519
  0
VERTEX
  8
0
 10
-63.45285090
 20
-43.24163781
 42
0.32688226
  0
VERTEX
  8
0
 10
-63.54268228
 20
-41.26534751
 42
-0.37573512
  0
VERTEX
  8
0
 10
-63.65497150
 20
-40.07508177
 42
-0.10334321
  0
VERTEX
  8
0
 10
-62.36364545
 20
-36.66148944
 42
0.05210425
  0
VERTEX
  8
0
 10
-62.18398270
 20
-34.42693394
 42
0.07496511
  0
VERTEX
  8
0
 10
-61.25198216
 20
-32.16992059
 42
0.08605374
  0
VERTEX
  8
0
 10
-61.13969294
 20
-27.92538803
 42
0.52243758
  0
VERTEX
  8
0
 10
-62.21766947
 20
-26.84741151
  0
VERTEX
  8
0
 10
-65.99058730
 20
-26.84741151
 42
0.20758929
  0
VERTEX
  8
0
 10
-70.41478261
 20
-28.55420767
 42
-0.07870992
  0
VERTEX
  8
0
 10
-73.19955530
 20
-31.11440191
 42
0.17969358
  0
VERTEX
  8
0
 10
-76.20890643
 20
-34.93223544
  0
VERTEX
  8
0
 10
-76.20890643
 20
-37.40259830
 42
0.15961990
  0
VERTEX
  8
0
 10
-77.51146140
 20
-39.01956309
  0
VERTEX
  8
0
 10
-77.51146140
 20
-40.97339554
  0
VERTEX
  8
0
 10
-78.18519672
 20
-41.91662500
 42
-0.05578088
  0
VERTEX
  8
0
 10
-78.40977516
 20
-45.33021732
 42
0.11397419
  0
VERTEX
  8
0
 10
-78.36399169
 20
-49.05834895
  0
VERTEX
  8
0
 10
-78.37918350
 20
-49.26258924
  0
VERTEX
  8
0
 10
-78.36819234
 20
-49.46048076
  0
VERTEX
  8
0
 10
-78.30088535
 20
-49.84557682
  0
VERTEX
  8
0
 10
-78.22851918
 20
-50.23035593
  0
VERTEX
  8
0
 10
-78.21120407
 20
-50.42785123
  0
VERTEX
  8
0
 10
-78.21754234
 20
-50.63153683
  0
VERTEX
  8
0
 10
-78.23663559
 20
-50.94968309
  0
VERTEX
  8
0
 10
-78.23656824
 20
-51.26135320
  0
VERTEX
  8
0
 10
-78.22627477
 20
-51.88794738
  0
VERTEX
  8
0
 10
-78.23060091
 20
-53.16713090
  0
VERTEX
  8
0
 10
-78.25146888
 20
-54.44894042
  0
VERTEX
  8
0
 10
-78.23293731
 20
-54.74041155
  0
VERTEX
  8
0
 10
-78.16738295
 20
-55.01639714
  0
VERTEX
  8
0
 10
-78.07200306
 20
-55.28237318
  0
VERTEX
  8
0
 10
-77.96399487
 20
-55.54381566
  0
VERTEX
  8
0
 10
-77.86055562
 20
-55.80620057
  0
VERTEX
  8
0
 10
-77.77888255
 20
-56.07500389
  0
VERTEX
  8
0
 10
-77.73617291
 20
-56.35570163
  0
VERTEX
  8
0
 10
-77.73480351
 20
-56.50222214
  0
VERTEX
  8
0
 10
-77.74962393
 20
-56.65376976
  0
VERTEX
  8
0
 10
-77.76104080
 20
-56.90757488
  0
VERTEX
  8
0
 10
-77.72385233
 20
-57.15438501
  0
VERTEX
  8
0
 10
-77.64925871
 20
-57.39504084
  0
VERTEX
  8
0
 10
-77.54846014
 20
-57.63038307
  0
VERTEX
  8
0
 10
-77.31304891
 20
-58.08848946
  0
VERTEX
  8
0
 10
-77.20083664
 20
-58.31293502
  0
VERTEX
  8
0
 10
-77.10722020
 20
-58.53542974
 42
-0.23606798
  0
VERTEX
  8
0
 10
-76.97247313
 20
-59.61340626
 42
0.32794843
  0
VERTEX
  8
0
 10
-77.19705158
 20
-61.67952793
 42
-0.12044903
  0
VERTEX
  8
0
 10
-77.01738882
 20
-62.26343188
 42
-0.06821689
  0
VERTEX
  8
0
 10
-77.15213589
 20
-68.23721845
 42
-0.11961464
  0
VERTEX
  8
0
 10
-80.80153558
 20
-72.02136520
  0
VERTEX
  8
0
 10
-82.16023515
 20
-72.02136520
 42
0.27882223
  0
VERTEX
  8
0
 10
-83.32804305
 20
-72.01013628
 42
0.13255014
  0
VERTEX
  8
0
 10
-84.15898329
 20
-73.22285987
  0
SEQEND
  0
POLYLINE
  8
По_умолчанию
 66
   1
 39
0.000000
 70
    1
  0
VERTEX
  8
0
 10
17.61996682
 20
-77.57968166
  0
VERTEX
  8
0
 10
43.40157201
 20
-77.57968166
 42
-0.29060145
  0
VERTEX
  8
0
 10
46.23126039
 20
-75.28898154
 42
0.14416752
  0
VERTEX
  8
0
 10
48.20755068
 20
-74.30083640
 42
-0.16636108
  0
VERTEX
  8
0
 10
50.22875666
 20
-72.77370299
 42
0.24757144
  0
VERTEX
  8
0
 10
50.81266061
 20
-72.36946179
 42
-0.16227766
  0
VERTEX
  8
0
 10
52.74403522
 20
-69.71943617
 42
0.08718745
  0
VERTEX
  8
0
 10
53.05844504
 20
-70.07876168
 42
0.77463171
  0
VERTEX
  8
0
 10
53.95675881
 20
-69.00078515
 42
0.19258240
  0
VERTEX
  8
0
 10
53.32793917
 20
-68.32704983
 42
0.06150146
  0
VERTEX
  8
0
 10
57.63984526
 20
-63.29649272
 42
0.34223748
  0
VERTEX
  8
0
 10
59.66105125
 20
-61.99393775
 42
-0.08792679
  0
VERTEX
  8
0
 10
60.28987088
 20
-56.78371789
 42
0.13469235
  0
VERTEX
  8
0
 10
60.13266597
 20
-51.86545000
 42
0.63860805
  0
VERTEX
  8
0
 10
58.94240023
 20
-51.84299215
 42
0.14453066
  0
VERTEX
  8
0
 10
58.29112275
 20
-54.62776484
 42
-0.01537710
  0
VERTEX
  8
0
 10
57.70721880
 20
-60.78121416
  0
VERTEX
  8
0
 10
55.95550695
 20
-60.75875632
 42
0.04566569
  0
VERTEX
  8
0
 10
55.46143437
 20
-51.93282353
 42
0.74275621
  0
VERTEX
  8
0
 10
54.42837354
 20
-51.93282353
 42
0.10259504
  0
VERTEX
  8
0
 10
53.79955390
 20
-56.46930807
 42
-0.10581509
  0
VERTEX
  8
0
 10
53.32793917
 20
-60.64646710
 42
-0.20759483
  0
VERTEX
  8
0
 10
52.00292636
 20
-61.54478087
 42
-0.27225659
  0
VERTEX
  8
0
 10
51.12707043
 20
-61.07316614
 42
-0.40941332
  0
VERTEX
  8
0
 10
51.14952828
 20
-59.47865919
 42
0.04669350
  0
VERTEX
  8
0
 10
51.62114301
 20
-56.62651298
 42
0.13470039
  0
VERTEX
  8
0
 10
51.57622732
 20
-51.79807646
 42
0.69653912
  0
VERTEX
  8
0
 10
50.45333511
 20
-51.84299215
 42
-0.03095607
  0
VERTEX
  8
0
 10
49.51010565
 20
-56.13244040
 42
-0.10371007
  0
VERTEX
  8
0
 10
45.80456135
 20
-63.83548098
 42
-0.80376680
  0
VERTEX
  8
0
 10
44.56937991
 20
-62.66767308
 42
0.04292246
  0
VERTEX
  8
0
 10
46.72533296
 20
-55.52607861
 42
0.08859513
  0
VERTEX
  8
0
 10
47.60118889
 20
-48.76626749
 42
0.16648668
  0
VERTEX
  8
0
 10
47.15203200
 20
-48.78872533
 42
0.07012879
  0
VERTEX
  8
0
 10
44.38971716
 20
-51.30400389
 42
-0.09642540
  0
VERTEX
  8
0
 10
41.91935429
 20
-52.92096868
 42
0.06856739
  0
VERTEX
  8
0
 10
38.46084628
 20
-55.52607861
 42
-0.05221664
  0
VERTEX
  8
0
 10
32.62180678
 20
-60.91596123
 42
-0.01130767
  0
VERTEX
  8
0
 10
27.34421338
 20
-65.34015654
 42
0.08956692
  0
VERTEX
  8
0
 10
23.36917495
 20
-69.18044791
 42
-0.07395887
  0
VERTEX
  8
0
 10
20.96618561
 20
-72.86353436
 42
0.08001703
  0
VERTEX
  8
0
 10
20.47211304
 20
-74.61524621
  0
VERTEX
  8
0
 10
19.97804047
 20
-74.61524621
  0
VERTEX
  8
0
 10
17.64242467
 20
-76.90594633
 42
0.59344439
  0
VERTEX
  8
0
 10
17.61996682
 20
-77.57968166
  0
SEQEND
  0
POLYLINE
  8
По_умолчанию
 66
   1
 39
0.000000
 70
    1
  0
VERTEX
  8
0
 10
94.38087845
 20
-46.09378403
  0
VERTEX
  8
0
 10
92.80882935
 20
-44.43190355
 42
0.12655377
  0
VERTEX
  8
0
 10
95.63851772
 20
-38.41320129
 42
0.29317858
  0
VERTEX
  8
0
 10
94.06646863
 20
-32.84365592
 42
0.13683246
  0
VERTEX
  8
0
 10
94.33596276
 20
-26.69020660
 42
0.17491983
  0
VERTEX
  8
0
 10
94.51562551
 20
-24.93849475
 42
0.19491325
  0
VERTEX
  8
0
 10
96.04275892
 20
-22.55796326
 42
-0.22868491
  0
VERTEX
  8
0
 10
98.37837472
 20
-20.62658865
 42
0.15430013
  0
VERTEX
  8
0
 10
102.17375040
 20
-18.67275620
 42
0.03129545
  0
VERTEX
  8
0
 10
96.26733736
 20
-3.69337409
 42
-0.09553725
  0
VERTEX
  8
0
 10
94.83003533
 20
4.30161846
 42
0.13157335
  0
VERTEX
  8
0
 10
94.96478240
 20
7.22113821
 42
-0.14559253
  0
VERTEX
  8
0
 10
95.00969809
 20
8.74827162
 42
0.15148116
  0
VERTEX
  8
0
 10
95.09952946
 20
12.83559927
 42
-0.09664158
  0
VERTEX
  8
0
 10
94.94232455
 20
16.29410728
 42
-0.19374271
  0
VERTEX
  8
0
 10
95.93046970
 20
17.41699950
 42
-0.26538553
  0
VERTEX
  8
0
 10
98.31100119
 20
17.37208381
 42
0.05725847
  0
VERTEX
  8
0
 10
99.50126693
 20
16.56360141
 42
0.48908381
  0
VERTEX
  8
0
 10
101.25297879
 20
16.51868573
 42
-0.35230023
  0
VERTEX
  8
0
 10
102.69028082
 20
16.92292692
 42
0.12310563
  0
VERTEX
  8
0
 10
104.48690836
 20
16.02461315
 42
-0.04681888
  0
VERTEX
  8
0
 10
105.25047506
 20
7.08639114
  0
VERTEX
  8
0
 10
103.27418477
 20
7.04147546
  0
VERTEX
  8
0
 10
103.27418477
 20
4.57111259
  0
VERTEX
  8
0
 10
105.47505350
 20
4.61602828
  0
VERTEX
  8
0
 10
105.51996919
 20
4.07704002
  0
VERTEX
  8
0
 10
103.00469064
 20
0.61853200
 42
-0.50807003
  0
VERTEX
  8
0
 10
109.47254978
 20
-3.64845840
 42
-0.63133081
  0
VERTEX
  8
0
 10
102.69028082
 20
-7.37646055
  0
VERTEX
  8
0
 10
101.34281016
 20
-9.50995575
 42
0.18143692
  0
VERTEX
  8
0
 10
104.73394464
 20
-10.56547443
  0
VERTEX
  8
0
 10
104.68902895
 20
-10.92479994
 42
-0.08732063
  0
VERTEX
  8
0
 10
94.38087845
 20
-46.09378403
  0
SEQEND
  0
POLYLINE
  8
По_умолчанию
 66
   1
 39
0.000000
 70
    1
  0
VERTEX
  8
0
 10
-93.45653081
 20
-48.38448414
 42
-0.08456083
  0
VERTEX
  8
0
 10
-105.31427257
 20
-6.11882127
 42
-0.18655101
  0
VERTEX
  8
0
 10
-104.32612742
 20
-4.36710942
 42
0.12226396
  0
VERTEX
  8
0
 10
-101.74347533
 20
-0.79631219
 42
-0.78499865
  0
VERTEX
  8
0
 10
-100.71041450
 20
-0.81877003
  0
VERTEX
  8
0
 10
-100.71041450
 20
-1.22301123
 42
0.21736920
  0
VERTEX
  8
0
 10
-99.60998013
 20
-2.70522895
 42
0.15148116
  0
VERTEX
  8
0
 10
-94.44467596
 20
-4.05269960
 42
-0.24125111
  0
VERTEX
  8
0
 10
-92.89508470
 20
-4.20990451
 42
0.18996304
  0
VERTEX
  8
0
 10
-89.90819142
 20
-5.84932714
 42
-0.31903411
  0
VERTEX
  8
0
 10
-89.63869729
 20
-4.61414571
 42
-0.27454397
  0
VERTEX
  8
0
 10
-87.43782855
 20
-4.36710942
 42
0.13039749
  0
VERTEX
  8
0
 10
-86.18018927
 20
-4.59168786
 42
-0.64214332
  0
VERTEX
  8
0
 10
-85.55136963
 20
-5.33279672
 42
0.10451038
  0
VERTEX
  8
0
 10
-86.27002065
 20
-6.56797816
 42
0.55544861
  0
VERTEX
  8
0
 10
-86.27002065
 20
-7.19679780
 42
-0.01809992
  0
VERTEX
  8
0
 10
-85.55136963
 20
-7.80315959
 42
-0.01122053
  0
VERTEX
  8
0
 10
-85.59628532
 20
-8.72393120
  0
VERTEX
  8
0
 10
-85.10221275
 20
-9.08325671
 42
-0.30596839
  0
VERTEX
  8
0
 10
-85.32679119
 20
-10.92479994
 42
0.14161349
  0
VERTEX
  8
0
 10
-87.66240699
 20
-16.22485118
 42
-0.12380079
  0
VERTEX
  8
0
 10
-91.52515620
 20
-22.87237308
 42
0.59048702
  0
VERTEX
  8
0
 10
-91.52515620
 20
-24.35459080
 42
0.09507375
  0
VERTEX
  8
0
 10
-90.26751693
 20
-25.25290457
 42
-0.43734067
  0
VERTEX
  8
0
 10
-89.45903453
 20
-27.27411055
 42
0.06972573
  0
VERTEX
  8
0
 10
-92.55821704
 20
-37.33522477
 42
0.10832536
  0
VERTEX
  8
0
 10
-92.69296410
 20
-41.01831123
 42
-0.04832976
  0
VERTEX
  8
0
 10
-92.55821704
 20
-43.35392703
 42
0.04540296
  0
VERTEX
  8
0
 10
-91.48024051
 20
-47.84549588
 42
-0.74845565
  0
VERTEX
  8
0
 10
-93.45653081
 20
-48.38448414
  0
SEQEND
  0
POLYLINE
  8
По_умолчанию
 66
   1
 39
0.000000
 70
    1
  0
VERTEX
  8
0
 10
97.34531389
 20
-77.71442872
  0
VERTEX
  8
0
 10
54.49574707
 20
-77.71442872
 42
-0.80841579
  0
VERTEX
  8
0
 10
54.45083138
 20
-77.17544046
 42
0.07953656
  0
VERTEX
  8
0
 10
57.39280898
 20
-75.46864430
  0
VERTEX
  8
0
 10
58.49324335
 20
-75.46864430
  0
VERTEX
  8
0
 10
58.62799041
 20
-76.74874142
  0
VERTEX
  8
0
 10
62.76023375
 20
-75.71568058
  0
VERTEX
  8
0
 10
62.96235435
 20
-74.72753544
 42
-0.58240445
  0
VERTEX
  8
0
 10
63.99541518
 20
-74.50295699
  0
VERTEX
  8
0
 10
64.21999363
 20
-74.88474035
  0
VERTEX
  8
0
 10
64.82635542
 20
-74.88474035
 42
-0.05079091
  0
VERTEX
  8
0
 10
71.60862438
 20
-64.10497511
 42
0.02938637
  0
VERTEX
  8
0
 10
72.32727540
 20
-62.53292601
 42
0.03094379
  0
VERTEX
  8
0
 10
75.96544617
 20
-57.23287477
 42
-0.08496895
  0
VERTEX
  8
0
 10
80.27735226
 20
-50.89976269
 42
0.04926287
  0
VERTEX
  8
0
 10
82.74771513
 20
-53.95402951
 42
-0.35317740
  0
VERTEX
  8
0
 10
82.83754651
 20
-55.79557274
 42
0.08398227
  0
VERTEX
  8
0
 10
81.62482292
 20
-57.95152579
 42
-0.27259799
  0
VERTEX
  8
0
 10
80.32226795
 20
-59.36636997
 42
0.15416695
  0
VERTEX
  8
0
 10
78.86250807
 20
-59.36636997
 42
0.22353678
  0
VERTEX
  8
0
 10
77.55995311
 20
-59.95027392
 42
0.03993620
  0
VERTEX
  8
0
 10
77.51503742
 20
-61.45494949
  0
VERTEX
  8
0
 10
76.72901287
 20
-61.56723871
 42
-0.06069653
  0
VERTEX
  8
0
 10
76.30231383
 20
-65.65456636
 42
-0.13306919
  0
VERTEX
  8
0
 10
73.94424018
 20
-69.24782144
 42
0.40824891
  0
VERTEX
  8
0
 10
73.98915587
 20
-70.34825581
  0
VERTEX
  8
0
 10
74.77518042
 20
-70.34825581
 42
0.06507282
  0
VERTEX
  8
0
 10
75.11204809
 20
-69.58468910
 42
-0.07073197
  0
VERTEX
  8
0
 10
77.13325407
 20
-66.73254289
 42
-0.54914501
  0
VERTEX
  8
0
 10
78.99725514
 20
-66.44059091
 42
-0.11852960
  0
VERTEX
  8
0
 10
79.19937574
 20
-66.86728995
  0
VERTEX
  8
0
 10
79.19937574
 20
-71.51606371
 42
0.34951244
  0
VERTEX
  8
0
 10
81.80448567
 20
-73.73939029
 42
0.01208526
  0
VERTEX
  8
0
 10
85.08333093
 20
-73.29023340
 42
0.04259218
  0
VERTEX
  8
0
 10
86.54309081
 20
-72.99828143
 42
0.36237896
  0
VERTEX
  8
0
 10
86.56554865
 20
-72.32454610
 42
0.28567184
  0
VERTEX
  8
0
 10
83.42145046
 20
-70.48300287
 42
-0.39186956
  0
VERTEX
  8
0
 10
83.10704064
 20
-69.04570084
 42
0.05481760
  0
VERTEX
  8
0
 10
84.54434267
 20
-64.73379475
 42
0.16313377
  0
VERTEX
  8
0
 10
85.30790937
 20
-63.72319176
 42
0.07375920
  0
VERTEX
  8
0
 10
84.92612602
 20
-62.51046817
 42
-0.08842144
  0
VERTEX
  8
0
 10
85.93672901
 20
-59.97273177
 42
-0.87289106
  0
VERTEX
  8
0
 10
86.90241631
 20
-59.95027392
 42
0.04802869
  0
VERTEX
  8
0
 10
89.52998409
 20
-63.11682996
 42
0.19857866
  0
VERTEX
  8
0
 10
90.83253906
 20
-63.83548098
 42
-0.17521188
  0
VERTEX
  8
0
 10
91.86559989
 20
-65.54227714
 42
0.27575522
  0
VERTEX
  8
0
 10
94.06646863
 20
-69.09061653
 42
0.06461460
  0
VERTEX
  8
0
 10
96.62666287
 20
-69.67452048
 42
-0.14524605
  0
VERTEX
  8
0
 10
94.20121569
 20
-71.51606371
 42
-0.09491634
  0
VERTEX
  8
0
 10
91.95543127
 20
-71.87538922
 42
0.41114996
  0
VERTEX
  8
0
 10
93.03340779
 20
-74.07625795
 42
0.03912919
  0
VERTEX
  8
0
 10
101.61230429
 20
-74.39066777
 42
0.13704183
  0
VERTEX
  8
0
 10
103.11697986
 20
-73.76184813
  0
VERTEX
  8
0
 10
103.62228135
 20
-73.76184813
  0
VERTEX
  8
0
 10
104.34093237
 20
-74.83982466
  0
VERTEX
  8
0
 10
106.16001775
 20
-74.85105358
 42
0.13968356
  0
VERTEX
  8
0
 10
108.16999481
 20
-74.12117364
 42
0.37726630
  0
VERTEX
  8
0
 10
108.14753697
 20
-71.04444898
 42
-0.05360108
  0
VERTEX
  8
0
 10
108.28228403
 20
-69.31519497
 42
0.16841344
  0
VERTEX
  8
0
 10
105.31784859
 20
-64.82362612
 42
-0.09910766
  0
VERTEX
  8
0
 10
103.63351028
 20
-63.07191427
 42
0.12434843
  0
VERTEX
  8
0
 10
100.26483364
 20
-58.17610423
 42
-0.21991609
  0
VERTEX
  8
0
 10
98.87244730
 20
-56.42439238
 42
0.09265966
  0
VERTEX
  8
0
 10
95.54868635
 20
-51.43875096
 42
-0.36586933
  0
VERTEX
  8
0
 10
95.59360204
 20
-49.32771360
 42
0.10558986
  0
VERTEX
  8
0
 10
106.75515063
 20
-11.48624605
 42
-0.29377668
  0
VERTEX
  8
0
 10
107.78821146
 20
-10.13877539
 42
0.63147212
  0
VERTEX
  8
0
 10
108.11385020
 20
2.21303894
 42
-0.44960281
  0
VERTEX
  8
0
 10
108.11385020
 20
3.31347331
  0
VERTEX
  8
0
 10
110.28103217
 20
6.16561953
  0
VERTEX
  8
0
 10
110.28103217
 20
6.98533084
  0
VERTEX
  8
0
 10
107.59731978
 20
6.99655977
 42
0.04051068
  0
VERTEX
  8
0
 10
106.82252416
 20
15.35087783
 42
-0.51461790
  0
VERTEX
  8
0
 10
107.58609086
 20
16.09198669
 42
0.11814143
  0
VERTEX
  8
0
 10
112.12257540
 20
16.94538477
  0
VERTEX
  8
0
 10
113.89674509
 20
16.94538477
 42
0.30514695
  0
VERTEX
  8
0
 10
115.26667359
 20
18.65218093
 42
0.06894541
  0
VERTEX
  8
0
 10
115.44633635
 20
24.40138906
 42
0.22849790
  0
VERTEX
  8
0
 10
111.40392438
 20
27.29845096
 42
-0.04263592
  0
VERTEX
  8
0
 10
104.84623386
 20
29.99339227
 42
-0.29806922
  0
VERTEX
  8
0
 10
103.67842596
 20
31.83493550
 42
0.30698392
  0
VERTEX
  8
0
 10
13.68984408
 20
110.30264329
 42
-0.50590760
  0
VERTEX
  8
0
 10
13.03856660
 20
110.97637862
 42
0.04566167
  0
VERTEX
  8
0
 10
13.15085582
 20
112.66071693
 42
0.44547111
  0
VERTEX
  8
0
 10
8.12029871
 20
117.93831033
 42
0.44129576
  0
VERTEX
  8
0
 10
3.22448866
 20
112.66071693
 42
0.06996828
  0
VERTEX
  8
0
 10
3.32554896
 20
111.25710167
  0
VERTEX
  8
0
 10
0.23759538
 20
111.20095706
  0
VERTEX
  8
0
 10
0.23759538
 20
117.75864758
  0
VERTEX
  8
0
 10
-0.48105564
 20
117.75864758
  0
VERTEX
  8
0
 10
-3.13108126
 20
116.72558674
  0
VERTEX
  8
0
 10
-3.13108126
 20
114.32259741
  0
VERTEX
  8
0
 10
-1.83975522
 20
114.32259741
  0
VERTEX
  8
0
 10
-1.83975522
 20
111.20095706
 42
0.39821319
  0
VERTEX
  8
0
 10
-107.69480406
 20
9.35463341
 42
0.93191001
  0
VERTEX
  8
0
 10
-108.55943106
 20
-4.58045894
 42
-0.81688521
  0
VERTEX
  8
0
 10
-108.56504552
 20
-5.31033888
 42
0.06641374
  0
VERTEX
  8
0
 10
-110.47396228
 20
-7.91544881
  0
VERTEX
  8
0
 10
-108.61557567
 20
-9.49872683
  0
VERTEX
  8
0
 10
-107.89131020
 20
-8.57234076
 42
-0.64654737
  0
VERTEX
  8
0
 10
-107.28494840
 20
-8.79130474
 42
0.12606659
  0
VERTEX
  8
0
 10
-89.70607082
 20
-60.55663572
  0
VERTEX
  8
0
 10
-89.68361298
 20
-61.92656422
 42
0.37180742
  0
VERTEX
  8
0
 10
-88.71792567
 20
-63.13928781
  0
VERTEX
  8
0
 10
-86.71917754
 20
-63.09437212
 42
-0.24602548
  0
VERTEX
  8
0
 10
-86.47214125
 20
-64.98083103
 42
0.10667799
  0
VERTEX
  8
0
 10
-89.63869729
 20
-70.12367737
 42
-0.14060673
  0
VERTEX
  8
0
 10
-91.21074638
 20
-72.32454610
 42
0.18759105
  0
VERTEX
  8
0
 10
-94.98366422
 20
-77.89409147
  0
VERTEX
  8
0
 10
-104.82020000
 20
-77.89409147
  0
VERTEX
  8
0
 10
-104.82020000
 20
-82.56532308
  0
VERTEX
  8
0
 10
-101.27186061
 20
-82.56532308
  0
VERTEX
  8
0
 10
-101.72101749
 20
-108.79608515
  0
VERTEX
  8
0
 10
98.15379628
 20
-108.79608515
  0
VERTEX
  8
0
 10
98.15379628
 20
-106.10114384
 42
-0.46496860
  0
VERTEX
  8
0
 10
98.15379628
 20
-105.31511930
 42
0.67469809
  0
VERTEX
  8
0
 10
98.13133844
 20
-81.35259949
 42
-0.53010322
  0
VERTEX
  8
0
 10
97.63726586
 20
-80.83606907
 42
-0.48164093
  0
VERTEX
  8
0
 10
97.99659137
 20
-80.40937003
  0
VERTEX
  8
0
 10
97.99659137
 20
-77.69197088
  0
VERTEX
  8
0
 10
97.34531389
 20
-77.71442872
  0
SEQEND
  0
POLYLINE
  8
По_умолчанию
 66
   1
 39
0.000000
 70
    1
  0
VERTEX
  8
0
 10
-4.35226255
 20
-72.01164973
  0
VERTEX
  8
0
 10
-4.32882931
 20
-71.54758517
  0
VERTEX
  8
0
 10
-4.26005054
 20
-71.09692592
  0
VERTEX
  8
0
 10
-4.14820769
 20
-70.66195343
  0
VERTEX
  8
0
 10
-3.99558220
 20
-70.24494915
  0
VERTEX
  8
0
 10
-3.80445552
 20
-69.84819452
  0
VERTEX
  8
0
 10
-3.57710908
 20
-69.47397098
  0
VERTEX
  8
0
 10
-3.31582434
 20
-69.12455997
  0
VERTEX
  8
0
 10
-3.02288273
 20
-68.80224294
  0
VERTEX
  8
0
 10
-2.70056570
 20
-68.50930133
  0
VERTEX
  8
0
 10
-2.35115469
 20
-68.24801659
  0
VERTEX
  8
0
 10
-1.97693115
 20
-68.02067015
  0
VERTEX
  8
0
 10
-1.58017652
 20
-67.82954347
  0
VERTEX
  8
0
 10
-1.16317224
 20
-67.67691798
  0
VERTEX
  8
0
 10
-0.72819975
 20
-67.56507513
  0
VERTEX
  8
0
 10
-0.27754050
 20
-67.49629636
  0
VERTEX
  8
0
 10
0.18652406
 20
-67.47286312
  0
VERTEX
  8
0
 10
0.65058863
 20
-67.49629636
  0
VERTEX
  8
0
 10
1.10124788
 20
-67.56507513
  0
VERTEX
  8
0
 10
1.53622036
 20
-67.67691798
  0
VERTEX
  8
0
 10
1.95322465
 20
-67.82954347
  0
VERTEX
  8
0
 10
2.34997928
 20
-68.02067015
  0
VERTEX
  8
0
 10
2.72420282
 20
-68.24801659
  0
VERTEX
  8
0
 10
3.07361383
 20
-68.50930133
  0
VERTEX
  8
0
 10
3.39593086
 20
-68.80224294
  0
VERTEX
  8
0
 10
3.68887247
 20
-69.12455997
  0
VERTEX
  8
0
 10
3.95015721
 20
-69.47397098
  0
VERTEX
  8
0
 10
4.17750365
 20
-69.84819452
  0
VERTEX
  8
0
 10
4.36863033
 20
-70.24494915
  0
VERTEX
  8
0
 10
4.52125582
 20
-70.66195343
  0
VERTEX
  8
0
 10
4.63309867
 20
-71.09692592
  0
VERTEX
  8
0
 10
4.70187744
 20
-71.54758517
  0
VERTEX
  8
0
 10
4.72531068
 20
-72.01164973
  0
VERTEX
  8
0
 10
4.70187744
 20
-72.47571430
  0
VERTEX
  8
0
 10
4.63309867
 20
-72.92637355
  0
VERTEX
  8
0
 10
4.52125582
 20
-73.36134603
  0
VERTEX
  8
0
 10
4.36863033
 20
-73.77835032
  0
VERTEX
  8
0
 10
4.17750365
 20
-74.17510495
  0
VERTEX
  8
0
 10
3.95015721
 20
-74.54932849
  0
VERTEX
  8
0
 10
3.68887247
 20
-74.89873950
  0
VERTEX
  8
0
 10
3.39593086
 20
-75.22105653
  0
VERTEX
  8
0
 10
3.07361383
 20
-75.51399814
  0
VERTEX
  8
0
 10
2.72420282
 20
-75.77528288
  0
VERTEX
  8
0
 10
2.34997928
 20
-76.00262932
  0
VERTEX
  8
0
 10
1.95322465
 20
-76.19375600
  0
VERTEX
  8
0
 10
1.53622036
 20
-76.34638149
  0
VERTEX
  8
0
 10
1.10124788
 20
-76.45822434
  0
VERTEX
  8
0
 10
0.65058863
 20
-76.52700311
  0
VERTEX
  8
0
 10
0.18652406
 20
-76.55043635
  0
VERTEX
  8
0
 10
-0.27754050
 20
-76.52700311
  0
VERTEX
  8
0
 10
-0.72819975
 20
-76.45822434
  0
VERTEX
  8
0
 10
-1.16317224
 20
-76.34638149
  0
VERTEX
  8
0
 10
-1.58017652
 20
-76.19375600
  0
VERTEX
  8
0
 10
-1.97693115
 20
-76.00262932
  0
VERTEX
  8
0
 10
-2.35115469
 20
-75.77528288
  0
VERTEX
  8
0
 10
-2.70056570
 20
-75.51399814
  0
VERTEX
  8
0
 10
-3.02288273
 20
-75.22105653
  0
VERTEX
  8
0
 10
-3.31582434
 20
-74.89873950
  0
VERTEX
  8
0
 10
-3.57710908
 20
-74.54932849
  0
VERTEX
  8
0
 10
-3.80445552
 20
-74.17510495
  0
VERTEX
  8
0
 10
-3.99558220
 20
-73.77835032
  0
VERTEX
  8
0
 10
-4.14820769
 20
-73.36134603
  0
VERTEX
  8
0
 10
-4.26005054
 20
-72.92637355
  0
VERTEX
  8
0
 10
-4.32882931
 20
-72.47571430
  0
VERTEX
  8
0
 10
-4.35226255
 20
-72.01164973
  0
SEQEND
  0
POLYLINE
  8
По_умолчанию
 66
   1
 39
0.000000
 70
    1
  0
VERTEX
  8
0
 10
82.14892022
 20
-93.26243066
  0
VERTEX
  8
0
 10
82.16338311
 20
-92.69044947
  0
VERTEX
  8
0
 10
82.20630619
 20
-92.12597701
  0
VERTEX
  8
0
 10
82.27699108
 20
-91.56971166
  0
VERTEX
  8
0
 10
82.37473940
 20
-91.02235181
  0
VERTEX
  8
0
 10
82.49885276
 20
-90.48459584
  0
VERTEX
  8
0
 10
82.64863278
 20
-89.95714213
  0
VERTEX
  8
0
 10
82.82338109
 20
-89.44068906
  0
VERTEX
  8
0
 10
83.02239929
 20
-88.93593501
  0
VERTEX
  8
0
 10
83.24498902
 20
-88.44357837
  0
VERTEX
  8
0
 10
83.49045187
 20
-87.96431751
  0
VERTEX
  8
0
 10
83.75808948
 20
-87.49885083
  0
VERTEX
  8
0
 10
84.04720347
 20
-87.04787669
  0
VERTEX
  8
0
 10
84.35709544
 20
-86.61209349
  0
VERTEX
  8
0
 10
84.68706702
 20
-86.19219961
  0
VERTEX
  8
0
 10
85.03641982
 20
-85.78889342
  0
VERTEX
  8
0
 10
85.40445547
 20
-85.40287331
  0
VERTEX
  8
0
 10
85.79047557
 20
-85.03483767
  0
VERTEX
  8
0
 10
86.19378176
 20
-84.68548486
  0
VERTEX
  8
0
 10
86.61367565
 20
-84.35551328
  0
VERTEX
  8
0
 10
87.04945885
 20
-84.04562131
  0
VERTEX
  8
0
 10
87.50043298
 20
-83.75650733
  0
VERTEX
  8
0
 10
87.96589967
 20
-83.48886972
  0
VERTEX
  8
0
 10
88.44516052
 20
-83.24340686
  0
VERTEX
  8
0
 10
88.93751716
 20
-83.02081714
  0
VERTEX
  8
0
 10
89.44227121
 20
-82.82179894
  0
VERTEX
  8
0
 10
89.95872428
 20
-82.64705063
  0
VERTEX
  8
0
 10
90.48617800
 20
-82.49727060
  0
VERTEX
  8
0
 10
91.02393397
 20
-82.37315724
  0
VERTEX
  8
0
 10
91.57129382
 20
-82.27540893
  0
VERTEX
  8
0
 10
92.12755916
 20
-82.20472404
  0
VERTEX
  8
0
 10
92.69203162
 20
-82.16180096
  0
VERTEX
  8
0
 10
93.26401281
 20
-82.14733807
  0
VERTEX
  8
0
 10
93.83599400
 20
-82.16180096
  0
VERTEX
  8
0
 10
94.40046646
 20
-82.20472404
  0
VERTEX
  8
0
 10
94.95673181
 20
-82.27540893
  0
VERTEX
  8
0
 10
95.50409166
 20
-82.37315724
  0
VERTEX
  8
0
 10
96.04184763
 20
-82.49727060
  0
VERTEX
  8
0
 10
96.56930134
 20
-82.64705063
  0
VERTEX
  8
0
 10
97.08575441
 20
-82.82179894
  0
VERTEX
  8
0
 10
97.59050846
 20
-83.02081714
  0
VERTEX
  8
0
 10
98.08286510
 20
-83.24340686
  0
VERTEX
  8
0
 10
98.56212596
 20
-83.48886972
  0
VERTEX
  8
0
 10
99.02759264
 20
-83.75650733
  0
VERTEX
  8
0
 10
99.47856678
 20
-84.04562131
  0
VERTEX
  8
0
 10
99.91434998
 20
-84.35551328
  0
VERTEX
  8
0
 10
100.33424386
 20
-84.68548486
  0
VERTEX
  8
0
 10
100.73755005
 20
-85.03483767
  0
VERTEX
  8
0
 10
101.12357016
 20
-85.40287331
  0
VERTEX
  8
0
 10
101.49160580
 20
-85.78889342
  0
VERTEX
  8
0
 10
101.84095861
 20
-86.19219961
  0
VERTEX
  8
0
 10
102.17093019
 20
-86.61209349
  0
VERTEX
  8
0
 10
102.48082216
 20
-87.04787669
  0
VERTEX
  8
0
 10
102.76993614
 20
-87.49885083
  0
VERTEX
  8
0
 10
103.03757375
 20
-87.96431751
  0
VERTEX
  8
0
 10
103.28303661
 20
-88.44357837
  0
VERTEX
  8
0
 10
103.50562633
 20
-88.93593501
  0
VERTEX
  8
0
 10
103.70464453
 20
-89.44068906
  0
VERTEX
  8
0
 10
103.87939284
 20
-89.95714213
  0
VERTEX
  8
0
 10
104.02917287
 20
-90.48459584
  0
VERTEX
  8
0
 10
104.15328623
 20
-91.02235181
  0
VERTEX
  8
0
 10
104.25103454
 20
-91.56971166
  0
VERTEX
  8
0
 10
104.32171943
 20
-92.12597701
  0
VERTEX
  8
0
 10
104.36464251
 20
-92.69044947
  0
VERTEX
  8
0
 10
104.37910540
 20
-93.26243066
  0
VERTEX
  8
0
 10
104.36464251
 20
-93.83441185
  0
VERTEX
  8
0
 10
104.32171943
 20
-94.39888431
  0
VERTEX
  8
0
 10
104.25103454
 20
-94.95514965
  0
VERTEX
  8
0
 10
104.15328623
 20
-95.50250950
  0
VERTEX
  8
0
 10
104.02917287
 20
-96.04026548
  0
VERTEX
  8
0
 10
103.87939284
 20
-96.56771919
  0
VERTEX
  8
0
 10
103.70464453
 20
-97.08417226
  0
VERTEX
  8
0
 10
103.50562633
 20
-97.58892631
  0
VERTEX
  8
0
 10
103.28303661
 20
-98.08128295
  0
VERTEX
  8
0
 10
103.03757375
 20
-98.56054380
  0
VERTEX
  8
0
 10
102.76993614
 20
-99.02601049
  0
VERTEX
  8
0
 10
102.48082216
 20
-99.47698462
  0
VERTEX
  8
0
 10
102.17093019
 20
-99.91276782
  0
VERTEX
  8
0
 10
101.84095861
 20
-100.33266171
  0
VERTEX
  8
0
 10
101.49160580
 20
-100.73596790
  0
VERTEX
  8
0
 10
101.12357016
 20
-101.12198800
  0
VERTEX
  8
0
 10
100.73755005
 20
-101.49002365
  0
VERTEX
  8
0
 10
100.33424386
 20
-101.83937645
  0
VERTEX
  8
0
 10
99.91434998
 20
-102.16934803
  0
VERTEX
  8
0
 10
99.47856678
 20
-102.47924000
  0
VERTEX
  8
0
 10
99.02759264
 20
-102.76835399
  0
VERTEX
  8
0
 10
98.56212596
 20
-103.03599160
  0
VERTEX
  8
0
 10
98.08286510
 20
-103.28145445
  0
VERTEX
  8
0
 10
97.59050846
 20
-103.50404418
  0
VERTEX
  8
0
 10
97.08575441
 20
-103.70306238
  0
VERTEX
  8
0
 10
96.56930134
 20
-103.87781069
  0
VERTEX
  8
0
 10
96.04184763
 20
-104.02759071
  0
VERTEX
  8
0
 10
95.50409166
 20
-104.15170407
  0
VERTEX
  8
0
 10
94.95673181
 20
-104.24945239
  0
VERTEX
  8
0
 10
94.40046646
 20
-104.32013728
  0
VERTEX
  8
0
 10
93.83599400
 20
-104.36306036
  0
VERTEX
  8
0
 10
93.26401281
 20
-104.37752325
  0
VERTEX
  8
0
 10
92.69203162
 20
-104.36306036
  0
VERTEX
  8
0
 10
92.12755916
 20
-104.32013728
  0
VERTEX
  8
0
 10
91.57129382
 20
-104.24945239
  0
VERTEX
  8
0
 10
91.02393397
 20
-104.15170407
  0
VERTEX
  8
0
 10
90.48617800
 20
-104.02759071
  0
VERTEX
  8
0
 10
89.95872428
 20
-103.87781069
  0
VERTEX
  8
0
 10
89.44227121
 20
-103.70306238
  0
VERTEX
  8
0
 10
88.93751716
 20
-103.50404418
  0
VERTEX
  8
0
 10
88.44516052
 20
-103.28145445
  0
VERTEX
  8
0
 10
87.96589967
 20
-103.03599160
  0
VERTEX
  8
0
 10
87.50043298
 20
-102.76835399
  0
VERTEX
  8
0
 10
87.04945885
 20
-102.47924000
  0
VERTEX
  8
0
 10
86.61367565
 20
-102.16934803
  0
VERTEX
  8
0
 10
86.19378176
 20
-101.83937645
  0
VERTEX
  8
0
 10
85.79047557
 20
-101.49002365
  0
VERTEX
  8
0
 10
85.40445547
 20
-101.12198800
  0
VERTEX
  8
0
 10
85.03641982
 20
-100.73596790
  0
VERTEX
  8
0
 10
84.68706702
 20
-100.33266171
  0
VERTEX
  8
0
 10
84.35709544
 20
-99.91276782
  0
VERTEX
  8
0
 10
84.04720347
 20
-99.47698462
  0
VERTEX
  8
0
 10
83.75808948
 20
-99.02601049
  0
VERTEX
  8
0
 10
83.49045187
 20
-98.56054380
  0
VERTEX
  8
0
 10
83.24498902
 20
-98.08128295
  0
VERTEX
  8
0
 10
83.02239929
 20
-97.58892631
  0
VERTEX
  8
0
 10
82.82338109
 20
-97.08417226
  0
VERTEX
  8
0
 10
82.64863278
 20
-96.56771919
  0
VERTEX
  8
0
 10
82.49885276
 20
-96.04026548
  0
VERTEX
  8
0
 10
82.37473940
 20
-95.50250950
  0
VERTEX
  8
0
 10
82.27699108
 20
-94.95514965
  0
VERTEX
  8
0
 10
82.20630619
 20
-94.39888431
  0
VERTEX
  8
0
 10
82.16338311
 20
-93.83441185
  0
VERTEX
  8
0
 10
82.14892022
 20
-93.26243066
  0
SEQEND
  0
POLYLINE
  8
По_умолчанию
 66
   1
 39
0.000000
 70
    1
  0
VERTEX
  8
0
 10
77.76207371
 20
-80.36445434
  0
VERTEX
  8
0
 10
77.71715802
 20
-105.92148109
  0
VERTEX
  8
0
 10
89.57489978
 20
-105.92148109
 42
-0.68885977
  0
VERTEX
  8
0
 10
89.57489978
 20
-80.36445434
  0
VERTEX
  8
0
 10
77.76207371
 20
-80.36445434
  0
SEQEND
  0
POLYLINE
  8
По_умолчанию
 66
   1
 39
0.000000
 70
    1
  0
VERTEX
  8
0
 10
75.69595204
 20
-86.67510857
  0
VERTEX
  8
0
 10
70.37344295
 20
-82.78990152
  0
VERTEX
  8
0
 10
70.37344295
 20
-105.92148109
  0
VERTEX
  8
0
 10
75.69595204
 20
-105.92148109
  0
VERTEX
  8
0
 10
75.69595204
 20
-86.67510857
  0
SEQEND
  0
POLYLINE
  8
По_умолчанию
 66
   1
 39
0.000000
 70
    1
  0
VERTEX
  8
0
 10
75.94298832
 20
-80.34199650
  0
VERTEX
  8
0
 10
75.94298832
 20
-83.80050451
 42
-0.39919006
  0
VERTEX
  8
0
 10
74.82009611
 20
-84.20474571
  0
VERTEX
  8
0
 10
71.00226259
 20
-81.03818967
 42
-0.52922644
  0
VERTEX
  8
0
 10
71.15946750
 20
-80.34199650
  0
VERTEX
  8
0
 10
75.94298832
 20
-80.34199650
  0
SEQEND
  0
POLYLINE
  8
По_умолчанию
 66
   1
 39
0.000000
 70
    1
  0
VERTEX
  8
0
 10
65.77053110
 20
-104.94991043
 42
0.41421356
  0
VERTEX
  8
0
 10
66.83173910
 20
-106.01111843
  0
VERTEX
  8
0
 10
67.58307437
 20
-106.01111843
 42
0.41421356
  0
VERTEX
  8
0
 10
68.64428237
 20
-104.94991043
  0
VERTEX
  8
0
 10
68.64428237
 20
-81.29133928
 42
0.41421356
  0
VERTEX
  8
0
 10
67.58307437
 20
-80.23013128
  0
VERTEX
  8
0
 10
66.83173910
 20
-80.23013128
 42
0.41421356
  0
VERTEX
  8
0
 10
65.77053110
 20
-81.29133928
  0
VERTEX
  8
0
 10
65.77053110
 20
-104.94991043
  0
SEQEND
  0
POLYLINE
  8
По_умолчанию
 66
   1
 39
0.000000
 70
    1
  0
VERTEX
  8
0
 10
58.06654430
 20
-82.52040739
  0
VERTEX
  8
0
 10
61.03097974
 20
-82.52040739
  0
VERTEX
  8
0
 10
61.03097974
 20
-81.15047889
 42
-0.41085100
  0
VERTEX
  8
0
 10
61.72717292
 20
-80.20724943
  0
VERTEX
  8
0
 10
63.18693279
 20
-80.20724943
 42
-0.41545398
  0
VERTEX
  8
0
 10
63.92804165
 20
-81.24031027
  0
VERTEX
  8
0
 10
63.92804165
 20
-104.84350457
 42
-0.45957491
  0
VERTEX
  8
0
 10
62.91743866
 20
-105.78673403
  0
VERTEX
  8
0
 10
58.22374921
 20
-105.78673403
 42
-0.60220323
  0
VERTEX
  8
0
 10
57.57247173
 20
-105.11299870
  0
VERTEX
  8
0
 10
57.57247173
 20
-83.32888978
 42
-0.42931142
  0
VERTEX
  8
0
 10
58.06654430
 20
-82.52040739
  0
SEQEND
  0
POLYLINE
  8
По_умолчанию
 66
   1
 39
0.000000
 70
    1
  0
VERTEX
  8
0
 10
49.59993702
 20
-105.74181834
  0
VERTEX
  8
0
 10
54.45083138
 20
-105.74181834
 42
0.43917238
  0
VERTEX
  8
0
 10
55.50635006
 20
-105.00070948
  0
VERTEX
  8
0
 10
55.50635006
 20
-83.14922703
 42
0.44387874
  0
VERTEX
  8
0
 10
55.00104857
 20
-82.59900984
  0
VERTEX
  8
0
 10
52.24996265
 20
-82.59900984
  0
VERTEX
  8
0
 10
52.24996265
 20
-80.71255093
 42
0.47875648
  0
VERTEX
  8
0
 10
51.71097438
 20
-80.22970728
  0
VERTEX
  8
0
 10
49.58870810
 20
-80.22970728
 42
0.48231543
  0
VERTEX
  8
0
 10
49.06094876
 20
-80.75746662
  0
VERTEX
  8
0
 10
49.06094876
 20
-81.26276811
  0
VERTEX
  8
0
 10
49.06094876
 20
-105.00070948
 42
0.53957725
  0
VERTEX
  8
0
 10
49.59993702
 20
-105.74181834
  0
SEQEND
  0
POLYLINE
  8
По_умолчанию
 66
   1
 39
0.000000
 70
    1
  0
VERTEX
  8
0
 10
42.63800531
 20
-80.21847835
 42
0.67483224
  0
VERTEX
  8
0
 10
42.45834256
 20
-81.03818967
  0
VERTEX
  8
0
 10
46.36600745
 20
-84.00262511
 42
0.39856856
  0
VERTEX
  8
0
 10
47.44398398
 20
-84.01385403
  0
VERTEX
  8
0
 10
47.44398398
 20
-80.69009308
 42
0.47846565
  0
VERTEX
  8
0
 10
47.00605601
 20
-80.21847835
  0
VERTEX
  8
0
 10
42.63800531
 20
-80.21847835
  0
SEQEND
  0
POLYLINE
  8
По_умолчанию
 66
   1
 39
0.000000
 70
    1
  0
VERTEX
  8
0
 10
47.06220063
 20
-86.49544582
  0
VERTEX
  8
0
 10
41.73969154
 20
-82.61023877
  0
VERTEX
  8
0
 10
41.73969154
 20
-105.74181834
  0
VERTEX
  8
0
 10
47.06220063
 20
-105.74181834
  0
VERTEX
  8
0
 10
47.06220063
 20
-86.49544582
  0
SEQEND
  0
POLYLINE
  8
По_умолчанию
 66
   1
 39
0.000000
 70
    1
  0
VERTEX
  8
0
 10
36.34980892
 20
-105.78954126
  0
VERTEX
  8
0
 10
38.99983454
 20
-105.78673403
 42
0.44135574
  0
VERTEX
  8
0
 10
40.03289538
 20
-104.88842026
  0
VERTEX
  8
0
 10
40.03289538
 20
-80.81361123
 42
0.52124038
  0
VERTEX
  8
0
 10
39.29178652
 20
-80.22970728
  0
VERTEX
  8
0
 10
37.13583347
 20
-80.22970728
 42
0.53249552
  0
VERTEX
  8
0
 10
36.57438736
 20
-80.83606907
  0
VERTEX
  8
0
 10
36.57438736
 20
-82.52040739
  0
VERTEX
  8
0
 10
32.89130091
 20
-82.49794954
 42
0.41892013
  0
VERTEX
  8
0
 10
31.92561360
 20
-83.44117900
  0
VERTEX
  8
0
 10
31.92561360
 20
-86.22595169
 42
0.42752733
  0
VERTEX
  8
0
 10
32.49828863
 20
-86.93337378
  0
VERTEX
  8
0
 10
36.12523048
 20
-86.93337378
 42
0.21459358
  0
VERTEX
  8
0
 10
37.45024329
 20
-88.65139887
  0
VERTEX
  8
0
 10
32.73409600
 20
-88.65139887
 42
0.48641880
  0
VERTEX
  8
0
 10
31.92561360
 20
-89.48233910
  0
VERTEX
  8
0
 10
31.92561360
 20
-103.09179272
 42
0.43175414
  0
VERTEX
  8
0
 10
32.66672246
 20
-103.76552804
  0
VERTEX
  8
0
 10
36.39472461
 20
-103.76552804
  0
VERTEX
  8
0
 10
36.34980892
 20
-105.78954126
  0
SEQEND
  0
POLYLINE
  8
По_умолчанию
 66
   1
 39
0.000000
 70
    1
  0
VERTEX
  8
0
 10
25.39038093
 20
-82.11616619
 42
0.87795488
  0
VERTEX
  8
0
 10
22.65052393
 20
-103.49603391
 42
0.46141739
  0
VERTEX
  8
0
 10
23.66112692
 20
-102.50788877
  0
VERTEX
  8
0
 10
23.68358477
 20
-86.11366247
  0
VERTEX
  8
0
 10
25.43529662
 20
-86.11366247
  0
VERTEX
  8
0
 10
25.43529662
 20
-104.95579379
 42
0.47192444
  0
VERTEX
  8
0
 10
26.13148979
 20
-105.69690265
  0
VERTEX
  8
0
 10
28.98363601
 20
-105.69690265
 42
0.47063361
  0
VERTEX
  8
0
 10
30.01669684
 20
-104.65261289
  0
VERTEX
  8
0
 10
30.01669684
 20
-89.39250773
 42
0.36768195
  0
VERTEX
  8
0
 10
29.66860026
 20
-88.66262779
  0
VERTEX
  8
0
 10
29.20821445
 20
-88.66262779
  0
VERTEX
  8
0
 10
28.28744284
 20
-86.93337378
  0
VERTEX
  8
0
 10
29.72474487
 20
-86.93337378
 42
0.33143832
  0
VERTEX
  8
0
 10
30.19635960
 20
-86.22595169
  0
VERTEX
  8
0
 10
30.19635960
 20
-80.94835829
 42
0.42483897
  0
VERTEX
  8
0
 10
29.67982918
 20
-80.20724943
  0
VERTEX
  8
0
 10
26.04165841
 20
-80.20724943
 42
0.43998862
  0
VERTEX
  8
0
 10
25.39038093
 20
-80.74623769
  0
VERTEX
  8
0
 10
25.39038093
 20
-82.11616619
  0
SEQEND
  0
POLYLINE
  8
По_умолчанию
 66
   1
 39
0.000000
 70
    1
  0
VERTEX
  8
0
 10
15.17206180
 20
-80.05004452
 42
-0.19594644
  0
VERTEX
  8
0
 10
13.24068719
 20
-81.33014164
 42
0.11987395
  0
VERTEX
  8
0
 10
12.07287929
 20
-81.53226224
 42
-0.24774763
  0
VERTEX
  8
0
 10
9.28810661
 20
-81.37505733
 42
-0.14163201
  0
VERTEX
  8
0
 10
7.96309380
 20
-79.98267099
  0
VERTEX
  8
0
 10
2.34863274
 20
-79.98267099
 42
0.82817049
  0
VERTEX
  8
0
 10
2.34863274
 20
-80.63394847
 42
-0.71626560
  0
VERTEX
  8
0
 10
3.44906710
 20
-100.26210434
 42
0.69532313
  0
VERTEX
  8
0
 10
3.33677788
 20
-101.38499655
  0
VERTEX
  8
0
 10
8.34487715
 20
-105.67444480
  0
VERTEX
  8
0
 10
21.07847484
 20
-105.67444480
 42
0.81403460
  0
VERTEX
  8
0
 10
21.07847484
 20
-104.84350457
 42
-0.73080804
  0
VERTEX
  8
0
 10
21.88695723
 20
-80.61149063
 42
0.98025582
  0
VERTEX
  8
0
 10
21.88695723
 20
-80.00512883
  0
VERTEX
  8
0
 10
15.17206180
 20
-80.05004452
  0
SEQEND
  0
POLYLINE
  8
По_умолчанию
 66
   1
 39
0.000000
 70
    1
  0
VERTEX
  8
0
 10
-0.32385073
 20
-101.56465931
  0
VERTEX
  8
0
 10
-0.32385073
 20
-105.29266145
 42
0.66807371
  0
VERTEX
  8
0
 10
0.17022184
 20
-105.74181834
  0
VERTEX
  8
0
 10
4.54950147
 20
-105.74181834
 42
0.76414667
  0
VERTEX
  8
0
 10
4.84145345
 20
-104.91087810
  0
VERTEX
  8
0
 10
0.41725813
 20
-101.22779164
 42
0.60430058
  0
VERTEX
  8
0
 10
-0.32385073
 20
-101.56465931
  0
SEQEND
  0
POLYLINE
  8
По_умолчанию
 66
   1
 39
0.000000
 70
    1
  0
VERTEX
  8
0
 10
-0.12173013
 20
-83.39626331
  0
VERTEX
  8
0
 10
-0.12173013
 20
-98.47670572
 42
0.63232148
  0
VERTEX
  8
0
 10
1.13590915
 20
-99.13921213
 42
0.82801379
  0
VERTEX
  8
0
 10
1.13590915
 20
-82.43057601
 42
0.67074210
  0
VERTEX
  8
0
 10
-0.12173013
 20
-83.39626331
  0
SEQEND
  0
POLYLINE
  8
По_умолчанию
 66
   1
 39
0.000000
 70
    1
  0
VERTEX
  8
0
 10
-7.15103538
 20
-80.13987590
  0
VERTEX
  8
0
 10
-2.03064689
 20
-80.13987590
  0
VERTEX
  8
0
 10
-2.03064689
 20
-105.69690265
  0
VERTEX
  8
0
 10
-5.15228724
 20
-105.69690265
  0
VERTEX
  8
0
 10
-5.15228724
 20
-83.98016726
 42
0.22643804
  0
VERTEX
  8
0
 10
-7.37561382
 20
-80.58903278
 42
-0.73857465
  0
VERTEX
  8
0
 10
-7.15103538
 20
-80.13987590
  0
SEQEND
  0
POLYLINE
  8
По_умолчанию
 66
   1
 39
0.000000
 70
    1
  0
VERTEX
  8
0
 10
-11.52945143
 20
-104.68036360
 42
0.41421356
  0
VERTEX
  8
0
 10
-10.46824343
 20
-105.74157160
  0
VERTEX
  8
0
 10
-7.92028302
 20
-105.74157160
 42
0.41421356
  0
VERTEX
  8
0
 10
-6.85907502
 20
-104.68036360
  0
VERTEX
  8
0
 10
-6.85907502
 20
-89.68973939
 42
0.41421356
  0
VERTEX
  8
0
 10
-7.92028302
 20
-88.62853139
  0
VERTEX
  8
0
 10
-10.46824343
 20
-88.62853139
 42
0.41421356
  0
VERTEX
  8
0
 10
-11.52945143
 20
-89.68973939
  0
VERTEX
  8
0
 10
-11.52945143
 20
-104.68036360
  0
SEQEND
  0
POLYLINE
  8
По_умолчанию
 66
   1
 39
0.000000
 70
    1
  0
VERTEX
  8
0
 10
-11.44048363
 20
-83.68821529
 42
-0.73440383
  0
VERTEX
  8
0
 10
-6.74679418
 20
-83.66575745
  0
VERTEX
  8
0
 10
-6.79170987
 20
-86.85477133
  0
VERTEX
  8
0
 10
-11.44048363
 20
-86.85477133
  0
VERTEX
  8
0
 10
-11.44048363
 20
-83.68821529
  0
SEQEND
  0
POLYLINE
  8
По_умолчанию
 66
   1
 39
0.000000
 70
    1
  0
VERTEX
  8
0
 10
-13.30448470
 20
-104.84350457
 42
-0.42149983
  0
VERTEX
  8
0
 10
-14.38246123
 20
-105.74181834
  0
VERTEX
  8
0
 10
-34.57206320
 20
-105.74181834
 42
0.67730978
  0
VERTEX
  8
0
 10
-33.62883374
 20
-80.18479159
  0
VERTEX
  8
0
 10
-10.45233848
 20
-80.18479159
 42
-0.76603294
  0
VERTEX
  8
0
 10
-10.45233848
 20
-80.43182787
 42
0.23130253
  0
VERTEX
  8
0
 10
-13.05744842
 20
-83.71067313
  0
VERTEX
  8
0
 10
-13.05744842
 20
-85.93399971
 42
-0.35974520
  0
VERTEX
  8
0
 10
-13.61889452
 20
-86.83231348
  0
VERTEX
  8
0
 10
-14.98882302
 20
-86.76493995
 42
0.37545253
  0
VERTEX
  8
0
 10
-13.30448470
 20
-88.89843515
  0
VERTEX
  8
0
 10
-13.30448470
 20
-104.84350457
  0
SEQEND
  0
POLYLINE
  8
По_умолчанию
 66
   1
 39
0.000000
 70
    1
  0
VERTEX
  8
0
 10
-49.81202224
 20
-92.93382779
  0
VERTEX
  8
0
 10
-49.79725695
 20
-92.34988709
  0
VERTEX
  8
0
 10
-49.75343639
 20
-91.77361212
  0
VERTEX
  8
0
 10
-49.68127356
 20
-91.20571587
  0
VERTEX
  8
0
 10
-49.58148143
 20
-90.64691132
  0
VERTEX
  8
0
 10
-49.45477299
 20
-90.09791145
  0
VERTEX
  8
0
 10
-49.30186123
 20
-89.55942925
  0
VERTEX
  8
0
 10
-49.12345912
 20
-89.03217771
  0
VERTEX
  8
0
 10
-48.92027966
 20
-88.51686980
  0
VERTEX
  8
0
 10
-48.69303583
 20
-88.01421851
  0
VERTEX
  8
0
 10
-48.44244061
 20
-87.52493683
  0
VERTEX
  8
0
 10
-48.16920699
 20
-87.04973774
  0
VERTEX
  8
0
 10
-47.87404795
 20
-86.58933423
  0
VERTEX
  8
0
 10
-47.55767647
 20
-86.14443927
  0
VERTEX
  8
0
 10
-47.22080554
 20
-85.71576586
  0
VERTEX
  8
0
 10
-46.86414815
 20
-85.30402698
  0
VERTEX
  8
0
 10
-46.48841728
 20
-84.90993561
  0
VERTEX
  8
0
 10
-46.09432590
 20
-84.53420473
  0
VERTEX
  8
0
 10
-45.68258702
 20
-84.17754734
  0
VERTEX
  8
0
 10
-45.25391361
 20
-83.84067641
  0
VERTEX
  8
0
 10
-44.80901865
 20
-83.52430494
  0
VERTEX
  8
0
 10
-44.34861514
 20
-83.22914590
  0
VERTEX
  8
0
 10
-43.87341605
 20
-82.95591227
  0
VERTEX
  8
0
 10
-43.38413437
 20
-82.70531705
  0
VERTEX
  8
0
 10
-42.88148308
 20
-82.47807322
  0
VERTEX
  8
0
 10
-42.36617517
 20
-82.27489376
  0
VERTEX
  8
0
 10
-41.83892363
 20
-82.09649166
  0
VERTEX
  8
0
 10
-41.30044143
 20
-81.94357989
  0
VERTEX
  8
0
 10
-40.75144156
 20
-81.81687145
  0
VERTEX
  8
0
 10
-40.19263701
 20
-81.71707933
  0
VERTEX
  8
0
 10
-39.62474076
 20
-81.64491649
  0
VERTEX
  8
0
 10
-39.04846579
 20
-81.60109594
  0
VERTEX
  8
0
 10
-38.46452510
 20
-81.58633064
  0
VERTEX
  8
0
 10
-37.88058440
 20
-81.60109594
  0
VERTEX
  8
0
 10
-37.30430943
 20
-81.64491649
  0
VERTEX
  8
0
 10
-36.73641318
 20
-81.71707933
  0
VERTEX
  8
0
 10
-36.17760863
 20
-81.81687145
  0
VERTEX
  8
0
 10
-35.62860876
 20
-81.94357989
  0
VERTEX
  8
0
 10
-35.09012656
 20
-82.09649166
  0
VERTEX
  8
0
 10
-34.56287502
 20
-82.27489376
  0
VERTEX
  8
0
 10
-34.04756711
 20
-82.47807322
  0
VERTEX
  8
0
 10
-33.54491582
 20
-82.70531705
  0
VERTEX
  8
0
 10
-33.05563414
 20
-82.95591227
  0
VERTEX
  8
0
 10
-32.58043505
 20
-83.22914590
  0
VERTEX
  8
0
 10
-32.12003154
 20
-83.52430494
  0
VERTEX
  8
0
 10
-31.67513658
 20
-83.84067641
  0
VERTEX
  8
0
 10
-31.24646317
 20
-84.17754734
  0
VERTEX
  8
0
 10
-30.83472429
 20
-84.53420473
  0
VERTEX
  8
0
 10
-30.44063292
 20
-84.90993561
  0
VERTEX
  8
0
 10
-30.06490204
 20
-85.30402698
  0
VERTEX
  8
0
 10
-29.70824465
 20
-85.71576586
  0
VERTEX
  8
0
 10
-29.37137372
 20
-86.14443927
  0
VERTEX
  8
0
 10
-29.05500225
 20
-86.58933423
  0
VERTEX
  8
0
 10
-28.75984320
 20
-87.04973774
  0
VERTEX
  8
0
 10
-28.48660958
 20
-87.52493683
  0
VERTEX
  8
0
 10
-28.23601436
 20
-88.01421851
  0
VERTEX
  8
0
 10
-28.00877053
 20
-88.51686980
  0
VERTEX
  8
0
 10
-27.80559107
 20
-89.03217771
  0
VERTEX
  8
0
 10
-27.62718896
 20
-89.55942925
  0
VERTEX
  8
0
 10
-27.47427720
 20
-90.09791145
  0
VERTEX
  8
0
 10
-27.34756876
 20
-90.64691132
  0
VERTEX
  8
0
 10
-27.24777663
 20
-91.20571587
  0
VERTEX
  8
0
 10
-27.17561380
 20
-91.77361212
  0
VERTEX
  8
0
 10
-27.13179324
 20
-92.34988709
  0
VERTEX
  8
0
 10
-27.11702795
 20
-92.93382779
  0
VERTEX
  8
0
 10
-27.13179324
 20
-93.51776849
  0
VERTEX
  8
0
 10
-27.17561380
 20
-94.09404345
  0
VERTEX
  8
0
 10
-27.24777663
 20
-94.66193970
  0
VERTEX
  8
0
 10
-27.34756876
 20
-95.22074426
  0
VERTEX
  8
0
 10
-27.47427720
 20
-95.76974412
  0
VERTEX
  8
0
 10
-27.62718896
 20
-96.30822632
  0
VERTEX
  8
0
 10
-27.80559107
 20
-96.83547787
  0
VERTEX
  8
0
 10
-28.00877053
 20
-97.35078578
  0
VERTEX
  8
0
 10
-28.23601436
 20
-97.85343706
  0
VERTEX
  8
0
 10
-28.48660958
 20
-98.34271874
  0
VERTEX
  8
0
 10
-28.75984320
 20
-98.81791783
  0
VERTEX
  8
0
 10
-29.05500225
 20
-99.27832135
  0
VERTEX
  8
0
 10
-29.37137372
 20
-99.72321630
  0
VERTEX
  8
0
 10
-29.70824465
 20
-100.15188971
  0
VERTEX
  8
0
 10
-30.06490204
 20
-100.56362860
  0
VERTEX
  8
0
 10
-30.44063292
 20
-100.95771997
  0
VERTEX
  8
0
 10
-30.83472429
 20
-101.33345084
  0
VERTEX
  8
0
 10
-31.24646317
 20
-101.69010823
  0
VERTEX
  8
0
 10
-31.67513658
 20
-102.02697916
  0
VERTEX
  8
0
 10
-32.12003154
 20
-102.34335064
  0
VERTEX
  8
0
 10
-32.58043505
 20
-102.63850968
  0
VERTEX
  8
0
 10
-33.05563414
 20
-102.91174330
  0
VERTEX
  8
0
 10
-33.54491582
 20
-103.16233852
  0
VERTEX
  8
0
 10
-34.04756711
 20
-103.38958236
  0
VERTEX
  8
0
 10
-34.56287502
 20
-103.59276182
  0
VERTEX
  8
0
 10
-35.09012656
 20
-103.77116392
  0
VERTEX
  8
0
 10
-35.62860876
 20
-103.92407568
  0
VERTEX
  8
0
 10
-36.17760863
 20
-104.05078412
  0
VERTEX
  8
0
 10
-36.73641318
 20
-104.15057625
  0
VERTEX
  8
0
 10
-37.30430943
 20
-104.22273908
  0
VERTEX
  8
0
 10
-37.88058440
 20
-104.26655964
  0
VERTEX
  8
0
 10
-38.46452510
 20
-104.28132493
  0
VERTEX
  8
0
 10
-39.04846579
 20
-104.26655964
  0
VERTEX
  8
0
 10
-39.62474076
 20
-104.22273908
  0
VERTEX
  8
0
 10
-40.19263701
 20
-104.15057625
  0
VERTEX
  8
0
 10
-40.75144156
 20
-104.05078412
  0
VERTEX
  8
0
 10
-41.30044143
 20
-103.92407568
  0
VERTEX
  8
0
 10
-41.83892363
 20
-103.77116392
  0
VERTEX
  8
0
 10
-42.36617517
 20
-103.59276182
  0
VERTEX
  8
0
 10
-42.88148308
 20
-103.38958236
  0
VERTEX
  8
0
 10
-43.38413437
 20
-103.16233852
  0
VERTEX
  8
0
 10
-43.87341605
 20
-102.91174330
  0
VERTEX
  8
0
 10
-44.34861514
 20
-102.63850968
  0
VERTEX
  8
0
 10
-44.80901865
 20
-102.34335064
  0
VERTEX
  8
0
 10
-45.25391361
 20
-102.02697916
  0
VERTEX
  8
0
 10
-45.68258702
 20
-101.69010823
  0
VERTEX
  8
0
 10
-46.09432590
 20
-101.33345084
  0
VERTEX
  8
0
 10
-46.48841728
 20
-100.95771997
  0
VERTEX
  8
0
 10
-46.86414815
 20
-100.56362860
  0
VERTEX
  8
0
 10
-47.22080554
 20
-100.15188971
  0
VERTEX
  8
0
 10
-47.55767647
 20
-99.72321630
  0
VERTEX
  8
0
 10
-47.87404795
 20
-99.27832135
  0
VERTEX
  8
0
 10
-48.16920699
 20
-98.81791783
  0
VERTEX
  8
0
 10
-48.44244061
 20
-98.34271874
  0
VERTEX
  8
0
 10
-48.69303583
 20
-97.85343706
  0
VERTEX
  8
0
 10
-48.92027966
 20
-97.35078578
  0
VERTEX
  8
0
 10
-49.12345912
 20
-96.83547787
  0
VERTEX
  8
0
 10
-49.30186123
 20
-96.30822632
  0
VERTEX
  8
0
 10
-49.45477299
 20
-95.76974412
  0
VERTEX
  8
0
 10
-49.58148143
 20
-95.22074426
  0
VERTEX
  8
0
 10
-49.68127356
 20
-94.66193970
  0
VERTEX
  8
0
 10
-49.75343639
 20
-94.09404345
  0
VERTEX
  8
0
 10
-49.79725695
 20
-93.51776849
  0
VERTEX
  8
0
 10
-49.81202224
 20
-92.93382779
  0
SEQEND
  0
POLYLINE
  8
По_умолчанию
 66
   1
 39
0.000000
 70
    1
  0
VERTEX
  8
0
 10
-43.21833323
 20
-105.76427618
  0
VERTEX
  8
0
 10
-54.04301416
 20
-105.76427618
 42
-0.43113488
  0
VERTEX
  8
0
 10
-54.42479751
 20
-105.20283007
  0
VERTEX
  8
0
 10
-54.42479751
 20
-86.11366247
  0
VERTEX
  8
0
 10
-56.17650936
 20
-86.11366247
  0
VERTEX
  8
0
 10
-56.17650936
 20
-103.09179272
 42
-0.36150953
  0
VERTEX
  8
0
 10
-57.41169080
 20
-103.69815451
 42
-0.87282962
  0
VERTEX
  8
0
 10
-54.49217105
 20
-82.18353973
  0
VERTEX
  8
0
 10
-54.49217105
 20
-80.22970728
  0
VERTEX
  8
0
 10
-43.08358617
 20
-80.22970728
 42
-0.69081300
  0
VERTEX
  8
0
 10
-43.10604401
 20
-80.60026171
 42
0.67201596
  0
VERTEX
  8
0
 10
-43.20710431
 20
-105.30389037
 42
-0.58938569
  0
VERTEX
  8
0
 10
-43.21833323
 20
-105.76427618
  0
SEQEND
  0
POLYLINE
  8
По_умолчанию
 66
   1
 39
0.000000
 70
    1
  0
VERTEX
  8
0
 10
-69.56138453
 20
-80.20724943
  0
VERTEX
  8
0
 10
-57.90576337
 20
-80.20724943
 42
-0.75334283
  0
VERTEX
  8
0
 10
-57.90576337
 20
-80.74623769
 42
0.75690460
  0
VERTEX
  8
0
 10
-58.37737810
 20
-105.31511930
 42
-0.62027483
  0
VERTEX
  8
0
 10
-58.35492026
 20
-106.10114384
  0
VERTEX
  8
0
 10
-69.86456543
 20
-106.10114384
 42
-0.52969887
  0
VERTEX
  8
0
 10
-70.35863800
 20
-105.59584235
  0
VERTEX
  8
0
 10
-70.35863800
 20
-81.12802105
 42
-0.42714529
  0
VERTEX
  8
0
 10
-69.56138453
 20
-80.20724943
  0
SEQEND
  0
POLYLINE
  8
По_умолчанию
 66
   1
 39
0.000000
 70
    1
  0
VERTEX
  8
0
 10
-72.50336213
 20
-86.83231348
  0
VERTEX
  8
0
 10
-77.82587121
 20
-82.94710643
  0
VERTEX
  8
0
 10
-77.82587121
 20
-106.07868600
  0
VERTEX
  8
0
 10
-72.50336213
 20
-106.07868600
  0
VERTEX
  8
0
 10
-72.50336213
 20
-86.83231348
  0
SEQEND
  0
POLYLINE
  8
По_умолчанию
 66
   1
 39
0.000000
 70
    1
  0
VERTEX
  8
0
 10
-76.83772607
 20
-80.20724943
  0
VERTEX
  8
0
 10
-72.52581997
 20
-80.20724943
 42
-0.52065556
  0
VERTEX
  8
0
 10
-72.07666309
 20
-80.83606907
  0
VERTEX
  8
0
 10
-72.07666309
 20
-83.68821529
 42
-0.43420534
  0
VERTEX
  8
0
 10
-72.66056704
 20
-84.29457708
  0
VERTEX
  8
0
 10
-77.03984667
 20
-80.92590045
 42
-0.81980390
  0
VERTEX
  8
0
 10
-76.83772607
 20
-80.20724943
  0
SEQEND
  0
POLYLINE
  8
По_умолчанию
 66
   1
 39
0.000000
 70
    1
  0
VERTEX
  8
0
 10
-84.72042940
 20
-80.40937003
  0
VERTEX
  8
0
 10
-79.60004091
 20
-80.40937003
  0
VERTEX
  8
0
 10
-79.60004091
 20
-105.96639678
  0
VERTEX
  8
0
 10
-82.72168126
 20
-105.96639678
  0
VERTEX
  8
0
 10
-82.72168126
 20
-84.24966140
 42
0.22643804
  0
VERTEX
  8
0
 10
-84.94500784
 20
-80.85852691
 42
-0.73857465
  0
VERTEX
  8
0
 10
-84.72042940
 20
-80.40937003
  0
SEQEND
  0
POLYLINE
  8
По_умолчанию
 66
   1
 39
0.000000
 70
    1
  0
VERTEX
  8
0
 10
-89.27937178
 20
-83.82296235
 42
-0.72698064
  0
VERTEX
  8
0
 10
-84.58568233
 20
-83.93525158
  0
VERTEX
  8
0
 10
-84.58568233
 20
-86.98951839
  0
VERTEX
  8
0
 10
-89.27937178
 20
-86.98951839
  0
VERTEX
  8
0
 10
-89.27937178
 20
-83.82296235
  0
SEQEND
  0
POLYLINE
  8
По_умолчанию
 66
   1
 39
0.000000
 70
    1
  0
VERTEX
  8
0
 10
-89.39166100
 20
-105.04001729
 42
0.41421356
  0
VERTEX
  8
0
 10
-88.33045300
 20
-106.10122529
  0
VERTEX
  8
0
 10
-85.78249259
 20
-106.10122529
 42
0.41421356
  0
VERTEX
  8
0
 10
-84.72128459
 20
-105.04001729
  0
VERTEX
  8
0
 10
-84.72128459
 20
-90.04939308
 42
0.41421356
  0
VERTEX
  8
0
 10
-85.78249259
 20
-88.98818508
  0
VERTEX
  8
0
 10
-88.33045300
 20
-88.98818508
 42
0.41421356
  0
VERTEX
  8
0
 10
-89.39166100
 20
-90.04939308
  0
VERTEX
  8
0
 10
-89.39166100
 20
-105.04001729
  0
SEQEND
  0
POLYLINE
  8
По_умолчанию
 66
   1
 39
0.000000
 70
    1
  0
VERTEX
  8
0
 10
-46.76684661
 20
17.72578616
  0
VERTEX
  8
0
 10
-46.42341388
 20
18.60604355
  0
VERTEX
  8
0
 10
-46.06392327
 20
19.47812786
  0
VERTEX
  8
0
 10
-45.68855685
 20
20.34185703
  0
VERTEX
  8
0
 10
-45.29749669
 20
21.19704900
  0
VERTEX
  8
0
 10
-44.89092484
 20
22.04352171
  0
VERTEX
  8
0
 10
-44.46902338
 20
22.88109309
  0
VERTEX
  8
0
 10
-44.03197436
 20
23.70958110
  0
VERTEX
  8
0
 10
-43.57995985
 20
24.52880367
  0
VERTEX
  8
0
 10
-43.11316192
 20
25.33857874
  0
VERTEX
  8
0
 10
-42.63176262
 20
26.13872426
  0
VERTEX
  8
0
 10
-42.13594403
 20
26.92905815
  0
VERTEX
  8
0
 10
-41.62588821
 20
27.70939837
  0
VERTEX
  8
0
 10
-41.10177721
 20
28.47956286
  0
VERTEX
  8
0
 10
-40.56379312
 20
29.23936955
  0
VERTEX
  8
0
 10
-40.01211798
 20
29.98863638
  0
VERTEX
  8
0
 10
-39.44693387
 20
30.72718130
  0
VERTEX
  8
0
 10
-38.86842285
 20
31.45482224
  0
VERTEX
  8
0
 10
-38.27676698
 20
32.17137715
  0
VERTEX
  8
0
 10
-37.67214832
 20
32.87666397
  0
VERTEX
  8
0
 10
-37.05474895
 20
33.57050063
  0
VERTEX
  8
0
 10
-36.42475093
 20
34.25270508
  0
VERTEX
  8
0
 10
-35.78233631
 20
34.92309527
  0
VERTEX
  8
0
 10
-35.12768717
 20
35.58148912
  0
VERTEX
  8
0
 10
-34.46098556
 20
36.22770458
  0
VERTEX
  8
0
 10
-33.78241356
 20
36.86155959
  0
VERTEX
  8
0
 10
-33.09215322
 20
37.48287209
  0
VERTEX
  8
0
 10
-32.39038662
 20
38.09146002
  0
VERTEX
  8
0
 10
-31.67729581
 20
38.68714132
  0
VERTEX
  8
0
 10
-30.95306286
 20
39.26973393
  0
VERTEX
  8
0
 10
-30.21786983
 20
39.83905580
  0
VERTEX
  8
0
 10
-29.47189879
 20
40.39492486
  0
VERTEX
  8
0
 10
-28.71533181
 20
40.93715906
  0
VERTEX
  8
0
 10
-27.94835093
 20
41.46557633
  0
VERTEX
  8
0
 10
-27.17113824
 20
41.97999461
  0
VERTEX
  8
0
 10
-26.38387580
 20
42.48023185
  0
VERTEX
  8
0
 10
-25.58674566
 20
42.96610598
  0
VERTEX
  8
0
 10
-24.77992990
 20
43.43743496
  0
VERTEX
  8
0
 10
-23.96361057
 20
43.89403670
  0
VERTEX
  8
0
 10
-23.13796975
 20
44.33572917
  0
VERTEX
  8
0
 10
-22.30318949
 20
44.76233029
  0
VERTEX
  8
0
 10
-21.45945186
 20
45.17365802
  0
VERTEX
  8
0
 10
-20.60693892
 20
45.56953028
  0
VERTEX
  8
0
 10
-19.74583275
 20
45.94976502
  0
VERTEX
  8
0
 10
-18.87631539
 20
46.31418018
  0
VERTEX
  8
0
 10
-17.99856893
 20
46.66259370
  0
VERTEX
  8
0
 10
-17.11277541
 20
46.99482352
  0
VERTEX
  8
0
 10
-16.21911691
 20
47.31068758
  0
VERTEX
  8
0
 10
-15.31777549
 20
47.61000383
  0
VERTEX
  8
0
 10
-14.40893321
 20
47.89259020
  0
VERTEX
  8
0
 10
-13.49277215
 20
48.15826463
  0
VERTEX
  8
0
 10
-12.56947435
 20
48.40684506
  0
VERTEX
  8
0
 10
-11.63922189
 20
48.63814944
  0
VERTEX
  8
0
 10
-10.70219683
 20
48.85199571
  0
VERTEX
  8
0
 10
-9.75858124
 20
49.04820180
  0
VERTEX
  8
0
 10
-8.80855717
 20
49.22658565
  0
VERTEX
  8
0
 10
-7.85230670
 20
49.38696522
  0
VERTEX
  8
0
 10
-6.89001189
 20
49.52915842
  0
VERTEX
  8
0
 10
-5.92185479
 20
49.65298322
  0
VERTEX
  8
0
 10
-4.94801749
 20
49.75825754
  0
VERTEX
  8
0
 10
-3.96868203
 20
49.84479934
  0
VERTEX
  8
0
 10
-2.98403049
 20
49.91242654
  0
VERTEX
  8
0
 10
-1.99424493
 20
49.96095709
  0
VERTEX
  8
0
 10
-0.99950741
 20
49.99020893
  0
VERTEX
  8
0
 10
0.00000000
 20
50.00000000
  0
VERTEX
  8
0
 10
1.28688140
 20
49.98329998
  0
VERTEX
  8
0
 10
2.57301057
 20
49.93527168
  0
VERTEX
  8
0
 10
3.84378723
 20
49.85424061
  0
VERTEX
  8
0
 10
5.11222065
 20
49.74196508
  0
VERTEX
  8
0
 10
6.43742014
 20
49.58953122
  0
VERTEX
  8
0
 10
7.75779673
 20
49.40166198
  0
VERTEX
  8
0
 10
9.07271999
 20
49.17866644
  0
VERTEX
  8
0
 10
10.38155948
 20
48.92085366
  0
VERTEX
  8
0
 10
11.61859778
 20
48.64340964
  0
VERTEX
  8
0
 10
12.84785717
 20
48.33419087
  0
VERTEX
  8
0
 10
14.06864730
 20
47.99353372
  0
VERTEX
  8
0
 10
15.28027782
 20
47.62177453
  0
VERTEX
  8
0
 10
16.48205837
 20
47.21924964
  0
VERTEX
  8
0
 10
17.67329861
 20
46.78629540
  0
VERTEX
  8
0
 10
18.85330817
 20
46.32324816
  0
VERTEX
  8
0
 10
20.02139671
 20
45.83044427
  0
VERTEX
  8
0
 10
21.17064617
 20
45.31069980
  0
VERTEX
  8
0
 10
22.30607368
 20
44.76173480
  0
VERTEX
  8
0
 10
23.42705315
 20
44.18403432
  0
VERTEX
  8
0
 10
24.53295846
 20
43.57808338
  0
VERTEX
  8
0
 10
25.62316350
 20
42.94436703
  0
VERTEX
  8
0
 10
26.69704216
 20
42.28337031
  0
VERTEX
  8
0
 10
27.75396834
 20
41.59557824
  0
VERTEX
  8
0
 10
28.79331592
 20
40.88147588
  0
VERTEX
  8
0
 10
29.81445881
 20
40.14154826
  0
VERTEX
  8
0
 10
30.81677088
 20
39.37628041
  0
VERTEX
  8
0
 10
31.79962603
 20
38.58615738
  0
VERTEX
  8
0
 10
32.76239815
 20
37.77166420
  0
VERTEX
  8
0
 10
33.70446114
 20
36.93328590
  0
VERTEX
  8
0
 10
34.62518888
 20
36.07150754
  0
VERTEX
  8
0
 10
35.52395526
 20
35.18681414
  0
VERTEX
  8
0
 10
36.40013418
 20
34.27969074
  0
VERTEX
  8
0
 10
37.16632359
 20
33.44669711
 42
-0.06496942
  0
VERTEX
  8
0
 10
37.49515898
 20
33.29469538
 42
-0.17370056
  0
VERTEX
  8
0
 10
40.32484735
 20
30.80187467
 42
-0.05711488
  0
VERTEX
  8
0
 10
43.28928279
 20
27.47811372
 42
0.80841579
  0
VERTEX
  8
0
 10
43.60369261
 20
27.92727060
 42
0.10322279
  0
VERTEX
  8
0
 10
37.51761682
 20
35.67522687
 42
0.17835096
  0
VERTEX
  8
0
 10
35.58624222
 20
36.55108279
 42
-0.60733151
  0
VERTEX
  8
0
 10
35.58624222
 20
37.31464950
 42
-0.14285714
  0
VERTEX
  8
0
 10
36.52947167
 20
37.62905932
 42
-0.13210024
  0
VERTEX
  8
0
 10
38.55067766
 20
36.82057692
 42
-0.09827093
  0
VERTEX
  8
0
 10
41.76214938
 20
32.71079143
 42
-0.06012906
  0
VERTEX
  8
0
 10
44.29988578
 20
28.41011425
 42
0.89222371
  0
VERTEX
  8
0
 10
45.07468141
 20
28.39888533
 42
-0.20699977
  0
VERTEX
  8
0
 10
46.04036871
 20
31.27348939
 42
-0.14895803
  0
VERTEX
  8
0
 10
48.05034577
 20
33.22732184
 42
0.04861365
  0
VERTEX
  8
0
 10
50.99232337
 20
35.56293765
 42
-0.12150061
  0
VERTEX
  8
0
 10
52.33979402
 20
36.14684160
 42
0.06154998
  0
VERTEX
  8
0
 10
53.50603079
 20
36.75497970
  0
VERTEX
  8
0
 10
53.59805784
 20
36.81912459
  0
VERTEX
  8
0
 10
53.70007885
 20
36.86197382
  0
VERTEX
  8
0
 10
53.92416381
 20
36.90120782
  0
VERTEX
  8
0
 10
54.38293305
 20
36.91577594
  0
VERTEX
  8
0
 10
54.58334227
 20
36.91025405
  0
VERTEX
  8
0
 10
54.68566930
 20
36.88829286
  0
VERTEX
  8
0
 10
54.78250799
 20
36.85234930
  0
VERTEX
  8
0
 10
54.86868086
 20
36.80153676
  0
VERTEX
  8
0
 10
54.93901043
 20
36.73496859
  0
VERTEX
  8
0
 10
54.98831923
 20
36.65175816
  0
VERTEX
  8
0
 10
55.01142979
 20
36.55101882
  0
VERTEX
  8
0
 10
55.01107491
 20
36.25650439
  0
VERTEX
  8
0
 10
55.01315384
 20
36.11420910
  0
VERTEX
  8
0
 10
55.03473533
 20
35.96717884
 42
-0.34782363
  0
VERTEX
  8
0
 10
57.14577269
 20
35.29344351
 42
-0.11316958
  0
VERTEX
  8
0
 10
59.36074679
 20
32.60065678
  0
VERTEX
  8
0
 10
59.43829863
 20
32.51135150
  0
VERTEX
  8
0
 10
59.52272869
 20
32.43763268
  0
VERTEX
  8
0
 10
59.70971581
 20
32.33152405
  0
VERTEX
  8
0
 10
59.91669283
 20
32.27147004
  0
VERTEX
  8
0
 10
60.13864446
 20
32.24660982
  0
VERTEX
  8
0
 10
60.37055541
 20
32.24608255
  0
VERTEX
  8
0
 10
60.60741038
 20
32.25902741
  0
VERTEX
  8
0
 10
61.07589119
 20
32.28189013
  0
VERTEX
  8
0
 10
61.50907770
 20
32.28073123
  0
VERTEX
  8
0
 10
61.95146024
 20
32.29036877
  0
VERTEX
  8
0
 10
62.14989104
 20
32.28599241
  0
VERTEX
  8
0
 10
62.24115149
 20
32.26866130
  0
VERTEX
  8
0
 10
62.32286982
 20
32.23695931
  0
VERTEX
  8
0
 10
62.39186691
 20
32.18767978
  0
VERTEX
  8
0
 10
62.44496365
 20
32.11761601
  0
VERTEX
  8
0
 10
62.47898092
 20
32.02356132
  0
VERTEX
  8
0
 10
62.49073962
 20
31.90230903
 42
-0.10669629
  0
VERTEX
  8
0
 10
62.04158274
 20
30.57729622
 42
0.26440414
  0
VERTEX
  8
0
 10
63.36659555
 20
29.56669323
 42
-0.10125655
  0
VERTEX
  8
0
 10
63.20939064
 20
28.33151180
 42
-0.11336624
  0
VERTEX
  8
0
 10
64.08524656
 20
28.39888533
 42
-0.51314831
  0
VERTEX
  8
0
 10
64.17507794
 20
28.21922258
 42
0.09739368
  0
VERTEX
  8
0
 10
64.04033087
 20
27.52302941
 42
0.19319038
  0
VERTEX
  8
0
 10
64.80389758
 20
26.78192055
 42
-0.41929432
  0
VERTEX
  8
0
 10
64.87127111
 20
25.59165480
 42
-0.09345045
  0
VERTEX
  8
0
 10
63.52380046
 20
24.53613612
 42
0.13287739
  0
VERTEX
  8
0
 10
63.02972788
 20
24.40138906
 42
0.14222498
  0
VERTEX
  8
0
 10
61.54751016
 20
23.12129193
 42
0.21278753
  0
VERTEX
  8
0
 10
61.48013663
 20
20.96533889
 42
-0.18066420
  0
VERTEX
  8
0
 10
61.54751016
 20
19.57295254
 42
0.17584693
  0
VERTEX
  8
0
 10
61.52505232
 20
18.40514464
 42
-0.16227766
  0
VERTEX
  8
0
 10
62.31107687
 20
16.60851710
 42
0.44737624
  0
VERTEX
  8
0
 10
62.80514944
 20
16.11444453
 42
-0.34063680
  0
VERTEX
  8
0
 10
66.28611530
 20
16.49622788
 42
-0.11563775
  0
VERTEX
  8
0
 10
67.74587517
 20
19.16871135
 42
-0.10594035
  0
VERTEX
  8
0
 10
67.94799577
 20
20.92042320
 42
-0.14586464
  0
VERTEX
  8
0
 10
70.93488906
 20
23.03146056
 42
0.05158649
  0
VERTEX
  8
0
 10
70.97980474
 20
24.26664199
 42
0.11439991
  0
VERTEX
  8
0
 10
71.90057636
 20
25.00775085
 42
0.17516741
  0
VERTEX
  8
0
 10
71.90057636
 20
27.94972845
 42
0.50000000
  0
VERTEX
  8
0
 10
71.06963612
 20
27.94972845
 42
-0.20847616
  0
VERTEX
  8
0
 10
70.12640666
 20
27.25353527
 42
-0.25528095
  0
VERTEX
  8
0
 10
68.66664679
 20
27.27599312
 42
-0.18821014
  0
VERTEX
  8
0
 10
68.26240559
 20
28.71329515
 42
0.38834739
  0
VERTEX
  8
0
 10
67.52129673
 20
29.28597018
 42
-0.11127816
  0
VERTEX
  8
0
 10
66.62298296
 20
29.29719910
 42
-0.30277564
  0
VERTEX
  8
0
 10
66.98230847
 20
30.12813934
 42
0.52068025
  0
VERTEX
  8
0
 10
66.71281434
 20
30.77941682
 42
0.02412388
  0
VERTEX
  8
0
 10
65.92678979
 20
30.85801928
 42
0.05282416
  0
VERTEX
  8
0
 10
65.72466919
 20
32.66587574
  0
VERTEX
  8
0
 10
64.30982500
 20
32.66587574
  0
VERTEX
  8
0
 10
64.30982500
 20
36.37142004
 42
0.26128896
  0
VERTEX
  8
0
 10
64.04033087
 20
36.79811908
 42
-0.29838170
  0
VERTEX
  8
0
 10
63.68100537
 20
37.58414363
 42
0.08793337
  0
VERTEX
  8
0
 10
63.72592105
 20
38.34771033
 42
0.38873440
  0
VERTEX
  8
0
 10
63.14201710
 20
39.31339763
  0
VERTEX
  8
0
 10
60.49199148
 20
38.19050542
 42
-0.45425932
  0
VERTEX
  8
0
 10
60.11020813
 20
38.93161428
  0
VERTEX
  8
0
 10
62.64794453
 20
40.95282026
 42
-0.07372338
  0
VERTEX
  8
0
 10
63.09710142
 20
45.01769007
 42
0.13826599
  0
VERTEX
  8
0
 10
63.34413770
 20
47.06135390
 42
-0.36273716
  0
VERTEX
  8
0
 10
63.31045094
 20
48.04949904
 42
-0.21183177
  0
VERTEX
  8
0
 10
64.35474069
 20
48.76815006
 42
0.07780287
  0
VERTEX
  8
0
 10
68.26240559
 20
49.48680108
 42
-0.05716132
  0
VERTEX
  8
0
 10
72.77643228
 20
51.12622371
 42
-0.19663652
  0
VERTEX
  8
0
 10
74.86501180
 20
50.92410311
 42
-0.09377946
  0
VERTEX
  8
0
 10
77.71715802
 20
46.32024504
 42
0.28296286
  0
VERTEX
  8
0
 10
79.69344831
 20
45.10752145
  0
VERTEX
  8
0
 10
82.27610040
 20
45.10752145
  0
VERTEX
  8
0
 10
82.20872687
 20
44.59099103
  0
VERTEX
  8
0
 10
79.23306250
 20
44.02954493
 42
0.72737354
  0
VERTEX
  8
0
 10
78.89619484
 20
42.89542379
  0
VERTEX
  8
0
 10
79.04217083
 20
42.83927918
  0
VERTEX
  8
0
 10
79.10954436
 20
42.70453211
  0
VERTEX
  8
0
 10
79.10954436
 20
42.54732720
  0
VERTEX
  8
0
 10
79.13200221
 20
42.41258014
  0
VERTEX
  8
0
 10
79.13200221
 20
42.27783307
  0
VERTEX
  8
0
 10
79.17691789
 20
42.12062816
  0
VERTEX
  8
0
 10
79.17691789
 20
41.98588110
  0
VERTEX
  8
0
 10
79.22183358
 20
41.82867619
  0
VERTEX
  8
0
 10
79.22183358
 20
41.69392912
  0
VERTEX
  8
0
 10
79.22183358
 20
41.53672421
  0
VERTEX
  8
0
 10
79.28920711
 20
41.40197715
  0
VERTEX
  8
0
 10
79.37903849
 20
41.24477224
  0
VERTEX
  8
0
 10
79.42395418
 20
41.11002517
  0
VERTEX
  8
0
 10
79.53624340
 20
40.97527811
  0
VERTEX
  8
0
 10
79.69344831
 20
40.86298889
  0
VERTEX
  8
0
 10
79.82819538
 20
40.75069967
  0
VERTEX
  8
0
 10
79.96294244
 20
40.61595260
  0
VERTEX
  8
0
 10
80.09768951
 20
40.50366338
  0
VERTEX
  8
0
 10
80.23243657
 20
40.39137416
  0
VERTEX
  8
0
 10
80.36718364
 20
40.23416925
  0
VERTEX
  8
0
 10
80.38964148
 20
40.09942218
  0
VERTEX
  8
0
 10
80.43455717
 20
39.94221727
  0
VERTEX
  8
0
 10
80.43455717
 20
39.80747021
  0
VERTEX
  8
0
 10
80.47947286
 20
39.65026530
  0
VERTEX
  8
0
 10
80.52438855
 20
39.51551823
  0
VERTEX
  8
0
 10
80.68159346
 20
39.49306039
  0
VERTEX
  8
0
 10
80.81634052
 20
39.42568686
  0
VERTEX
  8
0
 10
80.81634052
 20
39.26848195
  0
VERTEX
  8
0
 10
80.88371406
 20
39.13373488
  0
VERTEX
  8
0
 10
80.88371406
 20
38.97652997
  0
VERTEX
  8
0
 10
80.88371406
 20
38.81932506
  0
VERTEX
  8
0
 10
80.89289450
 20
38.20221449
  0
VERTEX
  8
0
 10
80.87860677
 20
37.58415185
  0
VERTEX
  8
0
 10
80.66984260
 20
37.37196897
  0
VERTEX
  8
0
 10
80.44249093
 20
37.17043522
  0
VERTEX
  8
0
 10
80.21223668
 20
36.97158477
  0
VERTEX
  8
0
 10
79.99476476
 20
36.76745180
  0
VERTEX
  8
0
 10
79.80576006
 20
36.55007047
  0
VERTEX
  8
0
 10
79.72683446
 20
36.43392235
  0
VERTEX
  8
0
 10
79.66090750
 20
36.31147496
  0
VERTEX
  8
0
 10
79.60993980
 20
36.18173256
  0
VERTEX
  8
0
 10
79.57589198
 20
36.04369942
  0
VERTEX
  8
0
 10
79.56072465
 20
35.89637983
  0
VERTEX
  8
0
 10
79.56639841
 20
35.73877804
  0
VERTEX
  8
0
 10
79.61079995
 20
35.43240214
  0
VERTEX
  8
0
 10
79.67617441
 20
35.14938414
  0
VERTEX
  8
0
 10
79.75954439
 20
34.88218072
  0
VERTEX
  8
0
 10
79.85793247
 20
34.62324853
  0
VERTEX
  8
0
 10
80.08785332
 20
34.10002456
  0
VERTEX
  8
0
 10
80.34211771
 20
33.51936555
  0
VERTEX
  8
0
 10
80.57111391
 20
33.70829438
  0
VERTEX
  8
0
 10
80.76792347
 20
33.83835201
  0
VERTEX
  8
0
 10
80.93856196
 20
33.91232951
  0
VERTEX
  8
0
 10
81.08904498
 20
33.93301791
  0
VERTEX
  8
0
 10
81.22538812
 20
33.90320828
  0
VERTEX
  8
0
 10
81.35360697
 20
33.82569165
  0
VERTEX
  8
0
 10
81.47971711
 20
33.70325909
  0
VERTEX
  8
0
 10
81.60973415
 20
33.53870163
  0
VERTEX
  8
0
 10
81.74913756
 20
33.37087327
  0
VERTEX
  8
0
 10
81.90515089
 20
33.21970960
  0
VERTEX
  8
0
 10
82.24185525
 20
32.94729914
  0
VERTEX
  8
0
 10
82.56954308
 20
32.68131586
  0
VERTEX
  8
0
 10
82.71428575
 20
32.53818617
  0
VERTEX
  8
0
 10
82.83791023
 20
32.38160538
  0
VERTEX
  8
0
 10
83.41768170
 20
32.40829898
  0
VERTEX
  8
0
 10
83.95143128
 20
32.43812564
  0
VERTEX
  8
0
 10
84.21018431
 20
32.43626684
  0
VERTEX
  8
0
 10
84.46839562
 20
32.41365486
  0
VERTEX
  8
0
 10
84.72971980
 20
32.36311088
  0
VERTEX
  8
0
 10
84.99781142
 20
32.27745610
  0
VERTEX
  8
0
 10
85.21350558
 20
32.40534087
  0
VERTEX
  8
0
 10
85.43365850
 20
32.51093090
  0
VERTEX
  8
0
 10
85.65911779
 20
32.59377083
  0
VERTEX
  8
0
 10
85.89073107
 20
32.65340526
  0
VERTEX
  8
0
 10
86.12934597
 20
32.68937883
  0
VERTEX
  8
0
 10
86.37581011
 20
32.70123616
  0
VERTEX
  8
0
 10
86.63097111
 20
32.68852186
  0
VERTEX
  8
0
 10
86.89567658
 20
32.65078058
  0
VERTEX
  8
0
 10
87.00895451
 20
32.65963280
  0
VERTEX
  8
0
 10
87.10396736
 20
32.70901860
  0
VERTEX
  8
0
 10
87.17817889
 20
32.78726533
  0
VERTEX
  8
0
 10
87.22905289
 20
32.88270031
  0
VERTEX
  8
0
 10
87.30605065
 20
33.05184523
  0
VERTEX
  8
0
 10
87.40034639
 20
33.21086485
  0
VERTEX
  8
0
 10
87.62475639
 20
33.50716509
  0
VERTEX
  8
0
 10
87.87013216
 20
33.78887489
  0
VERTEX
  8
0
 10
88.10432296
 20
34.07326810
  0
VERTEX
  8
0
 10
88.08854720
 20
34.13010699
  0
VERTEX
  8
0
 10
88.06308049
 20
34.16960262
  0
VERTEX
  8
0
 10
87.99561288
 20
34.24063110
  0
VERTEX
  8
0
 10
87.93293244
 20
34.33374095
  0
VERTEX
  8
0
 10
87.89082505
 20
34.42878528
  0
VERTEX
  8
0
 10
87.83650107
 20
34.62155621
  0
VERTEX
  8
0
 10
87.76898433
 20
34.81270159
  0
VERTEX
  8
0
 10
87.71038597
 20
34.90571396
  0
VERTEX
  8
0
 10
87.62461818
 20
34.99597907
  0
VERTEX
  8
0
 10
87.51056044
 20
35.10453724
  0
VERTEX
  8
0
 10
87.41568544
 20
35.21473083
  0
VERTEX
  8
0
 10
87.33918150
 20
35.32635756
  0
VERTEX
  8
0
 10
87.28023694
 20
35.43921509
  0
VERTEX
  8
0
 10
87.23804010
 20
35.55310114
  0
VERTEX
  8
0
 10
87.21177929
 20
35.66781338
  0
VERTEX
  8
0
 10
87.20381908
 20
35.89890725
  0
VERTEX
  8
0
 10
87.24986289
 20
36.13087822
  0
VERTEX
  8
0
 10
87.34341733
 20
36.36210784
  0
VERTEX
  8
0
 10
87.47798898
 20
36.59097765
  0
VERTEX
  8
0
 10
87.64708445
 20
36.81586919
  0
VERTEX
  8
0
 10
87.72197429
 20
36.88525056
  0
VERTEX
  8
0
 10
87.74907038
 20
36.95607237
  0
VERTEX
  8
0
 10
87.73774933
 20
37.02607330
  0
VERTEX
  8
0
 10
87.69738775
 20
37.09299206
  0
VERTEX
  8
0
 10
87.56704947
 20
37.20853781
  0
VERTEX
  8
0
 10
87.43306840
 20
37.28461919
  0
VERTEX
  8
0
 10
87.37537537
 20
37.40127063
  0
VERTEX
  8
0
 10
87.33761957
 20
37.51148657
  0
VERTEX
  8
0
 10
87.31840509
 20
37.61547013
  0
VERTEX
  8
0
 10
87.31633604
 20
37.71342446
  0
VERTEX
  8
0
 10
87.33001652
 20
37.80555268
  0
VERTEX
  8
0
 10
87.35805063
 20
37.89205793
  0
VERTEX
  8
0
 10
87.45159616
 20
38.04901202
  0
VERTEX
  8
0
 10
87.58580542
 20
38.18591181
  0
VERTEX
  8
0
 10
87.74951125
 20
38.30438235
  0
VERTEX
  8
0
 10
87.93154644
 20
38.40604870
  0
VERTEX
  8
0
 10
88.12074382
 20
38.49253592
  0
VERTEX
  8
0
 10
88.20506800
 20
38.52964910
  0
VERTEX
  8
0
 10
88.31456715
 20
38.56024890
  0
VERTEX
  8
0
 10
88.42221403
 20
38.60336616
  0
VERTEX
  8
0
 10
88.46689685
 20
38.63556596
  0
VERTEX
  8
0
 10
88.50098139
 20
38.67803168
  0
VERTEX
  8
0
 10
88.51636318
 20
38.80903467
  0
VERTEX
  8
0
 10
88.51655695
 20
38.94577923
  0
VERTEX
  8
0
 10
88.49919590
 20
39.22720933
  0
VERTEX
  8
0
 10
88.49554881
 20
39.36725299
  0
VERTEX
  8
0
 10
88.50452917
 20
39.50375445
  0
VERTEX
  8
0
 10
88.53309085
 20
39.63439278
  0
VERTEX
  8
0
 10
88.58818771
 20
39.75684704
  0
VERTEX
  8
0
 10
88.71319198
 20
39.94780324
  0
VERTEX
  8
0
 10
88.85718699
 20
40.12163558
  0
VERTEX
  8
0
 10
89.02619082
 20
40.26628971
  0
VERTEX
  8
0
 10
89.22622153
 20
40.36971133
  0
VERTEX
  8
0
 10
89.37378908
 20
40.42339115
  0
VERTEX
  8
0
 10
89.51847495
 20
40.46511691
  0
VERTEX
  8
0
 10
89.66858862
 20
40.48082052
  0
VERTEX
  8
0
 10
89.83243953
 20
40.45643391
  0
VERTEX
  8
0
 10
89.95683431
 20
40.38552701
  0
VERTEX
  8
0
 10
90.10189434
 20
40.32945105
  0
VERTEX
  8
0
 10
90.24235927
 20
40.26505546
  0
VERTEX
  8
0
 10
90.30297471
 20
40.22250324
  0
VERTEX
  8
0
 10
90.35296875
 20
40.16918964
  0
VERTEX
  8
0
 10
90.49031769
 20
40.09431219
  0
VERTEX
  8
0
 10
90.63672260
 20
40.04670316
  0
VERTEX
  8
0
 10
90.78747833
 20
40.02668969
  0
VERTEX
  8
0
 10
90.93787970
 20
40.03459891
  0
VERTEX
  8
0
 10
91.08322154
 20
40.07075794
  0
VERTEX
  8
0
 10
91.21879868
 20
40.13549391
  0
VERTEX
  8
0
 10
91.33990595
 20
40.22913395
  0
VERTEX
  8
0
 10
91.44183819
 20
40.35200519
  0
VERTEX
  8
0
 10
91.62304505
 20
40.38736603
  0
VERTEX
  8
0
 10
91.71084509
 20
40.42754328
  0
VERTEX
  8
0
 10
91.78377359
 20
40.48393854
  0
VERTEX
  8
0
 10
91.93369503
 20
40.60040234
  0
VERTEX
  8
0
 10
92.11338659
 20
40.67830704
  0
VERTEX
  8
0
 10
92.30556636
 20
40.71424615
  0
VERTEX
  8
0
 10
92.49295244
 20
40.70481319
  0
VERTEX
  8
0
 10
92.65826293
 20
40.64660167
  0
VERTEX
  8
0
 10
92.72723924
 20
40.59813942
  0
VERTEX
  8
0
 10
92.78421594
 20
40.53620510
  0
VERTEX
  8
0
 10
92.82703280
 20
40.46037290
  0
VERTEX
  8
0
 10
92.85352957
 20
40.37021700
  0
VERTEX
  8
0
 10
92.86154602
 20
40.26531160
  0
VERTEX
  8
0
 10
92.84892192
 20
40.14523089
  0
VERTEX
  8
0
 10
92.83786107
 20
39.99443977
  0
VERTEX
  8
0
 10
92.86052886
 20
39.86888625
  0
VERTEX
  8
0
 10
92.91031719
 20
39.77064402
  0
VERTEX
  8
0
 10
92.98061798
 20
39.70178678
  0
VERTEX
  8
0
 10
93.06482317
 20
39.66438823
  0
VERTEX
  8
0
 10
93.15632466
 20
39.66052207
  0
VERTEX
  8
0
 10
93.24851437
 20
39.69226198
  0
VERTEX
  8
0
 10
93.33478424
 20
39.76168167
  0
VERTEX
  8
0
 10
93.44646944
 20
39.76667726
  0
VERTEX
  8
0
 10
93.55143158
 20
39.79164549
  0
VERTEX
  8
0
 10
93.65508955
 20
39.81521558
  0
VERTEX
  8
0
 10
93.76286227
 20
39.81601673
  0
VERTEX
  8
0
 10
93.89850448
 20
39.79003389
  0
VERTEX
  8
0
 10
94.02552854
 20
39.74889849
  0
VERTEX
  8
0
 10
94.13528931
 20
39.68260740
  0
VERTEX
  8
0
 10
94.21914164
 20
39.58115746
  0
VERTEX
  8
0
 10
94.24515182
 20
39.34423490
  0
VERTEX
  8
0
 10
94.28090658
 20
39.11697991
  0
VERTEX
  8
0
 10
94.31783561
 20
39.02696815
  0
VERTEX
  8
0
 10
94.37567770
 20
38.96336177
  0
VERTEX
  8
0
 10
94.46059182
 20
38.93415693
  0
VERTEX
  8
0
 10
94.57873696
 20
38.94734978
  0
VERTEX
  8
0
 10
94.71004363
 20
38.97209526
  0
VERTEX
  8
0
 10
94.81433434
 20
38.97038704
  0
VERTEX
  8
0
 10
94.89943614
 20
38.94810087
  0
VERTEX
  8
0
 10
94.97317609
 20
38.91111249
  0
VERTEX
  8
0
 10
95.11787859
 20
38.81653214
  0
VERTEX
  8
0
 10
95.20449525
 20
38.77069165
  0
VERTEX
  8
0
 10
95.31105824
 20
38.73365196
  0
VERTEX
  8
0
 10
95.37907101
 20
38.69995654
  0
VERTEX
  8
0
 10
95.41089500
 20
38.64796574
  0
VERTEX
  8
0
 10
95.41739930
 20
38.58200435
  0
VERTEX
  8
0
 10
95.40945303
 20
38.50639712
  0
VERTEX
  8
0
 10
95.39368516
 20
38.34354423
  0
VERTEX
  8
0
 10
95.40760178
 20
38.26494812
  0
VERTEX
  8
0
 10
95.45054424
 20
38.19400524
  0
VERTEX
  8
0
 10
95.68529466
 20
38.26255614
  0
VERTEX
  8
0
 10
95.89354321
 20
38.33467010
  0
VERTEX
  8
0
 10
96.11258788
 20
38.39062684
  0
VERTEX
  8
0
 10
96.37972661
 20
38.41070604
  0
VERTEX
  8
0
 10
96.53011786
 20
38.38988313
  0
VERTEX
  8
0
 10
96.64547201
 20
38.33633347
  0
VERTEX
  8
0
 10
96.72747488
 20
38.25605633
  0
VERTEX
  8
0
 10
96.77781224
 20
38.15505097
  0
VERTEX
  8
0
 10
96.79816989
 20
38.03931666
  0
VERTEX
  8
0
 10
96.79023363
 20
37.91485265
  0
VERTEX
  8
0
 10
96.75568926
 20
37.78765822
  0
VERTEX
  8
0
 10
96.69622256
 20
37.66373263
  0
VERTEX
  8
0
 10
96.64473464
 20
37.54862611
  0
VERTEX
  8
0
 10
96.62564509
 20
37.43647239
  0
VERTEX
  8
0
 10
96.63390282
 20
37.32623472
  0
VERTEX
  8
0
 10
96.66445671
 20
37.21687630
  0
VERTEX
  8
0
 10
96.77224855
 20
36.99665019
  0
VERTEX
  8
0
 10
96.90861176
 20
36.76749988
  0
VERTEX
  8
0
 10
96.96438496
 20
36.65254322
  0
VERTEX
  8
0
 10
96.99833794
 20
36.53973740
  0
VERTEX
  8
0
 10
97.01250149
 20
36.42896825
  0
VERTEX
  8
0
 10
97.00890637
 20
36.32012161
  0
VERTEX
  8
0
 10
96.95656319
 20
36.10773921
  0
VERTEX
  8
0
 10
96.85755456
 20
35.90167691
  0
VERTEX
  8
0
 10
96.72812663
 20
35.70102143
  0
VERTEX
  8
0
 10
96.58452555
 20
35.50485949
  0
VERTEX
  8
0
 10
96.44299747
 20
35.31227780
  0
VERTEX
  8
0
 10
96.31978854
 20
35.12236307
  0
VERTEX
  8
0
 10
96.42497228
 20
34.94492166
  0
VERTEX
  8
0
 10
96.54996044
 20
34.80415905
  0
VERTEX
  8
0
 10
96.68909508
 20
34.68892143
  0
VERTEX
  8
0
 10
96.83671827
 20
34.58805497
  0
VERTEX
  8
0
 10
97.13479861
 20
34.38482031
  0
VERTEX
  8
0
 10
97.27393990
 20
34.26014448
  0
VERTEX
  8
0
 10
97.39893804
 20
34.10522456
  0
VERTEX
  8
0
 10
97.51031514
 20
34.18821049
  0
VERTEX
  8
0
 10
97.63661837
 20
34.24417339
  0
VERTEX
  8
0
 10
97.77224232
 20
34.27400033
  0
VERTEX
  8
0
 10
97.91158160
 20
34.27857839
  0
VERTEX
  8
0
 10
98.04903078
 20
34.25879463
  0
VERTEX
  8
0
 10
98.17898447
 20
34.21553612
  0
VERTEX
  8
0
 10
98.29583725
 20
34.14968994
  0
VERTEX
  8
0
 10
98.39398372
 20
34.06214314
  0
VERTEX
  8
0
 10
98.57874759
 20
33.87796536
  0
VERTEX
  8
0
 10
98.78401514
 20
33.70983080
  0
VERTEX
  8
0
 10
99.22496681
 20
33.39977245
  0
VERTEX
  8
0
 10
99.65464984
 20
33.08813043
  0
VERTEX
  8
0
 10
99.84583160
 20
32.91801627
  0
VERTEX
  8
0
 10
100.01087536
 20
32.73106705
  0
VERTEX
  8
0
 10
100.28310809
 20
32.40929359
  0
VERTEX
  8
0
 10
100.44374512
 20
32.25177006
  0
VERTEX
  8
0
 10
100.61275734
 20
32.11371578
  0
VERTEX
  8
0
 10
100.78416577
 20
32.00805111
  0
VERTEX
  8
0
 10
100.95199145
 20
31.94769640
  0
VERTEX
  8
0
 10
101.03269235
 20
31.93854789
  0
VERTEX
  8
0
 10
101.11025545
 20
31.94557200
  0
VERTEX
  8
0
 10
101.18393338
 20
31.97038377
  0
VERTEX
  8
0
 10
101.25297879
 20
32.01459825
 42
0.31194997
  0
VERTEX
  8
0
 10
11.69109594
 20
108.10177455
  0
VERTEX
  8
0
 10
7.69359967
 20
102.48731349
  0
VERTEX
  8
0
 10
13.28560288
 20
102.49854241
  0
VERTEX
  8
0
 10
13.28560288
 20
100.12923985
  0
VERTEX
  8
0
 10
3.38169357
 20
100.12923985
  0
VERTEX
  8
0
 10
3.33677788
 20
100.78051733
  0
VERTEX
  8
0
 10
7.78343104
 20
107.31575000
 42
-0.21692362
  0
VERTEX
  8
0
 10
5.11094758
 20
108.75305204
  0
VERTEX
  8
0
 10
0.21513753
 20
108.75305204
  0
VERTEX
  8
0
 10
0.21513753
 20
100.24152907
  0
VERTEX
  8
0
 10
-2.05310474
 20
100.15169769
  0
VERTEX
  8
0
 10
-2.05310474
 20
108.55093144
 42
0.39385848
  0
VERTEX
  8
0
 10
-105.04477844
 20
8.70335593
 42
-0.21068045
  0
VERTEX
  8
0
 10
-102.57441557
 20
6.50248719
 42
0.50740349
  0
VERTEX
  8
0
 10
-101.65364396
 20
6.50248719
 42
-0.05079453
  0
VERTEX
  8
0
 10
-101.18202923
 20
8.41140395
 42
-0.16459702
  0
VERTEX
  8
0
 10
-98.53200361
 20
11.17371880
 42
0.11323053
  0
VERTEX
  8
0
 10
-96.93749667
 20
12.76822574
 42
-0.09520359
  0
VERTEX
  8
0
 10
-95.52265248
 20
14.83434741
 42
-0.13786555
  0
VERTEX
  8
0
 10
-93.29932590
 20
16.74326417
 42
0.22323211
  0
VERTEX
  8
0
 10
-92.73787979
 20
17.55174656
 42
-0.32332767
  0
VERTEX
  8
0
 10
-91.86202387
 20
19.39328979
 42
-0.17321375
  0
VERTEX
  8
0
 10
-90.85142088
 20
19.86490452
 42
0.09840357
  0
VERTEX
  8
0
 10
-89.45903453
 20
20.85304967
 42
-0.12806173
  0
VERTEX
  8
0
 10
-87.88698544
 20
21.90856834
 42
-0.15111938
  0
VERTEX
  8
0
 10
-86.67426185
 20
22.53738798
  0
VERTEX
  8
0
 10
-84.96746568
 20
22.89671349
 42
-0.18929954
  0
VERTEX
  8
0
 10
-82.94625970
 20
25.05266654
 42
-0.06974666
  0
VERTEX
  8
0
 10
-81.68862042
 20
25.41199205
 42
0.13504595
  0
VERTEX
  8
0
 10
-79.10596834
 20
27.41074018
 42
0.48677398
  0
VERTEX
  8
0
 10
-79.46529384
 20
28.46625886
 42
-0.21913001
  0
VERTEX
  8
0
 10
-80.49835468
 20
28.48871671
 42
-0.38103997
  0
VERTEX
  8
0
 10
-81.36298168
 20
30.09445257
 42
0.25406174
  0
VERTEX
  8
0
 10
-80.17271594
 20
29.74635599
 42
0.29624712
  0
VERTEX
  8
0
 10
-79.22948648
 20
30.34148886
 42
0.09082698
  0
VERTEX
  8
0
 10
-78.69049822
 20
32.31777915
 42
-0.10065024
  0
VERTEX
  8
0
 10
-80.06042672
 20
31.35209185
 42
-0.38927004
  0
VERTEX
  8
0
 10
-81.10471647
 20
32.08197179
 42
0.22824739
  0
VERTEX
  8
0
 10
-79.55512522
 20
32.46375514
 42
-0.07197477
  0
VERTEX
  8
0
 10
-78.65681145
 20
34.12563561
 42
-0.09258997
  0
VERTEX
  8
0
 10
-77.42163002
 20
38.30279464
 42
-0.20148577
  0
VERTEX
  8
0
 10
-81.68862042
 20
41.67147128
 42
-0.44621256
  0
VERTEX
  8
0
 10
-80.52081252
 20
44.59099103
 42
-0.08148754
  0
VERTEX
  8
0
 10
-76.36611134
 20
44.65836456
 42
0.19523383
  0
VERTEX
  8
0
 10
-74.74914655
 20
44.61344888
 42
-0.03823232
  0
VERTEX
  8
0
 10
-72.75039842
 20
47.73508923
 42
-0.39102683
  0
VERTEX
  8
0
 10
-71.58259051
 20
48.04949904
 42
0.04839386
  0
VERTEX
  8
0
 10
-69.15714334
 20
47.57788432
 42
-0.05341563
  0
VERTEX
  8
0
 10
-64.37362251
 20
46.11812444
 42
0.06437094
  0
VERTEX
  8
0
 10
-61.40918707
 20
45.89354600
 42
-0.25491894
  0
VERTEX
  8
0
 10
-60.08417426
 20
44.99523223
 42
-0.14954701
  0
VERTEX
  8
0
 10
-60.03925857
 20
43.80496648
 42
0.07313056
  0
VERTEX
  8
0
 10
-59.97188504
 20
40.45874769
 42
-0.13702489
  0
VERTEX
  8
0
 10
-59.79222229
 20
39.33585548
 42
0.35279908
  0
VERTEX
  8
0
 10
-58.48966732
 20
37.69643285
 42
-0.15390175
  0
VERTEX
  8
0
 10
-53.66123081
 20
33.31715322
 42
-0.07174201
  0
VERTEX
  8
0
 10
-59.69116199
 20
33.78876795
 42
0.35682351
  0
VERTEX
  8
0
 10
-60.83651204
 20
33.79999687
 42
-0.10859421
  0
VERTEX
  8
0
 10
-61.97063318
 20
32.21671885
 42
0.32435213
  0
VERTEX
  8
0
 10
-62.39733222
 20
30.64466976
 42
-0.25478437
  0
VERTEX
  8
0
 10
-62.62191066
 20
28.66837946
 42
0.07140725
  0
VERTEX
  8
0
 10
-64.53082742
 20
25.95098031
 42
0.53518376
  0
VERTEX
  8
0
 10
-64.26133329
 20
24.73825672
 42
-0.11165809
  0
VERTEX
  8
0
 10
-60.30875270
 20
23.41324391
 42
0.52157743
  0
VERTEX
  8
0
 10
-59.32060756
 20
22.98654487
 42
-0.43809199
  0
VERTEX
  8
0
 10
-56.80532900
 20
19.30345841
 42
0.72075922
  0
VERTEX
  8
0
 10
-56.31125643
 20
18.85430153
  0
VERTEX
  8
0
 10
-55.45785835
 20
19.39328979
  0
VERTEX
  8
0
 10
-54.22267691
 20
18.58480740
  0
VERTEX
  8
0
 10
-52.94257979
 20
19.37083195
  0
VERTEX
  8
0
 10
-50.80908459
 20
18.04581913
  0
VERTEX
  8
0
 10
-49.66373453
 20
18.74201231
  0
VERTEX
  8
0
 10
-48.45101094
 20
17.64157794
  0
VERTEX
  8
0
 10
-46.76684661
 20
17.72578616
  0
SEQEND
  0
POLYLINE
  8
По_умолчанию
 66
   1
 39
0.000000
 70
    1
  0
VERTEX
  8
0
 10
43.90765206
 20
23.93814399
  0
VERTEX
  8
0
 10
44.57339335
 20
22.67974827
  0
VERTEX
  8
0
 10
45.15574549
 20
21.49691376
  0
VERTEX
  8
0
 10
45.70773651
 20
20.29960932
  0
VERTEX
  8
0
 10
46.20741225
 20
19.13542808
  0
VERTEX
  8
0
 10
46.67740093
 20
17.95910993
  0
VERTEX
  8
0
 10
47.11737606
 20
16.77135764
  0
VERTEX
  8
0
 10
47.52701116
 20
15.57287399
  0
VERTEX
  8
0
 10
47.90597976
 20
14.36436175
  0
VERTEX
  8
0
 10
48.25395539
 20
13.14652369
  0
VERTEX
  8
0
 10
48.57061157
 20
11.92006258
  0
VERTEX
  8
0
 10
48.85562182
 20
10.68568119
  0
VERTEX
  8
0
 10
49.12140341
 20
9.37988242
  0
VERTEX
  8
0
 10
49.35242775
 20
8.06772871
  0
VERTEX
  8
0
 10
49.54836410
 20
6.74990117
  0
VERTEX
  8
0
 10
49.70888175
 20
5.42708090
  0
VERTEX
  8
0
 10
49.82927742
 20
4.16099431
  0
VERTEX
  8
0
 10
49.91782095
 20
2.89231153
  0
VERTEX
  8
0
 10
49.97465904
 20
1.61191535
  0
VERTEX
  8
0
 10
50.00000000
 20
0.00000000
  0
VERTEX
  8
0
 10
49.98366963
 20
-1.29052248
  0
VERTEX
  8
0
 10
49.93494031
 20
-2.57299337
  0
VERTEX
  8
0
 10
49.85420475
 20
-3.84701996
  0
VERTEX
  8
0
 10
49.74185564
 20
-5.11220955
  0
VERTEX
  8
0
 10
49.59828568
 20
-6.36816944
  0
VERTEX
  8
0
 10
49.42388757
 20
-7.61450694
  0
VERTEX
  8
0
 10
49.21905402
 20
-8.85082935
  0
VERTEX
  8
0
 10
48.98417771
 20
-10.07674397
  0
VERTEX
  8
0
 10
48.71965135
 20
-11.29185809
  0
VERTEX
  8
0
 10
48.42586764
 20
-12.49577902
  0
VERTEX
  8
0
 10
48.10321928
 20
-13.68811406
  0
VERTEX
  8
0
 10
47.75209896
 20
-14.86847051
  0
VERTEX
  8
0
 10
47.37289939
 20
-16.03645568
  0
VERTEX
  8
0
 10
46.96601327
 20
-17.19167685
  0
VERTEX
  8
0
 10
46.53183329
 20
-18.33374134
  0
VERTEX
  8
0
 10
46.07075215
 20
-19.46225644
  0
VERTEX
  8
0
 10
45.58316255
 20
-20.57682946
  0
VERTEX
  8
0
 10
45.06945719
 20
-21.67706769
  0
VERTEX
  8
0
 10
44.53002878
 20
-22.76257844
  0
VERTEX
  8
0
 10
43.96527000
 20
-23.83296901
  0
VERTEX
  8
0
 10
43.37557357
 20
-24.88784669
  0
VERTEX
  8
0
 10
42.76133217
 20
-25.92681879
  0
VERTEX
  8
0
 10
42.12293850
 20
-26.94949262
  0
VERTEX
  8
0
 10
41.46078528
 20
-27.95547546
  0
VERTEX
  8
0
 10
40.77526518
 20
-28.94437463
  0
VERTEX
  8
0
 10
40.06677093
 20
-29.91579741
  0
VERTEX
  8
0
 10
39.33569520
 20
-30.86935112
  0
VERTEX
  8
0
 10
38.58243071
 20
-31.80464306
  0
VERTEX
  8
0
 10
37.80737015
 20
-32.72128052
  0
VERTEX
  8
0
 10
37.01090623
 20
-33.61887081
  0
VERTEX
  8
0
 10
36.19343163
 20
-34.49702122
  0
VERTEX
  8
0
 10
35.35533906
 20
-35.35533906
  0
VERTEX
  8
0
 10
34.49702122
 20
-36.19343163
  0
VERTEX
  8
0
 10
33.61887081
 20
-37.01090623
  0
VERTEX
  8
0
 10
32.72128052
 20
-37.80737015
  0
VERTEX
  8
0
 10
31.80464306
 20
-38.58243071
  0
VERTEX
  8
0
 10
30.86935112
 20
-39.33569520
  0
VERTEX
  8
0
 10
29.91579741
 20
-40.06677093
  0
VERTEX
  8
0
 10
28.94437463
 20
-40.77526518
  0
VERTEX
  8
0
 10
27.95547546
 20
-41.46078528
  0
VERTEX
  8
0
 10
26.94949262
 20
-42.12293850
  0
VERTEX
  8
0
 10
25.92681879
 20
-42.76133217
  0
VERTEX
  8
0
 10
24.88784669
 20
-43.37557357
  0
VERTEX
  8
0
 10
23.83296901
 20
-43.96527000
  0
VERTEX
  8
0
 10
22.76257844
 20
-44.53002878
  0
VERTEX
  8
0
 10
21.67706769
 20
-45.06945719
  0
VERTEX
  8
0
 10
20.57682946
 20
-45.58316255
  0
VERTEX
  8
0
 10
19.46225644
 20
-46.07075215
  0
VERTEX
  8
0
 10
18.33374134
 20
-46.53183329
  0
VERTEX
  8
0
 10
17.19167685
 20
-46.96601327
  0
VERTEX
  8
0
 10
16.03645568
 20
-47.37289939
  0
VERTEX
  8
0
 10
14.86847051
 20
-47.75209896
  0
VERTEX
  8
0
 10
13.68811406
 20
-48.10321928
  0
VERTEX
  8
0
 10
12.49577902
 20
-48.42586764
  0
VERTEX
  8
0
 10
11.29185809
 20
-48.71965135
  0
VERTEX
  8
0
 10
10.07674397
 20
-48.98417771
  0
VERTEX
  8
0
 10
8.85082935
 20
-49.21905402
  0
VERTEX
  8
0
 10
7.61450694
 20
-49.42388757
  0
VERTEX
  8
0
 10
6.36816944
 20
-49.59828568
  0
VERTEX
  8
0
 10
5.11220955
 20
-49.74185564
  0
VERTEX
  8
0
 10
3.84701996
 20
-49.85420475
  0
VERTEX
  8
0
 10
2.57299337
 20
-49.93494031
  0
VERTEX
  8
0
 10
1.29052248
 20
-49.98366963
  0
VERTEX
  8
0
 10
0.00000000
 20
-50.00000000
  0
VERTEX
  8
0
 10
-1.69909575
 20
-49.97167389
  0
VERTEX
  8
0
 10
-3.38398756
 20
-49.88729807
  0
VERTEX
  8
0
 10
-5.05377371
 20
-49.74777631
  0
VERTEX
  8
0
 10
-6.70755246
 20
-49.55401236
  0
VERTEX
  8
0
 10
-8.34442207
 20
-49.30691000
  0
VERTEX
  8
0
 10
-9.96348080
 20
-49.00737297
  0
VERTEX
  8
0
 10
-11.56382692
 20
-48.65630505
  0
VERTEX
  8
0
 10
-13.14455870
 20
-48.25461000
  0
VERTEX
  8
0
 10
-14.70477440
 20
-47.80319158
  0
VERTEX
  8
0
 10
-16.24357228
 20
-47.30295355
  0
VERTEX
  8
0
 10
-17.76005061
 20
-46.75479967
  0
VERTEX
  8
0
 10
-19.25330765
 20
-46.15963372
  0
VERTEX
  8
0
 10
-20.72244166
 20
-45.51835945
  0
VERTEX
  8
0
 10
-22.16655092
 20
-44.83188062
  0
VERTEX
  8
0
 10
-23.58473368
 20
-44.10110100
  0
VERTEX
  8
0
 10
-24.97608821
 20
-43.32692435
  0
VERTEX
  8
0
 10
-26.33971278
 20
-42.51025443
  0
VERTEX
  8
0
 10
-27.67470564
 20
-41.65199500
  0
VERTEX
  8
0
 10
-28.98016507
 20
-40.75304984
  0
VERTEX
  8
0
 10
-30.25518932
 20
-39.81432269
  0
VERTEX
  8
0
 10
-31.49887666
 20
-38.83671733
  0
VERTEX
  8
0
 10
-32.71032536
 20
-37.82113752
  0
VERTEX
  8
0
 10
-33.88863368
 20
-36.76848701
  0
VERTEX
  8
0
 10
-35.03289989
 20
-35.67966958
  0
VERTEX
  8
0
 10
-36.14222224
 20
-34.55558898
  0
VERTEX
  8
0
 10
-37.21569900
 20
-33.39714898
  0
VERTEX
  8
0
 10
-38.25242845
 20
-32.20525334
  0
VERTEX
  8
0
 10
-39.25150883
 20
-30.98080582
  0
VERTEX
  8
0
 10
-40.21203842
 20
-29.72471019
  0
VERTEX
  8
0
 10
-41.13311549
 20
-28.43787020
  0
VERTEX
  8
0
 10
-42.01383828
 20
-27.12118963
  0
VERTEX
  8
0
 10
-42.85330508
 20
-25.77557223
 42
-0.05000547
  0
VERTEX
  8
0
 10
-45.39674413
 20
-30.28346168
 42
0.03116354
  0
VERTEX
  8
0
 10
-49.50652962
 20
-44.83614475
 42
0.08524083
  0
VERTEX
  8
0
 10
-55.43540050
 20
-43.39884272
 42
0.45023878
  0
VERTEX
  8
0
 10
-55.99684661
 20
-45.91412127
 42
0.11416650
  0
VERTEX
  8
0
 10
-51.39298854
 20
-47.89041156
 42
0.00984841
  0
VERTEX
  8
0
 10
-49.01245705
 20
-48.04761647
 42
-0.15698854
  0
VERTEX
  8
0
 10
-45.30691275
 20
-49.64212342
 42
-0.40578224
  0
VERTEX
  8
0
 10
-45.93573239
 20
-51.34891958
 42
-0.08448512
  0
VERTEX
  8
0
 10
-55.41294266
 20
-51.43875096
 42
-0.06028961
  0
VERTEX
  8
0
 10
-60.53333115
 20
-49.77687048
 42
0.69248411
  0
VERTEX
  8
0
 10
-61.65622336
 20
-50.54043719
  0
VERTEX
  8
0
 10
-61.65622336
 20
-52.38198041
  0
VERTEX
  8
0
 10
-46.83404616
 20
-55.70574136
  0
VERTEX
  8
0
 10
-49.57390316
 20
-77.33264537
  0
VERTEX
  8
0
 10
-4.20905778
 20
-77.33264537
 42
-0.27723957
  0
VERTEX
  8
0
 10
-6.36501083
 20
-69.71943617
  0
VERTEX
  8
0
 10
0.46217382
 20
-60.39943081
  0
VERTEX
  8
0
 10
2.37109058
 20
-61.76935931
  0
VERTEX
  8
0
 10
0.64183657
 20
-64.10497511
 42
0.40567929
  0
VERTEX
  8
0
 10
0.82149933
 20
-65.18295163
 42
-0.65817287
  0
VERTEX
  8
0
 10
4.54950147
 20
-77.53476597
  0
VERTEX
  8
0
 10
7.69359967
 20
-77.48985028
 42
0.22869779
  0
VERTEX
  8
0
 10
8.70420266
 20
-76.99577770
 42
-0.35588393
  0
VERTEX
  8
0
 10
10.22010714
 20
-75.04194526
 42
0.13435721
  0
VERTEX
  8
0
 10
11.19702337
 20
-74.66016190
 42
0.06888416
  0
VERTEX
  8
0
 10
16.26126724
 20
-70.19105090
  0
VERTEX
  8
0
 10
16.76656874
 20
-70.19105090
 42
0.13348622
  0
VERTEX
  8
0
 10
21.16830621
 20
-66.74377181
 42
-0.08497716
  0
VERTEX
  8
0
 10
22.56069256
 20
-64.23972217
 42
-0.01835046
  0
VERTEX
  8
0
 10
27.41158691
 20
-58.08627285
 42
-0.04735322
  0
VERTEX
  8
0
 10
34.77775982
 20
-49.10313515
 42
0.05718939
  0
VERTEX
  8
0
 10
38.99983454
 20
-44.25224080
 42
-0.00793601
  0
VERTEX
  8
0
 10
42.81766806
 20
-38.86235818
  0
VERTEX
  8
0
 10
41.80706507
 20
-38.70515327
 42
-0.05673051
  0
VERTEX
  8
0
 10
42.99733082
 20
-36.48182669
 42
0.04023044
  0
VERTEX
  8
0
 10
45.51260937
 20
-31.67584802
 42
0.09560919
  0
VERTEX
  8
0
 10
45.51260937
 20
-30.44066659
 42
0.10212646
  0
VERTEX
  8
0
 10
48.07280362
 20
-27.38639977
 42
-0.03566885
  0
VERTEX
  8
0
 10
48.11771930
 20
-26.51054384
 42
-0.20642744
  0
VERTEX
  8
0
 10
50.58808217
 20
-23.18678290
 42
-0.30915914
  0
VERTEX
  8
0
 10
55.41651868
 20
-14.49559717
 42
0.15924713
  0
VERTEX
  8
0
 10
55.59618144
 20
-13.08075299
 42
0.17297628
  0
VERTEX
  8
0
 10
57.39280898
 20
-11.84557155
 42
0.07947070
  0
VERTEX
  8
0
 10
57.72967664
 20
-8.11756941
 42
0.52647011
  0
VERTEX
  8
0
 10
56.44957952
 20
-7.15188211
 42
-0.48492213
  0
VERTEX
  8
0
 10
55.75338635
 20
-6.27602618
 42
0.38682190
  0
VERTEX
  8
0
 10
55.19194024
 20
-5.66966439
 42
-0.46101565
  0
VERTEX
  8
0
 10
54.76524120
 20
-4.68151924
 42
0.55760662
  0
VERTEX
  8
0
 10
54.36100000
 20
-4.14253098
 42
-0.48555108
  0
VERTEX
  8
0
 10
53.97921665
 20
-2.90734954
  0
VERTEX
  8
0
 10
54.12779566
 20
-2.63494142
  0
VERTEX
  8
0
 10
54.15990695
 20
-2.50254581
  0
VERTEX
  8
0
 10
54.15890229
 20
-2.40049472
  0
VERTEX
  8
0
 10
54.13027859
 20
-2.32301255
  0
VERTEX
  8
0
 10
54.07953279
 20
-2.26432373
  0
VERTEX
  8
0
 10
53.93366253
 20
-2.18022374
  0
VERTEX
  8
0
 10
53.76526686
 20
-2.10199000
  0
VERTEX
  8
0
 10
53.64677607
 20
-2.00720646
  0
VERTEX
  8
0
 10
53.56288066
 20
-1.87924876
  0
VERTEX
  8
0
 10
53.51544466
 20
-1.72979793
  0
VERTEX
  8
0
 10
53.50633210
 20
-1.57053498
  0
VERTEX
  8
0
 10
53.53740701
 20
-1.41314093
  0
VERTEX
  8
0
 10
53.61053343
 20
-1.26929679
  0
VERTEX
  8
0
 10
53.72757539
 20
-1.15068359
  0
VERTEX
  8
0
 10
53.80314720
 20
-1.10448891
  0
VERTEX
  8
0
 10
53.89039692
 20
-1.06898234
  0
VERTEX
  8
0
 10
54.02526049
 20
-1.00715814
  0
VERTEX
  8
0
 10
54.11005856
 20
-0.92750456
  0
VERTEX
  8
0
 10
54.15047387
 20
-0.83414717
  0
VERTEX
  8
0
 10
54.15218919
 20
-0.73121152
  0
VERTEX
  8
0
 10
54.12088725
 20
-0.62282318
  0
VERTEX
  8
0
 10
54.06225081
 20
-0.51310771
  0
VERTEX
  8
0
 10
53.98196261
 20
-0.40619066
  0
VERTEX
  8
0
 10
53.88570541
 20
-0.30619759
  0
VERTEX
  8
0
 10
53.77414432
 20
-0.22389353
  0
VERTEX
  8
0
 10
53.66779787
 20
-0.16224001
  0
VERTEX
  8
0
 10
53.57444038
 20
-0.08791442
  0
VERTEX
  8
0
 10
53.50184616
 20
0.03240584
  0
VERTEX
  8
0
 10
53.51354452
 20
0.13941955
  0
VERTEX
  8
0
 10
53.55813638
 20
0.23196358
  0
VERTEX
  8
0
 10
53.62788565
 20
0.31300211
  0
VERTEX
  8
0
 10
53.71505628
 20
0.38549932
  0
VERTEX
  8
0
 10
53.91071726
 20
0.51672641
  0
VERTEX
  8
0
 10
54.08323071
 20
0.64935824
  0
VERTEX
  8
0
 10
54.14990760
 20
0.70375551
  0
VERTEX
  8
0
 10
54.22954813
 20
0.74842798
  0
VERTEX
  8
0
 10
54.41401094
 20
0.81080341
  0
VERTEX
  8
0
 10
54.60920072
 20
0.84089431
  0
VERTEX
  8
0
 10
54.78769904
 20
0.84311044
 42
0.22048548
  0
VERTEX
  8
0
 10
54.81015689
 20
2.32532816
 42
-0.18570961
  0
VERTEX
  8
0
 10
55.02350641
 20
15.33964890
 42
0.32767158
  0
VERTEX
  8
0
 10
54.59680737
 20
19.35398856
 42
0.39266065
  0
VERTEX
  8
0
 10
54.02413234
 20
19.70769961
 42
-0.20525770
  0
VERTEX
  8
0
 10
52.87878228
 20
19.23608488
 42
-0.28954272
  0
VERTEX
  8
0
 10
51.19444397
 20
21.10008595
 42
0.48870444
  0
VERTEX
  8
0
 10
50.34104588
 20
21.68398990
 42
-0.37877807
  0
VERTEX
  8
0
 10
48.54441835
 20
21.97594188
 42
0.20736411
  0
VERTEX
  8
0
 10
46.99482709
 20
22.73950858
 42
-0.35902278
  0
VERTEX
  8
0
 10
45.53506722
 20
22.91917134
 42
-0.01060151
  0
VERTEX
  8
0
 10
43.90765206
 20
23.93814399
  0
SEQEND
  0
POLYLINE
  8
По_умолчанию
 66
   1
 39
0.000000
 70
    1
  0
VERTEX
  8
0
 10
73.27050486
 20
-8.27477432
 42
0.15722691
  0
VERTEX
  8
0
 10
72.01286558
 20
-18.65029836
 42
0.19191743
  0
VERTEX
  8
0
 10
73.56245683
 20
-20.68273326
 42
0.14213615
  0
VERTEX
  8
0
 10
74.12390294
 20
-19.45878075
  0
VERTEX
  8
0
 10
74.48322845
 20
-8.72393120
 42
0.88581279
  0
VERTEX
  8
0
 10
73.27050486
 20
-8.27477432
  0
SEQEND
  0
ENDSEC
  0
EOF
