  0
SECTION
  2
HEADER
999
BEZARC 1.0.1
  9
$FASTZOOM
 70
0
  9
$FILLMODE
 70
1
  9
$SPLINETYPE
 70
5
  0
ENDSEC
  0
SECTION
  2
ENTITIES
  0
POLYLINE
  8
0
 66
1
 70
1
  0
VERTEX
  8
0
 10
7.062115
 20
6.972843
 42
0.192636
  0
VERTEX
  8
0
 10
7.036374
 20
7.010306
 42
0.17459
  0
VERTEX
  8
0
 10
7.012753
 20
7.012633
 42
0.097618
  0
VERTEX
  8
0
 10
6.978981
 20
6.996456
 42
-0.004388
  0
VERTEX
  8
0
 10
6.793391
 20
6.844407
 42
0.007692
  0
VERTEX
  8
0
 10
6.53039
 20
6.626957
 42
0.022905
  0
VERTEX
  8
0
 10
6.386004
 20
6.643009
 42
-0.036025
  0
VERTEX
  8
0
 10
6.205383
 20
6.666503
 42
-0.031865
  0
VERTEX
  8
0
 10
6.20909
 20
6.871642
 42
-0.034054
  0
VERTEX
  8
0
 10
6.383206
 20
7.022682
 42
0.013798
  0
VERTEX
  8
0
 10
6.518308
 20
7.134992
 42
0.034021
  0
VERTEX
  8
0
 10
6.562493
 20
7.17958
 42
0.16228
  0
VERTEX
  8
0
 10
6.578586
 20
7.210244
 42
-0.077487
  0
VERTEX
  8
0
 10
6.596153
 20
7.321455
 42
0.076117
  0
VERTEX
  8
0
 10
6.614619
 20
7.438846
 42
0.359165
  0
VERTEX
  8
0
 10
6.552637
 20
7.511775
 42
0.122172
  0
VERTEX
  8
0
 10
6.121944
 20
7.518796
 42
0.136802
  0
VERTEX
  8
0
 10
5.801094
 20
7.338834
 42
0.12366
  0
VERTEX
  8
0
 10
5.613494
 20
7.020739
 42
0.105838
  0
VERTEX
  8
0
 10
5.58255
 20
6.613364
 42
-0.088798
  0
VERTEX
  8
0
 10
5.481179
 20
6.723152
 42
-0.03215
  0
VERTEX
  8
0
 10
5.413002
 20
6.849021
 42
0.004463
  0
VERTEX
  8
0
 10
5.389506
 20
6.896515
 42
0.094492
  0
VERTEX
  8
0
 10
5.228447
 20
7.111539
 42
0.121772
  0
VERTEX
  8
0
 10
5.049069
 20
7.209299
 42
0.152048
  0
VERTEX
  8
0
 10
4.882783
 20
7.201395
 42
0.167405
  0
VERTEX
  8
0
 10
4.761003
 20
7.099426
 42
0.020412
  0
VERTEX
  8
0
 10
4.731559
 20
7.044907
 42
-0.037242
  0
VERTEX
  8
0
 10
4.689327
 20
6.97076
 42
-0.108757
  0
VERTEX
  8
0
 10
4.626057
 20
6.911186
 42
0.165442
  0
VERTEX
  8
0
 10
4.554486
 20
6.922232
 42
0.065057
  0
VERTEX
  8
0
 10
4.488986
 20
6.897867
 42
-0.023821
  0
VERTEX
  8
0
 10
4.439456
 20
6.876585
 42
-0.156011
  0
VERTEX
  8
0
 10
4.528429
 20
7.183058
 42
0.086475
  0
VERTEX
  8
0
 10
4.807878
 20
7.261151
 42
0.115894
  0
VERTEX
  8
0
 10
5.040044
 20
7.436392
 42
0.217315
  0
VERTEX
  8
0
 10
5.152654
 20
7.372597
 42
0.072865
  0
VERTEX
  8
0
 10
5.288435
 20
7.378312
 42
0.181238
  0
VERTEX
  8
0
 10
5.494955
 20
7.48675
 42
0.053526
  0
VERTEX
  8
0
 10
5.636158
 20
7.685123
 42
-0.026518
  0
VERTEX
  8
0
 10
5.724664
 20
7.819485
 42
-0.046644
  0
VERTEX
  8
0
 10
5.827843
 20
7.935617
 42
0.034771
  0
VERTEX
  8
0
 10
5.921437
 20
8.037893
 42
0.122573
  0
VERTEX
  8
0
 10
5.975506
 20
8.154186
 42
0.097544
  0
VERTEX
  8
0
 10
5.975475
 20
8.20121
 42
0.190155
  0
VERTEX
  8
0
 10
5.959334
 20
8.227239
 42
0.199581
  0
VERTEX
  8
0
 10
5.931084
 20
8.231991
 42
0.10785
  0
VERTEX
  8
0
 10
5.894726
 20
8.215179
 42
-0.05876
  0
VERTEX
  8
0
 10
5.533119
 20
8.045631
 42
-0.070821
  0
VERTEX
  8
0
 10
5.419613
 20
8.03242
 42
0.052047
  0
VERTEX
  8
0
 10
5.31052
 20
8.022041
 42
0.15349
  0
VERTEX
  8
0
 10
5.213051
 20
7.96654
 42
-0.017462
  0
VERTEX
  8
0
 10
5.194752
 20
8.034274
 42
0.066316
  0
VERTEX
  8
0
 10
5.151262
 20
8.161794
 42
0.038097
  0
VERTEX
  8
0
 10
5.386274
 20
8.267549
 42
0.027151
  0
VERTEX
  8
0
 10
5.636595
 20
8.419433
 42
0.035298
  0
VERTEX
  8
0
 10
5.850976
 20
8.587055
 42
0.086245
  0
VERTEX
  8
0
 10
5.978169
 20
8.740024
 42
0.115427
  0
VERTEX
  8
0
 10
6.02294
 20
8.915265
 42
0.132828
  0
VERTEX
  8
0
 10
5.983417
 20
9.062465
 42
0.10312
  0
VERTEX
  8
0
 10
5.876283
 20
9.17902
 42
0.070617
  0
VERTEX
  8
0
 10
5.718219
 20
9.262325
 42
0.083441
  0
VERTEX
  8
0
 10
5.480423
 20
9.307431
 42
0.06534
  0
VERTEX
  8
0
 10
5.23948
 20
9.279638
 42
0.041831
  0
VERTEX
  8
0
 10
4.995282
 20
9.196398
 42
0.022482
  0
VERTEX
  8
0
 10
4.747719
 20
9.075161
  0
VERTEX
  8
0
 10
4.69279
 20
9.126939
  0
VERTEX
  8
0
 10
4.768174
 20
9.212206
 42
0.125841
  0
VERTEX
  8
0
 10
4.887116
 20
9.237135
 42
0.173319
  0
VERTEX
  8
0
 10
4.957703
 20
9.310319
 42
0.42062
  0
VERTEX
  8
0
 10
4.906457
 20
9.452658
 42
0.344504
  0
VERTEX
  8
0
 10
4.739776
 20
9.419097
 42
0.171178
  0
VERTEX
  8
0
 10
4.696129
 20
9.298633
 42
-0.016228
  0
VERTEX
  8
0
 10
4.653311
 20
9.267448
 42
0.03827
  0
VERTEX
  8
0
 10
4.566612
 20
9.199974
 42
0.114328
  0
VERTEX
  8
0
 10
4.352913
 20
9.263038
 42
0.069818
  0
VERTEX
  8
0
 10
4.113971
 20
9.246543
 42
0.058938
  0
VERTEX
  8
0
 10
3.895934
 20
9.175219
 42
0.090013
  0
VERTEX
  8
0
 10
3.744947
 20
9.073799
 42
-0.006537
  0
VERTEX
  8
0
 10
3.70752
 20
9.10339
 42
0.032329
  0
VERTEX
  8
0
 10
3.633729
 20
9.157831
 42
0.153186
  0
VERTEX
  8
0
 10
3.617267
 20
9.252163
 42
0.188229
  0
VERTEX
  8
0
 10
3.562736
 20
9.296945
 42
0.296585
  0
VERTEX
  8
0
 10
3.432875
 20
9.258278
 42
0.304019
  0
VERTEX
  8
0
 10
3.413935
 20
9.130898
 42
0.343935
  0
VERTEX
  8
0
 10
3.531468
 20
9.078135
 42
-0.1273
  0
VERTEX
  8
0
 10
3.622561
 20
8.985945
 42
0.007703
  0
VERTEX
  8
0
 10
3.641018
 20
8.960233
 42
0.166479
  0
VERTEX
  8
0
 10
3.501623
 20
8.556219
 42
0.082502
  0
VERTEX
  8
0
 10
3.531314
 20
8.366038
 42
0.108559
  0
VERTEX
  8
0
 10
3.616428
 20
8.219878
 42
0.126164
  0
VERTEX
  8
0
 10
3.469369
 20
7.903518
 42
-0.087726
  0
VERTEX
  8
0
 10
3.447125
 20
7.934412
 42
0.226589
  0
VERTEX
  8
0
 10
3.303466
 20
8.011647
 42
0.078557
  0
VERTEX
  8
0
 10
3.135708
 20
7.988787
 42
0.128902
  0
VERTEX
  8
0
 10
2.880583
 20
8.145457
 42
0.096094
  0
VERTEX
  8
0
 10
2.817462
 20
8.152536
 42
0.257944
  0
VERTEX
  8
0
 10
2.787437
 20
8.133986
 42
0.174305
  0
VERTEX
  8
0
 10
2.786206
 20
8.094495
 42
0.06366
  0
VERTEX
  8
0
 10
2.809468
 20
8.038749
 42
0.032762
  0
VERTEX
  8
0
 10
2.901563
 20
7.900903
 42
-0.044926
  0
VERTEX
  8
0
 10
3.005953
 20
7.739158
 42
0.085673
  0
VERTEX
  8
0
 10
3.186375
 20
7.445816
 42
0.069622
  0
VERTEX
  8
0
 10
3.319453
 20
7.332684
 42
0.10052
  0
VERTEX
  8
0
 10
3.478019
 20
7.272035
 42
0.088826
  0
VERTEX
  8
0
 10
3.573638
 20
7.298141
 42
0.193212
  0
VERTEX
  8
0
 10
3.642379
 20
7.369662
 42
0.062523
  0
VERTEX
  8
0
 10
3.778351
 20
7.284395
 42
0.031519
  0
VERTEX
  8
0
 10
3.939104
 20
7.219827
 42
0.03177
  0
VERTEX
  8
0
 10
4.194772
 20
7.152162
 42
-0.053912
  0
VERTEX
  8
0
 10
4.20404
 20
6.938529
 42
-0.02429
  0
VERTEX
  8
0
 10
4.194424
 20
6.823891
 42
-0.091783
  0
VERTEX
  8
0
 10
4.176235
 20
6.755479
 42
0.336479
  0
VERTEX
  8
0
 10
4.126546
 20
6.838446
 42
-0.002497
  0
VERTEX
  8
0
 10
4.116214
 20
6.843674
 42
0.043428
  0
VERTEX
  8
0
 10
4.004968
 20
6.89129
 42
0.074229
  0
VERTEX
  8
0
 10
3.941747
 20
6.901925
 42
0.186128
  0
VERTEX
  8
0
 10
3.892007
 20
6.885235
 42
-0.000554
  0
VERTEX
  8
0
 10
3.881976
 20
6.900446
 42
0.030218
  0
VERTEX
  8
0
 10
3.801723
 20
7.012227
 42
0.090166
  0
VERTEX
  8
0
 10
3.695515
 20
7.102732
 42
0.148595
  0
VERTEX
  8
0
 10
3.541332
 20
7.131925
 42
0.10931
  0
VERTEX
  8
0
 10
3.397473
 20
7.078639
 42
0.050952
  0
VERTEX
  8
0
 10
3.261756
 20
6.971696
 42
0.014576
  0
VERTEX
  8
0
 10
3.131995
 20
6.839914
 42
-0.010207
  0
VERTEX
  8
0
 10
3.028197
 20
6.733236
 42
0.021913
  0
VERTEX
  8
0
 10
2.666374
 20
6.568013
 42
0.054377
  0
VERTEX
  8
0
 10
2.493679
 20
6.447963
 42
0.018244
  0
VERTEX
  8
0
 10
2.340623
 20
6.304367
 42
-0.015059
  0
VERTEX
  8
0
 10
2.201101
 20
6.172367
 42
-0.044674
  0
VERTEX
  8
0
 10
2.045751
 20
6.057264
 42
0.106817
  0
VERTEX
  8
0
 10
1.866085
 20
5.955196
 42
0.168281
  0
VERTEX
  8
0
 10
1.802928
 20
5.839956
 42
0.258872
  0
VERTEX
  8
0
 10
1.883106
 20
5.653121
 42
-0.055903
  0
VERTEX
  8
0
 10
2.011094
 20
5.523114
 42
-0.018722
  0
VERTEX
  8
0
 10
2.117971
 20
5.375783
 42
0.019752
  0
VERTEX
  8
0
 10
2.227967
 20
5.224589
 42
0.058836
  0
VERTEX
  8
0
 10
2.360876
 20
5.092122
 42
-0.095822
  0
VERTEX
  8
0
 10
2.440572
 20
4.997179
 42
-0.030669
  0
VERTEX
  8
0
 10
2.495247
 20
4.882464
 42
0.061533
  0
VERTEX
  8
0
 10
2.581408
 20
4.71939
 42
-0.172136
  0
VERTEX
  8
0
 10
2.612269
 20
4.611752
 42
-0.041949
  0
VERTEX
  8
0
 10
2.593669
 20
4.473863
 42
0.007457
  0
VERTEX
  8
0
 10
2.580032
 20
4.396919
 42
0.164561
  0
VERTEX
  8
0
 10
2.595557
 20
4.223304
 42
-0.001398
  0
VERTEX
  8
0
 10
2.601081
 20
4.208049
 42
-0.223463
  0
VERTEX
  8
0
 10
2.600706
 20
4.183422
 42
-0.177991
  0
VERTEX
  8
0
 10
2.570957
 20
4.162817
 42
0.051115
  0
VERTEX
  8
0
 10
2.323735
 20
4.228027
 42
0.060105
  0
VERTEX
  8
0
 10
2.104242
 20
4.235823
 42
0.138205
  0
VERTEX
  8
0
 10
1.75611
 20
4.108152
 42
0.131602
  0
VERTEX
  8
0
 10
1.541885
 20
3.837765
 42
0.113855
  0
VERTEX
  8
0
 10
1.47689
 20
3.482622
 42
0.064664
  0
VERTEX
  8
0
 10
1.578629
 20
3.232275
 42
0.255585
  0
VERTEX
  8
0
 10
1.610753
 20
3.218432
 42
0.163906
  0
VERTEX
  8
0
 10
1.636708
 20
3.237218
 42
-0.055518
  0
VERTEX
  8
0
 10
2.059346
 20
3.579529
 42
-0.021214
  0
VERTEX
  8
0
 10
2.379412
 20
3.52639
  0
VERTEX
  8
0
 10
2.365819
 20
3.281706
 42
-0.025993
  0
VERTEX
  8
0
 10
1.982276
 20
2.908485
 42
-0.003471
  0
VERTEX
  8
0
 10
1.970308
 20
2.898584
 42
0.186946
  0
VERTEX
  8
0
 10
1.935072
 20
2.855004
 42
0.107063
  0
VERTEX
  8
0
 10
1.938259
 20
2.822664
 42
0.03329
  0
VERTEX
  8
0
 10
1.957522
 20
2.770382
 42
0.176267
  0
VERTEX
  8
0
 10
2.045751
 20
2.667524
 42
0.270825
  0
VERTEX
  8
0
 10
2.771722
 20
2.818066
 42
0.15117
  0
VERTEX
  8
0
 10
2.98163
 20
3.174136
 42
0.071815
  0
VERTEX
  8
0
 10
3.003469
 20
3.415246
 42
0.062266
  0
VERTEX
  8
0
 10
2.952814
 20
3.695692
 42
-0.100405
  0
VERTEX
  8
0
 10
2.937761
 20
3.77876
 42
-0.356411
  0
VERTEX
  8
0
 10
2.980001
 20
3.815562
 42
-0.022997
  0
VERTEX
  8
0
 10
3.308718
 20
3.873644
 42
0.06735
  0
VERTEX
  8
0
 10
3.458993
 20
3.675789
 42
0.064725
  0
VERTEX
  8
0
 10
3.616456
 20
3.560738
 42
-0.102868
  0
VERTEX
  8
0
 10
3.671646
 20
3.504934
 42
-0.047054
  0
VERTEX
  8
0
 10
3.725459
 20
3.408933
 42
-0.07726
  0
VERTEX
  8
0
 10
3.794849
 20
3.160632
 42
0.068532
  0
VERTEX
  8
0
 10
3.815106
 20
3.056656
 42
0.127294
  0
VERTEX
  8
0
 10
3.872657
 20
2.983419
 42
-0.187645
  0
VERTEX
  8
0
 10
3.929058
 20
2.89077
 42
-0.188681
  0
VERTEX
  8
0
 10
3.896151
 20
2.778138
 42
0.209204
  0
VERTEX
  8
0
 10
3.874718
 20
2.692212
 42
0.128429
  0
VERTEX
  8
0
 10
3.917958
 20
2.614386
 42
0.27415
  0
VERTEX
  8
0
 10
3.908162
 20
2.53871
 42
0.08086
  0
VERTEX
  8
0
 10
3.955509
 20
2.47315
 42
-0.031685
  0
VERTEX
  8
0
 10
3.989631
 20
2.431492
 42
0.211048
  0
VERTEX
  8
0
 10
3.871463
 20
2.366915
 42
0.144677
  0
VERTEX
  8
0
 10
3.820331
 20
2.253538
  0
VERTEX
  8
0
 10
3.686865
 20
2.306676
 42
0.073839
  0
VERTEX
  8
0
 10
3.407242
 20
2.348191
 42
0.071113
  0
VERTEX
  8
0
 10
3.087129
 20
2.305948
 42
0.094018
  0
VERTEX
  8
0
 10
2.787907
 20
2.159646
 42
0.124231
  0
VERTEX
  8
0
 10
2.570957
 20
1.888985
 42
0.100374
  0
VERTEX
  8
0
 10
2.520909
 20
1.629625
 42
0.149989
  0
VERTEX
  8
0
 10
2.59691
 20
1.382314
 42
0.168967
  0
VERTEX
  8
0
 10
2.547941
 20
1.319908
 42
0.101398
  0
VERTEX
  8
0
 10
2.538826
 20
1.238965
 42
0.129871
  0
VERTEX
  8
0
 10
2.601589
 20
1.125647
 42
0.092841
  0
VERTEX
  8
0
 10
2.711225
 20
1.048939
 42
0.087359
  0
VERTEX
  8
0
 10
3.007314
 20
0.979641
 42
0.055497
  0
VERTEX
  8
0
 10
3.460128
 20
0.997539
 42
0.061027
  0
VERTEX
  8
0
 10
3.728858
 20
1.083846
 42
0.037309
  0
VERTEX
  8
0
 10
3.976037
 20
1.221664
  0
VERTEX
  8
0
 10
3.976038
 20
1.221664
 42
0.031517
  0
VERTEX
  8
0
 10
4.158933
 20
1.115385
 42
0.140993
  0
VERTEX
  8
0
 10
4.359902
 20
1.099784
 42
0.089469
  0
VERTEX
  8
0
 10
4.550675
 20
1.172232
 42
0.189114
  0
VERTEX
  8
0
 10
4.590297
 20
1.086634
 42
0.11917
  0
VERTEX
  8
0
 10
4.674004
 20
1.042021
 42
0.065637
  0
VERTEX
  8
0
 10
4.87588
 20
1.021505
 42
-0.000032
  0
VERTEX
  8
0
 10
4.879392
 20
1.021468
 42
0.112254
  0
VERTEX
  8
0
 10
5.137403
 20
0.927974
 42
0.049862
  0
VERTEX
  8
0
 10
5.376992
 20
0.915701
 42
-0.002883
  0
VERTEX
  8
0
 10
5.433497
 20
0.91803
 42
0.02498
  0
VERTEX
  8
0
 10
5.792476
 20
0.945114
 42
0.037792
  0
VERTEX
  8
0
 10
5.981296
 20
0.984371
 42
0.09065
  0
VERTEX
  8
0
 10
6.125057
 20
1.052361
 42
0.252682
  0
VERTEX
  8
0
 10
6.148017
 20
1.254407
 42
-0.204689
  0
VERTEX
  8
0
 10
6.153117
 20
1.291241
 42
-0.041521
  0
VERTEX
  8
0
 10
6.170878
 20
1.321281
 42
0.011953
  0
VERTEX
  8
0
 10
6.172872
 20
1.324254
 42
0.172208
  0
VERTEX
  8
0
 10
6.27475
 20
1.788776
 42
0.164059
  0
VERTEX
  8
0
 10
6.105811
 20
2.133617
 42
0.070611
  0
VERTEX
  8
0
 10
5.951795
 20
2.243903
 42
0.047854
  0
VERTEX
  8
0
 10
5.775149
 20
2.316529
 42
0.088664
  0
VERTEX
  8
0
 10
5.471899
 20
2.359825
 42
0.017335
  0
VERTEX
  8
0
 10
5.357073
 20
2.344022
 42
-0.048065
  0
VERTEX
  8
0
 10
5.159912
 20
2.325212
 42
-0.038696
  0
VERTEX
  8
0
 10
5.166617
 20
2.374459
 42
0.066297
  0
VERTEX
  8
0
 10
5.17348
 20
2.443709
 42
0.250273
  0
VERTEX
  8
0
 10
5.141376
 20
2.498224
 42
-0.125104
  0
VERTEX
  8
0
 10
5.106721
 20
2.497134
 42
-0.215448
  0
VERTEX
  8
0
 10
5.0897
 20
2.511067
 42
-0.119993
  0
VERTEX
  8
0
 10
5.085012
 20
2.563301
 42
0.053325
  0
VERTEX
  8
0
 10
5.084531
 20
2.600792
 42
0.178456
  0
VERTEX
  8
0
 10
5.069859
 20
2.626967
 42
0.046528
  0
VERTEX
  8
0
 10
5.042675
 20
2.646684
 42
-0.064735
  0
VERTEX
  8
0
 10
5.014071
 20
2.668331
 42
-0.270502
  0
VERTEX
  8
0
 10
5.006279
 20
2.697304
 42
0.10215
  0
VERTEX
  8
0
 10
5.015815
 20
2.789459
 42
0.220135
  0
VERTEX
  8
0
 10
4.954775
 20
2.876369
 42
-0.162296
  0
VERTEX
  8
0
 10
4.918909
 20
2.941582
 42
-0.065265
  0
VERTEX
  8
0
 10
4.908117
 20
3.045763
 42
-0.124605
  0
VERTEX
  8
0
 10
4.959718
 20
3.259462
 42
0.24106
  0
VERTEX
  8
0
 10
4.966001
 20
3.310483
 42
0.095431
  0
VERTEX
  8
0
 10
4.936315
 20
3.353629
 42
-0.200479
  0
VERTEX
  8
0
 10
4.896231
 20
3.446057
 42
-0.0725
  0
VERTEX
  8
0
 10
4.920722
 20
3.555033
 42
0.00361
  0
VERTEX
  8
0
 10
4.932531
 20
3.593122
 42
0.100519
  0
VERTEX
  8
0
 10
4.987368
 20
3.632512
 42
0.044203
  0
VERTEX
  8
0
 10
5.030158
 20
3.685804
 42
0.063913
  0
VERTEX
  8
0
 10
5.235059
 20
4.208618
 42
0.037049
  0
VERTEX
  8
0
 10
5.331822
 20
4.765763
 42
0.119149
  0
VERTEX
  8
0
 10
5.301055
 20
5.086832
 42
0.042737
  0
VERTEX
  8
0
 10
5.237628
 20
5.220453
 42
0.01228
  0
VERTEX
  8
0
 10
5.148488
 20
5.36519
 42
-0.000051
  0
VERTEX
  8
0
 10
5.141376
 20
5.376351
 42
-0.049798
  0
VERTEX
  8
0
 10
5.560306
 20
5.564189
 42
-0.192337
  0
VERTEX
  8
0
 10
5.632171
 20
5.565069
 42
-0.063754
  0
VERTEX
  8
0
 10
5.694835
 20
5.528761
 42
0.147458
  0
VERTEX
  8
0
 10
5.79634
 20
5.483862
 42
-0.136624
  0
VERTEX
  8
0
 10
5.91693
 20
5.4395
 42
-0.046379
  0
VERTEX
  8
0
 10
6.013765
 20
5.352412
 42
0.015974
  0
VERTEX
  8
0
 10
6.075626
 20
5.292318
 42
0.269773
  0
VERTEX
  8
0
 10
6.574879
 20
5.198399
 42
-0.167465
  0
VERTEX
  8
0
 10
6.663518
 20
5.185432
 42
0.160592
  0
VERTEX
  8
0
 10
6.742946
 20
5.172446
 42
0.222253
  0
VERTEX
  8
0
 10
6.818955
 20
5.251765
 42
0.110578
  0
VERTEX
  8
0
 10
6.837938
 20
5.390253
 42
0.091668
  0
VERTEX
  8
0
 10
6.799539
 20
5.543107
 42
0.125583
  0
VERTEX
  8
0
 10
6.703401
 20
5.665524
 42
-0.080341
  0
VERTEX
  8
0
 10
6.48139
 20
5.791265
 42
-0.050258
  0
VERTEX
  8
0
 10
6.289036
 20
5.9754
  0
VERTEX
  8
0
 10
6.431529
 20
5.981881
 42
0.174077
  0
VERTEX
  8
0
 10
6.915036
 20
6.177278
 42
0.204449
  0
VERTEX
  8
0
 10
7.111494
 20
6.600461
 42
0.06408
  0
SEQEND
  8
0
  0
POLYLINE
  8
0
 66
1
 70
1
  0
VERTEX
  8
0
 10
4.819146
 20
9.411762
 42
-0.209974
  0
VERTEX
  8
0
 10
4.889583
 20
9.391318
 42
-0.219378
  0
VERTEX
  8
0
 10
4.91006
 20
9.338636
 42
-0.410777
  0
VERTEX
  8
0
 10
4.827393
 20
9.259996
 42
-0.439081
  0
VERTEX
  8
0
 10
4.749129
 20
9.333996
 42
-0.413688
  0
SEQEND
  8
0
  0
POLYLINE
  8
0
 66
1
 70
1
  0
VERTEX
  8
0
 10
6.511857
 20
7.200358
 42
0.030923
  0
VERTEX
  8
0
 10
6.205383
 20
6.938374
 42
0.015004
  0
VERTEX
  8
0
 10
6.179934
 20
7.045179
 42
-0.003049
  0
VERTEX
  8
0
 10
6.169546
 20
7.085433
 42
-0.035851
  0
VERTEX
  8
0
 10
6.552637
 20
7.383256
 42
-0.055713
  0
VERTEX
  8
0
 10
6.532324
 20
7.29962
 42
0.081724
  0
SEQEND
  8
0
  0
POLYLINE
  8
0
 66
1
 70
1
  0
VERTEX
  8
0
 10
5.640632
 20
6.507086
 42
0.112762
  0
VERTEX
  8
0
 10
5.643861
 20
6.634418
 42
-0.134722
  0
VERTEX
  8
0
 10
5.689763
 20
7.048511
 42
-0.131457
  0
VERTEX
  8
0
 10
5.907646
 20
7.332994
 42
-0.117288
  0
VERTEX
  8
0
 10
6.21836
 20
7.473316
 42
-0.128658
  0
VERTEX
  8
0
 10
6.542751
 20
7.454929
 42
0.013628
  0
VERTEX
  8
0
 10
6.102812
 20
7.094083
 42
0.066296
  0
VERTEX
  8
0
 10
6.075192
 20
6.970322
 42
0.045976
  0
VERTEX
  8
0
 10
6.072543
 20
6.815398
 42
0.079126
  0
VERTEX
  8
0
 10
6.101711
 20
6.679636
 42
0.091892
  0
VERTEX
  8
0
 10
6.130367
 20
6.634669
 42
0.1614
  0
VERTEX
  8
0
 10
6.169546
 20
6.613364
 42
0.00611
  0
VERTEX
  8
0
 10
6.298242
 20
6.598967
 42
-0.019616
  0
VERTEX
  8
0
 10
6.53039
 20
6.568875
 42
0.005672
  0
VERTEX
  8
0
 10
6.665614
 20
6.677746
 42
-0.006217
  0
VERTEX
  8
0
 10
6.87212
 20
6.843432
 42
-0.014034
  0
VERTEX
  8
0
 10
6.955879
 20
6.905192
 42
-0.071099
  0
VERTEX
  8
0
 10
7.006167
 20
6.933431
 42
-0.131573
  0
VERTEX
  8
0
 10
7.032473
 20
6.804753
 42
-0.082187
  0
VERTEX
  8
0
 10
6.999003
 20
6.652832
 42
-0.110383
  0
VERTEX
  8
0
 10
6.786559
 20
6.346326
 42
-0.12657
  0
VERTEX
  8
0
 10
6.436482
 20
6.148047
 42
-0.180201
  0
VERTEX
  8
0
 10
6.016418
 20
6.192131
 42
0.020115
  0
VERTEX
  8
0
 10
5.939219
 20
6.227055
 42
0.068409
  0
VERTEX
  8
0
 10
5.870963
 20
6.244773
 42
0.109298
  0
VERTEX
  8
0
 10
5.804659
 20
6.237055
 42
0.086619
  0
VERTEX
  8
0
 10
5.733314
 20
6.195672
 42
0.008291
  0
VERTEX
  8
0
 10
5.724881
 20
6.186845
 42
-0.080024
  0
VERTEX
  8
0
 10
5.696905
 20
6.162452
 42
-0.300712
  0
VERTEX
  8
0
 10
5.662878
 20
6.164776
 42
-0.082987
  0
VERTEX
  8
0
 10
5.637404
 20
6.215903
 42
-0.015296
  0
VERTEX
  8
0
 10
5.61478
 20
6.289699
 42
0.020119
  0
VERTEX
  8
0
 10
5.586831
 20
6.378783
 42
0.108611
  0
VERTEX
  8
0
 10
5.551656
 20
6.440356
 42
-0.002592
  0
VERTEX
  8
0
 10
5.581225
 20
6.462217
 42
0.010109
  0
SEQEND
  8
0
  0
POLYLINE
  8
0
 66
1
 70
1
  0
VERTEX
  8
0
 10
6.1473
 20
6.777724
 42
-0.134176
  0
VERTEX
  8
0
 10
6.133707
 20
6.969268
 42
-0.104959
  0
VERTEX
  8
0
 10
6.158927
 20
6.866099
 42
-0.11125
  0
SEQEND
  8
0
  0
POLYLINE
  8
0
 66
1
 70
1
  0
VERTEX
  8
0
 10
4.771608
 20
7.011906
 42
-0.117582
  0
VERTEX
  8
0
 10
4.853784
 20
7.121346
 42
-0.150654
  0
VERTEX
  8
0
 10
4.95549
 20
7.16108
 42
-0.114999
  0
VERTEX
  8
0
 10
5.068161
 20
7.141209
 42
-0.072753
  0
VERTEX
  8
0
 10
5.183232
 20
7.071836
 42
-0.06877
  0
VERTEX
  8
0
 10
5.273444
 20
6.966624
 42
-0.014422
  0
VERTEX
  8
0
 10
5.366747
 20
6.818877
 42
0.040372
  0
VERTEX
  8
0
 10
5.5187
 20
6.594053
 42
-0.102578
  0
VERTEX
  8
0
 10
5.529229
 20
6.577527
 42
-0.393439
  0
VERTEX
  8
0
 10
5.527556
 20
6.572652
 42
-0.161877
  0
VERTEX
  8
0
 10
5.517439
 20
6.573433
 42
0.092822
  0
VERTEX
  8
0
 10
5.401302
 20
6.576486
 42
0.037255
  0
VERTEX
  8
0
 10
5.287804
 20
6.553921
 42
0.070808
  0
VERTEX
  8
0
 10
5.151479
 20
6.640051
 42
0.066651
  0
VERTEX
  8
0
 10
5.024987
 20
6.679771
 42
0.089186
  0
VERTEX
  8
0
 10
4.92578
 20
6.679015
 42
0.177768
  0
VERTEX
  8
0
 10
4.796377
 20
6.59945
 42
0.122779
  0
VERTEX
  8
0
 10
4.723685
 20
6.431706
 42
0.056774
  0
VERTEX
  8
0
 10
4.643358
 20
6.866699
 42
0.153678
  0
VERTEX
  8
0
 10
4.723137
 20
6.92484
 42
0.053411
  0
VERTEX
  8
0
 10
4.770134
 20
7.008774
 42
-0.000067
  0
SEQEND
  8
0
  0
POLYLINE
  8
0
 66
1
 70
1
  0
VERTEX
  8
0
 10
4.906579
 20
5.514758
 42
0.035262
  0
VERTEX
  8
0
 10
4.834139
 20
5.465134
 42
0.005019
  0
VERTEX
  8
0
 10
4.682372
 20
5.349685
 42
0.002808
  0
VERTEX
  8
0
 10
4.250567
 20
5.010622
 42
0.001404
  0
VERTEX
  8
0
 10
3.641825
 20
4.525024
 42
-0.391089
  0
VERTEX
  8
0
 10
3.577644
 20
4.562937
 42
0.031494
  0
VERTEX
  8
0
 10
3.530005
 20
4.651171
 42
0.062367
  0
VERTEX
  8
0
 10
3.450832
 20
4.758461
 42
0.001207
  0
VERTEX
  8
0
 10
4.852204
 20
5.884256
 42
-0.076181
  0
VERTEX
  8
0
 10
4.868732
 20
5.804759
 42
-0.023035
  0
VERTEX
  8
0
 10
4.8696
 20
5.719381
 42
0.036406
  0
VERTEX
  8
0
 10
4.872575
 20
5.612085
 42
0.118832
  0
SEQEND
  8
0
  0
POLYLINE
  8
0
 66
1
 70
1
  0
VERTEX
  8
0
 10
4.922518
 20
5.475212
  0
VERTEX
  8
0
 10
4.937474
 20
5.450369
 42
0.002127
  0
VERTEX
  8
0
 10
4.309025
 20
4.954456
 42
-0.005937
  0
VERTEX
  8
0
 10
3.766208
 20
4.528176
  0
VERTEX
  8
0
 10
3.730369
 20
4.528176
 42
-0.014292
  0
SEQEND
  8
0
  0
POLYLINE
  8
0
 66
1
 70
1
  0
VERTEX
  8
0
 10
3.314325
 20
5.168099
 42
0.154664
  0
VERTEX
  8
0
 10
3.258739
 20
5.102697
 42
0.043707
  0
VERTEX
  8
0
 10
3.230065
 20
5.015353
 42
-0.010409
  0
VERTEX
  8
0
 10
3.218203
 20
4.973058
  0
VERTEX
  8
0
 10
3.197497
 20
4.958657
 42
-0.146392
  0
VERTEX
  8
0
 10
3.233262
 20
5.11817
 42
-0.049878
  0
VERTEX
  8
0
 10
3.32777
 20
5.248954
 42
0.021714
  0
VERTEX
  8
0
 10
3.39372
 20
5.333449
 42
0.068683
  0
VERTEX
  8
0
 10
3.442182
 20
5.425781
 42
-0.202575
  0
VERTEX
  8
0
 10
3.486669
 20
5.483862
 42
0.340937
  0
VERTEX
  8
0
 10
3.595416
 20
5.395293
 42
0.252265
  0
VERTEX
  8
0
 10
3.702368
 20
5.445215
 42
0.051897
  0
VERTEX
  8
0
 10
3.773277
 20
5.608331
 42
-0.003649
  0
VERTEX
  8
0
 10
3.789436
 20
5.653165
 42
0.186397
  0
VERTEX
  8
0
 10
3.901692
 20
5.615254
 42
0.050824
  0
VERTEX
  8
0
 10
4.026965
 20
5.632103
 42
-0.005533
  0
VERTEX
  8
0
 10
4.065014
 20
5.639572
 42
0.244281
  0
VERTEX
  8
0
 10
4.120952
 20
5.685603
 42
0.138891
  0
VERTEX
  8
0
 10
4.123015
 20
5.749289
 42
0.001157
  0
VERTEX
  8
0
 10
4.121443
 20
5.757216
 42
-0.048718
  0
VERTEX
  8
0
 10
4.115097
 20
5.803857
 42
-0.180752
  0
VERTEX
  8
0
 10
4.128039
 20
5.843475
 42
0.146874
  0
VERTEX
  8
0
 10
4.509896
 20
5.831117
 42
0.207191
  0
VERTEX
  8
0
 10
4.519935
 20
5.769327
 42
0.092782
  0
VERTEX
  8
0
 10
4.567975
 20
5.714953
 42
-0.014411
  0
VERTEX
  8
0
 10
3.52745
 20
4.900575
 42
0.137241
  0
VERTEX
  8
0
 10
3.494876
 20
4.928689
 42
0.030686
  0
VERTEX
  8
0
 10
3.432759
 20
4.959584
 42
0.045596
  0
VERTEX
  8
0
 10
3.322312
 20
4.998203
 42
-0.05726
  0
VERTEX
  8
0
 10
3.318918
 20
5.067136
 42
-0.11524
  0
VERTEX
  8
0
 10
3.337581
 20
5.131328
 42
0.112616
  0
VERTEX
  8
0
 10
3.328728
 20
5.152201
 42
0.20176
  0
SEQEND
  8
0
  0
POLYLINE
  8
0
 66
1
 70
1
  0
VERTEX
  8
0
 10
3.144358
 20
4.936412
 42
-0.076765
  0
VERTEX
  8
0
 10
3.011668
 20
4.895477
 42
-0.127347
  0
VERTEX
  8
0
 10
2.872487
 20
4.909225
 42
-0.083137
  0
VERTEX
  8
0
 10
2.850133
 20
4.973377
 42
0.178473
  0
VERTEX
  8
0
 10
2.797107
 20
5.074821
 42
-0.084604
  0
VERTEX
  8
0
 10
2.57616
 20
5.372534
 42
-0.028598
  0
VERTEX
  8
0
 10
2.430363
 20
5.708126
 42
0.000662
  0
VERTEX
  8
0
 10
2.410308
 20
5.759442
  0
VERTEX
  8
0
 10
2.352225
 20
5.862011
 42
0.020151
  0
VERTEX
  8
0
 10
2.681384
 20
6.029651
 42
0.046397
  0
VERTEX
  8
0
 10
3.008299
 20
6.2553
 42
0.00912
  0
VERTEX
  8
0
 10
3.086458
 20
6.325218
 42
-0.022869
  0
VERTEX
  8
0
 10
3.213788
 20
6.435031
 42
-0.081205
  0
VERTEX
  8
0
 10
3.349464
 20
6.51126
 42
-0.162509
  0
VERTEX
  8
0
 10
3.522525
 20
6.513452
 42
-0.237822
  0
VERTEX
  8
0
 10
3.638672
 20
6.399574
 42
-0.09502
  0
VERTEX
  8
0
 10
3.65741
 20
5.873409
 42
-0.051918
  0
VERTEX
  8
0
 10
3.604244
 20
5.667118
 42
-0.091159
  0
VERTEX
  8
0
 10
3.52745
 20
5.532058
 42
0.319453
  0
VERTEX
  8
0
 10
3.455775
 20
5.537001
 42
0.095386
  0
VERTEX
  8
0
 10
3.385266
 20
5.434056
 42
-0.084739
  0
VERTEX
  8
0
 10
3.277824
 20
5.278724
 42
0.075421
  0
VERTEX
  8
0
 10
3.177725
 20
5.119153
 42
0.112481
  0
SEQEND
  8
0
  0
POLYLINE
  8
0
 66
1
 70
1
  0
VERTEX
  8
0
 10
3.71776
 20
6.253751
 42
0.068518
  0
VERTEX
  8
0
 10
3.784493
 20
6.120289
 42
0.065318
  0
VERTEX
  8
0
 10
3.766177
 20
6.019934
 42
0.024065
  0
VERTEX
  8
0
 10
3.765396
 20
5.916092
 42
-0.037213
  0
VERTEX
  8
0
 10
3.756165
 20
5.733975
 42
-0.036581
  0
VERTEX
  8
0
 10
3.733316
 20
5.618431
 42
-0.069347
  0
VERTEX
  8
0
 10
3.690336
 20
5.516144
 42
-0.130185
  0
VERTEX
  8
0
 10
3.624301
 20
5.447518
 42
-0.395127
  0
VERTEX
  8
0
 10
3.553403
 20
5.465326
 42
0.148056
  0
VERTEX
  8
0
 10
3.700747
 20
5.782456
 42
0.034708
  0
VERTEX
  8
0
 10
3.717665
 20
5.961702
 42
0.010989
  0
VERTEX
  8
0
 10
3.718376
 20
6.146024
 42
-0.003782
  0
SEQEND
  8
0
  0
POLYLINE
  8
0
 66
1
 70
1
  0
VERTEX
  8
0
 10
4.728628
 20
5.853361
 42
-0.004163
  0
VERTEX
  8
0
 10
4.695246
 20
5.826161
 42
0.004156
  0
VERTEX
  8
0
 10
4.661894
 20
5.798986
 42
-0.457855
  0
VERTEX
  8
0
 10
4.667958
 20
5.87357
 42
-0.65986
  0
SEQEND
  8
0
  0
POLYLINE
  8
0
 66
1
 70
1
  0
VERTEX
  8
0
 10
4.741414
 20
6.383888
  0
VERTEX
  8
0
 10
4.750871
 20
6.235215
 42
-0.203396
  0
VERTEX
  8
0
 10
4.735356
 20
6.259875
 42
-0.050992
  0
VERTEX
  8
0
 10
4.725261
 20
6.309296
 42
-0.066019
  0
VERTEX
  8
0
 10
4.725606
 20
6.358845
 42
-0.303463
  0
SEQEND
  8
0
  0
POLYLINE
  8
0
 66
1
 70
1
  0
VERTEX
  8
0
 10
4.754579
 20
6.199379
 42
0.007205
  0
VERTEX
  8
0
 10
4.796748
 20
6.070572
 42
-0.023638
  0
VERTEX
  8
0
 10
4.839846
 20
5.932451
  0
VERTEX
  8
0
 10
4.810317
 20
5.910636
 42
-0.037619
  0
VERTEX
  8
0
 10
4.760997
 20
6.083236
 42
-0.03237
  0
VERTEX
  8
0
 10
4.750273
 20
6.156477
 42
-0.127019
  0
SEQEND
  8
0
  0
POLYLINE
  8
0
 66
1
 70
1
  0
VERTEX
  8
0
 10
4.81266
 20
6.177135
 42
-0.061923
  0
VERTEX
  8
0
 10
4.797807
 20
6.358826
 42
-0.082069
  0
VERTEX
  8
0
 10
4.827957
 20
6.50998
 42
-0.143003
  0
VERTEX
  8
0
 10
4.899414
 20
6.608464
 42
-0.205234
  0
VERTEX
  8
0
 10
5.008482
 20
6.632146
 42
-0.118546
  0
VERTEX
  8
0
 10
5.124896
 20
6.576225
 42
-0.047128
  0
VERTEX
  8
0
 10
5.213051
 20
6.493494
 42
0.0836
  0
VERTEX
  8
0
 10
5.195751
 20
6.444063
 42
0.07599
  0
VERTEX
  8
0
 10
5.093231
 20
6.438882
 42
0.11151
  0
VERTEX
  8
0
 10
5.017603
 20
6.404811
 42
0.239373
  0
VERTEX
  8
0
 10
4.954775
 20
6.257458
 42
0.144205
  0
VERTEX
  8
0
 10
4.871204
 20
6.2455
 42
0.210026
  0
SEQEND
  8
0
  0
POLYLINE
  8
0
 66
1
 70
1
  0
VERTEX
  8
0
 10
5.192775
 20
6.574625
 42
-0.03948
  0
VERTEX
  8
0
 10
5.248169
 20
6.551047
 42
0.003885
  0
VERTEX
  8
0
 10
5.262232
 20
6.544289
  0
VERTEX
  8
0
 10
5.227806
 20
6.521236
  0
SEQEND
  8
0
  0
POLYLINE
  8
0
 66
1
 70
1
  0
VERTEX
  8
0
 10
4.612463
 20
6.809854
 42
0.000285
  0
VERTEX
  8
0
 10
4.624603
 20
6.73335
 42
-0.010943
  0
VERTEX
  8
0
 10
4.70144
 20
6.199379
 42
0.063786
  0
VERTEX
  8
0
 10
4.708718
 20
6.094838
 42
0.020788
  0
VERTEX
  8
0
 10
4.733628
 20
5.992257
 42
-0.004346
  0
VERTEX
  8
0
 10
4.745928
 20
5.946044
 42
0.18834
  0
VERTEX
  8
0
 10
4.697066
 20
5.944427
 42
0.107397
  0
VERTEX
  8
0
 10
4.641829
 20
5.908968
 42
0.271485
  0
VERTEX
  8
0
 10
4.598767
 20
5.762629
 42
0.738338
  0
VERTEX
  8
0
 10
4.592515
 20
5.761003
 42
-0.136011
  0
VERTEX
  8
0
 10
4.548447
 20
5.880191
 42
-0.061069
  0
VERTEX
  8
0
 10
4.55556
 20
5.983228
 42
0.000318
  0
VERTEX
  8
0
 10
4.556525
 20
5.989439
 42
0.048548
  0
VERTEX
  8
0
 10
4.553128
 20
6.160547
 42
0.014665
  0
VERTEX
  8
0
 10
4.52256
 20
6.416052
 42
0.014113
  0
VERTEX
  8
0
 10
4.479707
 20
6.663202
 42
0.051627
  0
VERTEX
  8
0
 10
4.439456
 20
6.809249
 42
-0.06141
  0
VERTEX
  8
0
 10
4.500335
 20
6.851476
 42
-0.109637
  0
VERTEX
  8
0
 10
4.552564
 20
6.866577
 42
-0.198774
  0
VERTEX
  8
0
 10
4.59149
 20
6.853165
 42
-0.165606
  0
SEQEND
  8
0
  0
POLYLINE
  8
0
 66
1
 70
1
  0
VERTEX
  8
0
 10
5.221703
 20
7.908461
 42
-0.265196
  0
VERTEX
  8
0
 10
5.4046
 20
7.975193
 42
-0.053011
  0
VERTEX
  8
0
 10
5.378376
 20
7.948971
 42
0.053035
  0
VERTEX
  8
0
 10
5.352148
 20
7.922743
 42
0.184075
  0
VERTEX
  8
0
 10
5.341574
 20
7.889924
 42
0.304047
  0
VERTEX
  8
0
 10
5.383725
 20
7.887974
 42
0.072698
  0
VERTEX
  8
0
 10
5.421659
 20
7.920563
 42
-0.098301
  0
VERTEX
  8
0
 10
5.466386
 20
7.956657
 42
-0.017719
  0
VERTEX
  8
0
 10
5.607974
 20
8.01171
 42
0.024834
  0
VERTEX
  8
0
 10
5.775849
 20
8.078832
 42
0.0723
  0
VERTEX
  8
0
 10
5.929804
 20
8.179096
 42
-0.148187
  0
VERTEX
  8
0
 10
5.879719
 20
8.068475
 42
-0.028974
  0
VERTEX
  8
0
 10
5.768534
 20
7.945947
 42
0.020404
  0
VERTEX
  8
0
 10
5.644065
 20
7.810899
 42
0.060854
  0
VERTEX
  8
0
 10
5.538743
 20
7.651385
 42
-0.187691
  0
VERTEX
  8
0
 10
5.31082
 20
7.438689
 42
-0.122477
  0
VERTEX
  8
0
 10
5.180665
 20
7.420177
 42
-0.188755
  0
VERTEX
  8
0
 10
5.077972
 20
7.473415
 42
0.117652
  0
VERTEX
  8
0
 10
5.185938
 20
7.654261
 42
0.082402
  0
SEQEND
  8
0
  0
POLYLINE
  8
0
 66
1
 70
1
  0
VERTEX
  8
0
 10
5.129018
 20
8.214933
 42
0.0979
  0
VERTEX
  8
0
 10
4.936742
 20
8.405191
 42
0.057525
  0
VERTEX
  8
0
 10
4.839846
 20
8.455911
 42
0.168007
  0
VERTEX
  8
0
 10
4.817166
 20
8.61965
 42
0.221101
  0
VERTEX
  8
0
 10
4.701854
 20
8.705779
 42
0.233679
  0
VERTEX
  8
0
 10
4.556019
 20
8.664462
 42
0.103658
  0
VERTEX
  8
0
 10
4.442356
 20
8.515354
 42
-0.319314
  0
VERTEX
  8
0
 10
4.391735
 20
8.531261
 42
-0.114791
  0
VERTEX
  8
0
 10
4.381183
 20
8.581234
 42
0.140514
  0
VERTEX
  8
0
 10
4.366418
 20
8.640544
 42
-0.035531
  0
VERTEX
  8
0
 10
4.503914
 20
8.754461
 42
-0.028414
  0
VERTEX
  8
0
 10
4.738535
 20
8.906838
 42
-0.038255
  0
VERTEX
  8
0
 10
5.036589
 20
9.049544
 42
-0.0609
  0
VERTEX
  8
0
 10
5.364381
 20
9.13445
 42
-0.083437
  0
VERTEX
  8
0
 10
5.640028
 20
9.126726
 42
-0.104105
  0
VERTEX
  8
0
 10
5.78702
 20
9.062076
 42
-0.149994
  0
VERTEX
  8
0
 10
5.889024
 20
8.923033
 42
-0.073079
  0
VERTEX
  8
0
 10
5.898557
 20
8.851272
 42
-0.103366
  0
VERTEX
  8
0
 10
5.875474
 20
8.762069
 42
-0.056826
  0
VERTEX
  8
0
 10
5.814857
 20
8.665832
 42
-0.059291
  0
VERTEX
  8
0
 10
5.614313
 20
8.471845
 42
-0.042887
  0
VERTEX
  8
0
 10
5.363506
 20
8.308487
 42
-0.064408
  0
SEQEND
  8
0
  0
POLYLINE
  8
0
 66
1
 70
1
  0
VERTEX
  8
0
 10
4.575178
 20
8.19074
 42
-0.213611
  0
VERTEX
  8
0
 10
4.510377
 20
8.230973
 42
-0.126304
  0
VERTEX
  8
0
 10
4.477276
 20
8.321795
 42
-0.177913
  0
VERTEX
  8
0
 10
4.546846
 20
8.578965
 42
-0.741696
  0
VERTEX
  8
0
 10
4.785136
 20
8.507725
 42
-0.170161
  0
VERTEX
  8
0
 10
4.729246
 20
8.284296
 42
-0.10465
  0
VERTEX
  8
0
 10
4.658397
 20
8.212362
 42
-0.171397
  0
SEQEND
  8
0
  0
POLYLINE
  8
0
 66
1
 70
1
  0
VERTEX
  8
0
 10
5.061062
 20
9.169271
 42
-0.09061
  0
VERTEX
  8
0
 10
5.508122
 20
9.239481
 42
-0.090469
  0
VERTEX
  8
0
 10
5.736173
 20
9.192555
 42
-0.157428
  0
VERTEX
  8
0
 10
5.902733
 20
9.053157
 42
-0.145171
  0
VERTEX
  8
0
 10
5.906751
 20
9.036468
 42
-0.573905
  0
VERTEX
  8
0
 10
5.902192
 20
9.034213
 42
-0.101773
  0
VERTEX
  8
0
 10
5.88944
 20
9.04489
 42
0.095229
  0
VERTEX
  8
0
 10
5.774831
 20
9.125371
 42
0.05828
  0
VERTEX
  8
0
 10
5.622349
 20
9.175338
 42
0.096477
  0
VERTEX
  8
0
 10
5.297349
 20
9.181726
 42
0.044691
  0
VERTEX
  8
0
 10
5.042305
 20
9.104821
 42
0.029516
  0
VERTEX
  8
0
 10
4.780076
 20
8.982379
 42
0.048238
  0
VERTEX
  8
0
 10
4.323292
 20
8.67835
  0
VERTEX
  8
0
 10
4.283746
 20
8.709244
 42
0.004022
  0
VERTEX
  8
0
 10
4.433668
 20
8.811543
 42
-0.015996
  0
VERTEX
  8
0
 10
4.737516
 20
9.011848
 42
-0.04935
  0
SEQEND
  8
0
  0
POLYLINE
  8
0
 66
1
 70
1
  0
VERTEX
  8
0
 10
4.11696
 20
8.23824
 42
-0.151396
  0
VERTEX
  8
0
 10
4.060343
 20
8.288283
 42
-0.103641
  0
VERTEX
  8
0
 10
4.027315
 20
8.37601
 42
-0.210238
  0
VERTEX
  8
0
 10
4.086479
 20
8.597754
 42
-0.140794
  0
VERTEX
  8
0
 10
4.164376
 20
8.659259
 42
-0.174532
  0
VERTEX
  8
0
 10
4.240314
 20
8.660728
 42
-0.275765
  0
VERTEX
  8
0
 10
4.333561
 20
8.53866
 42
-0.167227
  0
VERTEX
  8
0
 10
4.282847
 20
8.3171
 42
-0.129637
  0
VERTEX
  8
0
 10
4.209558
 20
8.243508
 42
-0.23018
  0
SEQEND
  8
0
  0
POLYLINE
  8
0
 66
1
 70
1
  0
VERTEX
  8
0
 10
4.706383
 20
9.051556
  0
VERTEX
  8
0
 10
4.612463
 20
8.984822
 42
-0.078862
  0
VERTEX
  8
0
 10
4.66245
 20
9.091908
 42
-0.107039
  0
SEQEND
  8
0
  0
POLYLINE
  8
0
 66
1
 70
1
  0
VERTEX
  8
0
 10
4.718742
 20
9.256693
  0
VERTEX
  8
0
 10
4.732335
 20
9.2431
 42
0.019267
  0
VERTEX
  8
0
 10
4.633627
 20
9.121994
 42
0.0522
  0
VERTEX
  8
0
 10
4.554382
 20
8.989767
 42
-0.211993
  0
VERTEX
  8
0
 10
4.532318
 20
8.968245
 42
-0.264217
  0
VERTEX
  8
0
 10
4.509851
 20
8.974271
 42
-0.29799
  0
VERTEX
  8
0
 10
4.501246
 20
9.042906
 42
-0.084222
  0
VERTEX
  8
0
 10
4.575627
 20
9.139111
 42
-0.025942
  0
VERTEX
  8
0
 10
4.671391
 20
9.219153
 42
0.006624
  0
SEQEND
  8
0
  0
POLYLINE
  8
0
 66
1
 70
1
  0
VERTEX
  8
0
 10
3.526639
 20
9.122729
 42
0.958861
  0
VERTEX
  8
0
 10
3.509767
 20
9.239769
 42
-0.512463
  0
VERTEX
  8
0
 10
3.575169
 20
9.188318
 42
-0.155569
  0
VERTEX
  8
0
 10
3.563331
 20
9.144736
 42
-0.240301
  0
SEQEND
  8
0
  0
POLYLINE
  8
0
 66
1
 70
1
  0
VERTEX
  8
0
 10
3.578421
 20
9.100558
 42
0.084148
  0
VERTEX
  8
0
 10
3.595127
 20
9.117352
 42
-0.068398
  0
VERTEX
  8
0
 10
3.606162
 20
9.129107
  0
VERTEX
  8
0
 10
3.81105
 20
8.955114
 42
-0.27673
  0
VERTEX
  8
0
 10
3.846635
 20
8.89899
 42
-0.246877
  0
VERTEX
  8
0
 10
3.825515
 20
8.858856
 42
-0.286039
  0
VERTEX
  8
0
 10
3.776546
 20
8.852817
 42
-0.130191
  0
VERTEX
  8
0
 10
3.740004
 20
8.90079
 42
0.058916
  0
VERTEX
  8
0
 10
3.668943
 20
9.003455
 42
0.017632
  0
SEQEND
  8
0
  0
POLYLINE
  8
0
 66
1
 70
1
  0
VERTEX
  8
0
 10
3.678214
 20
8.904496
 42
0.104821
  0
VERTEX
  8
0
 10
3.770836
 20
8.812544
 42
0.32745
  0
VERTEX
  8
0
 10
3.869763
 20
8.815522
 42
0.213282
  0
VERTEX
  8
0
 10
3.897826
 20
8.870552
 42
0.134502
  0
VERTEX
  8
0
 10
3.881286
 20
8.929365
 42
0.069031
  0
VERTEX
  8
0
 10
3.798099
 20
9.029376
 42
-0.001569
  0
VERTEX
  8
0
 10
3.789436
 20
9.037962
 42
-0.118999
  0
VERTEX
  8
0
 10
3.904113
 20
9.123587
 42
-0.059317
  0
VERTEX
  8
0
 10
4.094984
 20
9.187938
 42
-0.060078
  0
VERTEX
  8
0
 10
4.318756
 20
9.20974
 42
-0.091134
  0
VERTEX
  8
0
 10
4.532137
 20
9.167717
 42
-0.007918
  0
VERTEX
  8
0
 10
4.511161
 20
9.14263
 42
0.063214
  0
VERTEX
  8
0
 10
4.455467
 20
9.065214
 42
0.203614
  0
VERTEX
  8
0
 10
4.448107
 20
8.971229
  0
VERTEX
  8
0
 10
4.492594
 20
8.91809
 42
-0.014589
  0
VERTEX
  8
0
 10
4.403408
 20
8.855857
 42
0.057471
  0
VERTEX
  8
0
 10
4.234315
 20
8.722839
 42
0.21925
  0
VERTEX
  8
0
 10
4.09989
 20
8.696438
 42
0.138545
  0
VERTEX
  8
0
 10
3.990438
 20
8.559843
 42
0.042368
  0
VERTEX
  8
0
 10
3.893187
 20
8.488762
 42
0.142983
  0
VERTEX
  8
0
 10
3.825274
 20
8.389176
 42
0.060595
  0
VERTEX
  8
0
 10
3.647322
 20
8.250772
 42
-0.099379
  0
VERTEX
  8
0
 10
3.570627
 20
8.42851
 42
-0.076599
  0
VERTEX
  8
0
 10
3.559127
 20
8.617951
 42
-0.075181
  0
VERTEX
  8
0
 10
3.599448
 20
8.787233
 42
-0.114238
  0
SEQEND
  8
0
  0
POLYLINE
  8
0
 66
1
 70
1
  0
VERTEX
  8
0
 10
3.977828
 20
8.491319
  0
VERTEX
  8
0
 10
3.965218
 20
8.444662
  0
VERTEX
  8
0
 10
3.902196
 20
8.424208
  0
SEQEND
  8
0
  0
POLYLINE
  8
0
 66
1
 70
1
  0
VERTEX
  8
0
 10
3.172653
 20
7.543368
 42
-0.020544
  0
VERTEX
  8
0
 10
3.060185
 20
7.734736
 42
0.04346
  0
VERTEX
  8
0
 10
2.886081
 20
8.011029
 42
-0.142948
  0
VERTEX
  8
0
 10
2.841593
 20
8.103713
 42
-0.130644
  0
VERTEX
  8
0
 10
2.964515
 20
8.061403
 42
-0.041376
  0
VERTEX
  8
0
 10
3.068429
 20
7.977719
 42
0.031974
  0
VERTEX
  8
0
 10
3.159677
 20
7.902384
 42
0.102232
  0
VERTEX
  8
0
 10
3.264231
 20
7.855321
 42
-0.205929
  0
VERTEX
  8
0
 10
3.30107
 20
7.819455
 42
0.062938
  0
VERTEX
  8
0
 10
3.321898
 20
7.791206
 42
0.209323
  0
VERTEX
  8
0
 10
3.353207
 20
7.778703
 42
0.333259
  0
VERTEX
  8
0
 10
3.335861
 20
7.866458
 42
0.081207
  0
VERTEX
  8
0
 10
3.252039
 20
7.91703
 42
-0.070113
  0
VERTEX
  8
0
 10
3.197497
 20
7.948006
 42
-0.318001
  0
VERTEX
  8
0
 10
3.39482
 20
7.90433
 42
-0.093577
  0
VERTEX
  8
0
 10
3.455775
 20
7.810833
  0
VERTEX
  8
0
 10
3.455775
 20
7.810833
 42
0.165425
  0
VERTEX
  8
0
 10
3.522507
 20
7.511775
 42
-0.226546
  0
VERTEX
  8
0
 10
3.428156
 20
7.524615
 42
-0.098104
  0
VERTEX
  8
0
 10
3.36376
 20
7.595085
 42
0.031147
  0
VERTEX
  8
0
 10
3.191432
 20
7.77904
 42
0.025073
  0
VERTEX
  8
0
 10
2.966408
 20
7.983843
  0
VERTEX
  8
0
 10
2.952814
 20
7.97025
 42
0.054786
  0
VERTEX
  8
0
 10
3.028256
 20
7.873269
 42
0.012104
  0
VERTEX
  8
0
 10
3.134888
 20
7.765533
 42
-0.041406
  0
VERTEX
  8
0
 10
3.314511
 20
7.570626
 42
0.127534
  0
VERTEX
  8
0
 10
3.442783
 20
7.453239
 42
0.146488
  0
VERTEX
  8
0
 10
3.500972
 20
7.442929
 42
0.215781
  0
VERTEX
  8
0
 10
3.544753
 20
7.472229
 42
0.096714
  0
VERTEX
  8
0
 10
3.59789
 20
7.41044
 42
-0.271694
  0
VERTEX
  8
0
 10
3.513916
 20
7.343802
 42
-0.136503
  0
VERTEX
  8
0
 10
3.39206
 20
7.365485
 42
-0.132996
  0
SEQEND
  8
0
  0
POLYLINE
  8
0
 66
1
 70
1
  0
VERTEX
  8
0
 10
4.047712
 20
7.307872
 42
0.274933
  0
VERTEX
  8
0
 10
3.994146
 20
7.286435
 42
0.01194
  0
VERTEX
  8
0
 10
4.05055
 20
7.253861
 42
-0.17968
  0
VERTEX
  8
0
 10
4.066851
 20
7.239243
 42
-0.480601
  0
VERTEX
  8
0
 10
4.053206
 20
7.232114
 42
-0.080431
  0
VERTEX
  8
0
 10
3.970404
 20
7.253868
 42
-0.031023
  0
VERTEX
  8
0
 10
3.841973
 20
7.313609
 42
-0.033928
  0
VERTEX
  8
0
 10
3.7047
 20
7.399295
 42
-0.062759
  0
VERTEX
  8
0
 10
3.595376
 20
7.498885
 42
-0.167015
  0
VERTEX
  8
0
 10
3.504656
 20
7.752437
 42
-0.114908
  0
VERTEX
  8
0
 10
3.565465
 20
8.02708
 42
-0.096554
  0
VERTEX
  8
0
 10
3.735468
 20
8.262361
 42
-0.124271
  0
VERTEX
  8
0
 10
3.972329
 20
8.397828
 42
0.157783
  0
VERTEX
  8
0
 10
4.023799
 20
8.236237
 42
0.301942
  0
VERTEX
  8
0
 10
4.19484
 20
8.174872
 42
0.119381
  0
VERTEX
  8
0
 10
4.254899
 20
8.205042
 42
0.072318
  0
VERTEX
  8
0
 10
4.313416
 20
8.268793
 42
0.128947
  0
VERTEX
  8
0
 10
4.384526
 20
8.465368
 42
0.087814
  0
VERTEX
  8
0
 10
4.433035
 20
8.459606
 42
-0.00009
  0
VERTEX
  8
0
 10
4.434512
 20
8.459618
 42
0.151481
  0
VERTEX
  8
0
 10
4.437375
 20
8.25832
 42
0.119229
  0
VERTEX
  8
0
 10
4.48818
 20
8.174341
 42
0.170857
  0
VERTEX
  8
0
 10
4.576636
 20
8.133444
 42
0.233027
  0
VERTEX
  8
0
 10
4.728315
 20
8.198761
 42
0.128613
  0
VERTEX
  8
0
 10
4.836265
 20
8.408269
 42
-0.236286
  0
VERTEX
  8
0
 10
5.159052
 20
7.980012
 42
-0.233193
  0
VERTEX
  8
0
 10
5.007042
 20
7.475206
 42
-0.161876
  0
VERTEX
  8
0
 10
4.56969
 20
7.23978
 42
-0.161806
  0
SEQEND
  8
0
  0
POLYLINE
  8
0
 66
1
 70
1
  0
VERTEX
  8
0
 10
4.128039
 20
6.021426
 42
0.084708
  0
VERTEX
  8
0
 10
4.174226
 20
6.018182
 42
0.237361
  0
VERTEX
  8
0
 10
4.212072
 20
6.039962
 42
0.288712
  0
VERTEX
  8
0
 10
4.207967
 20
6.054522
 42
0.076849
  0
VERTEX
  8
0
 10
4.189926
 20
6.068502
 42
0.035399
  0
VERTEX
  8
0
 10
4.144994
 20
6.089627
 42
-0.008138
  0
VERTEX
  8
0
 10
4.13669
 20
6.093101
 42
-0.00002
  0
VERTEX
  8
0
 10
4.137758
 20
6.102798
 42
0.033717
  0
VERTEX
  8
0
 10
4.162642
 20
6.488551
 42
-0.109854
  0
VERTEX
  8
0
 10
4.201537
 20
6.471569
 42
0.191156
  0
VERTEX
  8
0
 10
4.256558
 20
6.45395
 42
0.256398
  0
VERTEX
  8
0
 10
4.260819
 20
6.485929
 42
0.129183
  0
VERTEX
  8
0
 10
4.23826
 20
6.513998
 42
0.07727
  0
VERTEX
  8
0
 10
4.167585
 20
6.551578
 42
-0.063752
  0
VERTEX
  8
0
 10
4.197723
 20
6.650973
 42
0.068051
  0
VERTEX
  8
0
 10
4.243974
 20
6.814654
 42
0.004214
  0
VERTEX
  8
0
 10
4.245846
 20
6.848336
 42
-0.045835
  0
VERTEX
  8
0
 10
4.256558
 20
6.947024
 42
-0.378208
  0
VERTEX
  8
0
 10
4.311829
 20
6.978396
 42
0.350941
  0
VERTEX
  8
0
 10
4.385794
 20
7.033406
 42
-0.040018
  0
VERTEX
  8
0
 10
4.435496
 20
7.169464
  0
VERTEX
  8
0
 10
4.456757
 20
7.169464
 42
0.064986
  0
VERTEX
  8
0
 10
4.414463
 20
7.031466
 42
0.029448
  0
VERTEX
  8
0
 10
4.395094
 20
6.874104
 42
0.034978
  0
VERTEX
  8
0
 10
4.393476
 20
6.666132
 42
0.034587
  0
VERTEX
  8
0
 10
4.467236
 20
6.403946
 42
-0.070795
  0
VERTEX
  8
0
 10
4.495336
 20
6.257514
 42
-0.029581
  0
VERTEX
  8
0
 10
4.500143
 20
6.143749
 42
0.043728
  0
VERTEX
  8
0
 10
4.498327
 20
5.967535
 42
-0.006443
  0
VERTEX
  8
0
 10
4.501246
 20
5.892906
 42
-0.183942
  0
VERTEX
  8
0
 10
4.123096
 20
5.9065
  0
SEQEND
  8
0
  0
POLYLINE
  8
0
 66
1
 70
1
  0
VERTEX
  8
0
 10
3.972885
 20
6.800144
  0
VERTEX
  8
0
 10
3.962444
 20
6.85434
 42
-0.054447
  0
VERTEX
  8
0
 10
4.118153
 20
6.774017
 42
-0.02428
  0
VERTEX
  8
0
 10
4.114308
 20
6.598269
 42
-0.003345
  0
VERTEX
  8
0
 10
4.096939
 20
6.323287
 42
0.003978
  0
VERTEX
  8
0
 10
4.075264
 20
5.974249
 42
0.021811
  0
VERTEX
  8
0
 10
4.069957
 20
5.706303
 42
-0.234516
  0
VERTEX
  8
0
 10
3.828981
 20
5.70136
 42
0.013989
  0
VERTEX
  8
0
 10
3.912981
 20
6.183556
 42
0.01103
  0
VERTEX
  8
0
 10
3.957003
 20
6.522973
 42
0.02987
  0
SEQEND
  8
0
  0
POLYLINE
  8
0
 66
1
 70
1
  0
VERTEX
  8
0
 10
1.614465
 20
3.281706
 42
-0.05723
  0
VERTEX
  8
0
 10
1.578629
 20
3.365737
 42
0.011596
  0
VERTEX
  8
0
 10
1.736776
 20
3.498949
 42
-0.027117
  0
VERTEX
  8
0
 10
1.974076
 20
3.690747
  0
VERTEX
  8
0
 10
1.987669
 20
3.596831
 42
-0.004803
  0
VERTEX
  8
0
 10
1.864823
 20
3.496101
 42
0.020874
  0
SEQEND
  8
0
  0
POLYLINE
  8
0
 66
1
 70
1
  0
VERTEX
  8
0
 10
2.374469
 20
3.579529
 42
0.010654
  0
VERTEX
  8
0
 10
2.220397
 20
3.600236
 42
-0.011533
  0
VERTEX
  8
0
 10
2.045751
 20
3.624018
 42
-0.003465
  0
VERTEX
  8
0
 10
2.040096
 20
3.647108
 42
0.017802
  0
VERTEX
  8
0
 10
2.027215
 20
3.695692
 42
-0.0326
  0
VERTEX
  8
0
 10
2.383121
 20
3.632665
  0
SEQEND
  8
0
  0
POLYLINE
  8
0
 66
1
 70
1
  0
VERTEX
  8
0
 10
2.883514
 20
3.048664
 42
-0.120718
  0
VERTEX
  8
0
 10
2.554753
 20
2.758439
 42
-0.083
  0
VERTEX
  8
0
 10
2.332715
 20
2.690952
 42
-0.080598
  0
VERTEX
  8
0
 10
2.067322
 20
2.701011
 42
-0.136325
  0
VERTEX
  8
0
 10
2.014857
 20
2.770094
 42
0.181244
  0
VERTEX
  8
0
 10
2.473732
 20
2.79917
 42
0.061682
  0
VERTEX
  8
0
 10
2.666699
 20
2.917563
 42
0.035852
  0
VERTEX
  8
0
 10
2.844047
 20
3.080714
 42
-0.441413
  0
VERTEX
  8
0
 10
2.871349
 20
3.073183
 42
-0.212659
  0
SEQEND
  8
0
  0
POLYLINE
  8
0
 66
1
 70
1
  0
VERTEX
  8
0
 10
2.777268
 20
3.061965
 42
-0.141824
  0
VERTEX
  8
0
 10
2.424807
 20
2.833127
 42
-0.081416
  0
VERTEX
  8
0
 10
2.204613
 20
2.800099
 42
-0.111119
  0
VERTEX
  8
0
 10
1.992612
 20
2.850419
 42
0.032032
  0
VERTEX
  8
0
 10
2.327592
 20
3.169028
 42
-0.002449
  0
VERTEX
  8
0
 10
2.418958
 20
3.263169
 42
0.020258
  0
VERTEX
  8
0
 10
2.440572
 20
3.646315
 42
0.294633
  0
VERTEX
  8
0
 10
2.395915
 20
3.692814
 42
0.006785
  0
VERTEX
  8
0
 10
2.357095
 20
3.697743
 42
-0.00704
  0
VERTEX
  8
0
 10
2.199302
 20
3.718533
 42
-0.032999
  0
VERTEX
  8
0
 10
2.044693
 20
3.749276
 42
0.300265
  0
VERTEX
  8
0
 10
1.925226
 20
3.719115
 42
-0.006351
  0
VERTEX
  8
0
 10
1.777998
 20
3.599146
 42
0.002685
  0
VERTEX
  8
0
 10
1.551442
 20
3.415168
 42
-0.175478
  0
VERTEX
  8
0
 10
1.526115
 20
3.634439
 42
-0.089777
  0
VERTEX
  8
0
 10
1.667396
 20
3.920523
 42
-0.108005
  0
VERTEX
  8
0
 10
1.89556
 20
4.120472
 42
-0.123877
  0
VERTEX
  8
0
 10
2.195577
 20
4.197141
 42
-0.111575
  0
VERTEX
  8
0
 10
2.552421
 20
4.113385
 42
0.325897
  0
VERTEX
  8
0
 10
2.632747
 20
4.144279
 42
-0.050598
  0
VERTEX
  8
0
 10
2.701773
 20
4.018451
 42
0.035585
  0
VERTEX
  8
0
 10
2.757052
 20
3.91268
 42
0.101341
  0
VERTEX
  8
0
 10
2.841593
 20
3.824212
 42
0.403892
  0
VERTEX
  8
0
 10
2.832621
 20
3.79671
 42
0.093153
  0
VERTEX
  8
0
 10
2.854011
 20
3.772719
 42
-0.026938
  0
VERTEX
  8
0
 10
2.864447
 20
3.762857
 42
-0.128813
  0
VERTEX
  8
0
 10
2.918973
 20
3.637494
 42
-0.070475
  0
VERTEX
  8
0
 10
2.926996
 20
3.454653
 42
-0.145544
  0
SEQEND
  8
0
  0
POLYLINE
  8
0
 66
1
 70
1
  0
VERTEX
  8
0
 10
3.280754
 20
3.917503
 42
-0.07449
  0
VERTEX
  8
0
 10
3.106997
 20
3.873422
 42
-0.021063
  0
VERTEX
  8
0
 10
2.953051
 20
3.861278
 42
0.00633
  0
VERTEX
  8
0
 10
2.927617
 20
3.859954
 42
-0.275428
  0
VERTEX
  8
0
 10
2.832943
 20
3.899593
 42
-0.048601
  0
VERTEX
  8
0
 10
2.748241
 20
4.049308
 42
0.022133
  0
VERTEX
  8
0
 10
2.694536
 20
4.152931
 42
-0.186144
  0
VERTEX
  8
0
 10
2.623641
 20
4.307051
 42
-0.065009
  0
VERTEX
  8
0
 10
2.640706
 20
4.472932
 42
0.047884
  0
VERTEX
  8
0
 10
2.659331
 20
4.623115
 42
0.140233
  0
VERTEX
  8
0
 10
2.619153
 20
4.772056
 42
-0.092598
  0
VERTEX
  8
0
 10
2.528129
 20
4.927751
 42
0.090908
  0
VERTEX
  8
0
 10
2.437494
 20
5.083471
 42
-0.050621
  0
VERTEX
  8
0
 10
2.293188
 20
5.231068
 42
-0.017821
  0
VERTEX
  8
0
 10
2.174325
 20
5.392357
 42
0.015412
  0
VERTEX
  8
0
 10
2.066035
 20
5.540336
 42
0.04521
  0
VERTEX
  8
0
 10
1.939365
 20
5.675199
 42
-0.097559
  0
VERTEX
  8
0
 10
1.883814
 20
5.74411
 42
-0.145952
  0
VERTEX
  8
0
 10
1.869336
 20
5.820076
 42
-0.137823
  0
VERTEX
  8
0
 10
1.903658
 20
5.899685
 42
-0.085405
  0
VERTEX
  8
0
 10
1.994507
 20
5.979528
 42
-0.017151
  0
VERTEX
  8
0
 10
2.079289
 20
6.029065
 42
0.030976
  0
VERTEX
  8
0
 10
2.194687
 20
6.099419
 42
0.086149
  0
VERTEX
  8
0
 10
2.294143
 20
6.199379
 42
-0.084748
  0
VERTEX
  8
0
 10
2.669047
 20
6.511876
 42
-0.034624
  0
VERTEX
  8
0
 10
3.091219
 20
6.715933
 42
0.069548
  0
VERTEX
  8
0
 10
3.252132
 20
6.824625
 42
0.134269
  0
VERTEX
  8
0
 10
3.250713
 20
6.848999
 42
-0.000018
  0
VERTEX
  8
0
 10
3.250636
 20
6.849397
  0
VERTEX
  8
0
 10
3.197497
 20
6.832099
 42
-0.038093
  0
VERTEX
  8
0
 10
3.305004
 20
6.948226
 42
-0.067078
  0
VERTEX
  8
0
 10
3.441472
 20
7.046458
 42
-0.140262
  0
VERTEX
  8
0
 10
3.589819
 20
7.080818
 42
-0.19253
  0
VERTEX
  8
0
 10
3.732957
 20
7.005329
 42
-0.028208
  0
VERTEX
  8
0
 10
3.793722
 20
6.92849
 42
0.022354
  0
VERTEX
  8
0
 10
3.848944
 20
6.857598
 42
0.071902
  0
VERTEX
  8
0
 10
3.91425
 20
6.799968
 42
-0.002738
  0
VERTEX
  8
0
 10
3.908021
 20
6.79559
 42
0.077278
  0
VERTEX
  8
0
 10
3.870036
 20
6.762612
 42
0.254281
  0
VERTEX
  8
0
 10
3.860496
 20
6.710606
 42
-0.13332
  0
VERTEX
  8
0
 10
3.847517
 20
6.395867
 42
0.298681
  0
VERTEX
  8
0
 10
3.805346
 20
6.351379
 42
0.116493
  0
VERTEX
  8
0
 10
3.806736
 20
6.284647
 42
0.118722
  0
VERTEX
  8
0
 10
3.869763
 20
6.168485
  0
VERTEX
  8
0
 10
3.869763
 20
6.14624
 42
-0.230117
  0
VERTEX
  8
0
 10
3.829117
 20
6.163788
 42
-0.075129
  0
VERTEX
  8
0
 10
3.795666
 20
6.211648
 42
-0.041409
  0
VERTEX
  8
0
 10
3.756566
 20
6.309051
 42
0.007742
  0
VERTEX
  8
0
 10
3.754006
 20
6.316758
 42
0.082535
  0
VERTEX
  8
0
 10
3.684079
 20
6.434987
 42
0.046626
  0
VERTEX
  8
0
 10
3.582103
 20
6.536293
 42
0.230196
  0
VERTEX
  8
0
 10
3.379899
 20
6.588513
 42
0.129345
  0
VERTEX
  8
0
 10
3.228186
 20
6.517362
 42
0.000271
  0
VERTEX
  8
0
 10
3.188217
 20
6.482153
 42
-0.026986
  0
VERTEX
  8
0
 10
2.780541
 20
6.147881
 42
-0.085315
  0
VERTEX
  8
0
 10
2.319717
 20
5.917496
  0
VERTEX
  8
0
 10
2.240804
 20
5.982786
 42
0.043676
  0
VERTEX
  8
0
 10
2.209058
 20
5.948678
 42
-0.098479
  0
VERTEX
  8
0
 10
2.340709
 20
5.787517
 42
-0.034108
  0
VERTEX
  8
0
 10
2.422811
 20
5.600684
 42
0.036289
  0
VERTEX
  8
0
 10
2.507933
 20
5.408479
 42
0.022315
  0
VERTEX
  8
0
 10
2.604164
 20
5.236839
 42
0.050753
  0
VERTEX
  8
0
 10
2.711993
 20
5.08894
 42
-0.040911
  0
VERTEX
  8
0
 10
2.767086
 20
5.026619
 42
-0.103467
  0
VERTEX
  8
0
 10
2.802708
 20
4.951847
 42
0.215259
  0
VERTEX
  8
0
 10
2.859963
 20
4.866495
 42
0.137136
  0
VERTEX
  8
0
 10
2.956537
 20
4.844035
 42
0.098714
  0
VERTEX
  8
0
 10
3.139206
 20
4.88774
 42
0.000029
  0
VERTEX
  8
0
 10
3.141888
 20
4.88901
 42
-0.088686
  0
VERTEX
  8
0
 10
3.290297
 20
4.93924
 42
-0.067071
  0
VERTEX
  8
0
 10
3.386734
 20
4.917105
 42
-0.02491
  0
VERTEX
  8
0
 10
3.491612
 20
4.878331
  0
VERTEX
  8
0
 10
3.416231
 20
4.811599
 42
-0.032057
  0
VERTEX
  8
0
 10
3.409155
 20
4.831994
 42
0.065044
  0
VERTEX
  8
0
 10
3.39791
 20
4.860447
 42
0.263358
  0
VERTEX
  8
0
 10
3.364329
 20
4.874912
 42
0.502539
  0
VERTEX
  8
0
 10
3.344556
 20
4.852379
 42
0.100125
  0
VERTEX
  8
0
 10
3.385611
 20
4.754103
 42
0.031863
  0
VERTEX
  8
0
 10
3.452161
 20
4.668229
 42
-0.038735
  0
VERTEX
  8
0
 10
3.522753
 20
4.575511
 42
-0.124812
  0
VERTEX
  8
0
 10
3.558346
 20
4.46929
 42
0.12823
  0
VERTEX
  8
0
 10
3.590214
 20
4.400508
 42
0.06648
  0
VERTEX
  8
0
 10
3.617101
 20
4.372709
 42
0.186577
  0
VERTEX
  8
0
 10
3.642379
 20
4.363011
 42
0.287806
  0
VERTEX
  8
0
 10
3.655152
 20
4.397571
 42
0.097003
  0
VERTEX
  8
0
 10
3.63687
 20
4.429456
 42
-0.132708
  0
VERTEX
  8
0
 10
3.616428
 20
4.46929
 42
-0.059154
  0
VERTEX
  8
0
 10
3.806736
 20
4.460639
 42
-0.162345
  0
VERTEX
  8
0
 10
3.848961
 20
4.436819
 42
0.097914
  0
VERTEX
  8
0
 10
3.878906
 20
4.416632
 42
0.343921
  0
VERTEX
  8
0
 10
3.909307
 20
4.429744
 42
0.22235
  0
VERTEX
  8
0
 10
3.833924
 20
4.508833
  0
VERTEX
  8
0
 10
3.917958
 20
4.566915
 42
0.01204
  0
VERTEX
  8
0
 10
3.936742
 20
4.523045
 42
-0.068217
  0
VERTEX
  8
0
 10
3.978896
 20
4.400008
 42
-0.268287
  0
VERTEX
  8
0
 10
3.940201
 20
4.286393
 42
-0.070391
  0
VERTEX
  8
0
 10
3.808499
 20
4.240038
 42
-0.02582
  0
VERTEX
  8
0
 10
3.618271
 20
4.205844
 42
-0.026006
  0
VERTEX
  8
0
 10
3.434413
 20
4.190641
 42
-0.090303
  0
VERTEX
  8
0
 10
3.321818
 20
4.201263
 42
0.121937
  0
VERTEX
  8
0
 10
3.26783
 20
4.20955
 42
0.165184
  0
VERTEX
  8
0
 10
3.250601
 20
4.20344
 42
0.446738
  0
VERTEX
  8
0
 10
3.253921
 20
4.19014
 42
0.158386
  0
VERTEX
  8
0
 10
3.382859
 20
4.12637
 42
0.061316
  0
VERTEX
  8
0
 10
3.494318
 20
4.124238
 42
-0.013723
  0
VERTEX
  8
0
 10
3.516889
 20
4.125569
 42
-0.116105
  0
VERTEX
  8
0
 10
3.55587
 20
4.118292
 42
-0.243633
  0
VERTEX
  8
0
 10
3.572554
 20
4.099312
 42
-0.254922
  0
VERTEX
  8
0
 10
3.561575
 20
4.074967
 42
-0.104676
  0
VERTEX
  8
0
 10
3.517564
 20
4.051596
 42
-0.061306
  0
VERTEX
  8
0
 10
3.404569
 20
4.014195
 42
-0.032041
  0
VERTEX
  8
0
 10
3.25506
 20
3.990721
 42
-0.045874
  0
VERTEX
  8
0
 10
3.118416
 20
3.988867
 42
-0.058088
  0
VERTEX
  8
0
 10
3.070349
 20
3.998452
 42
-0.168966
  0
VERTEX
  8
0
 10
3.044015
 20
4.016328
 42
0.126458
  0
VERTEX
  8
0
 10
3.022573
 20
4.040117
 42
0.315981
  0
VERTEX
  8
0
 10
3.00597
 20
4.040105
 42
0.290871
  0
VERTEX
  8
0
 10
3.002081
 20
3.992786
 42
0.181926
  0
VERTEX
  8
0
 10
3.046735
 20
3.940376
 42
0.051152
  0
VERTEX
  8
0
 10
3.195496
 20
3.951365
 42
-0.011026
  0
VERTEX
  8
0
 10
3.264936
 20
3.960218
 42
-0.059519
  0
VERTEX
  8
0
 10
3.3031
 20
3.960304
 42
-0.232361
  0
VERTEX
  8
0
 10
3.319877
 20
3.952189
 42
-0.323464
  0
VERTEX
  8
0
 10
3.313138
 20
3.937409
 42
-0.069452
  0
SEQEND
  8
0
  0
POLYLINE
  8
0
 66
1
 70
1
  0
VERTEX
  8
0
 10
3.96505
 20
2.576053
 42
0.227237
  0
VERTEX
  8
0
 10
3.96752
 20
2.619814
 42
0.088965
  0
VERTEX
  8
0
 10
3.942731
 20
2.651926
 42
-0.121755
  0
VERTEX
  8
0
 10
3.914103
 20
2.692656
 42
-0.22332
  0
VERTEX
  8
0
 10
3.928992
 20
2.756328
 42
0.148533
  0
VERTEX
  8
0
 10
3.967732
 20
2.902407
 42
0.218176
  0
VERTEX
  8
0
 10
3.923076
 20
3.009568
 42
-0.244386
  0
VERTEX
  8
0
 10
3.848081
 20
3.142307
 42
0.050955
  0
VERTEX
  8
0
 10
3.816976
 20
3.3287
 42
0.101542
  0
VERTEX
  8
0
 10
3.731354
 20
3.499203
 42
-0.080784
  0
VERTEX
  8
0
 10
3.786995
 20
3.466073
 42
-0.017229
  0
VERTEX
  8
0
 10
3.893267
 20
3.382947
 42
-0.039513
  0
VERTEX
  8
0
 10
4.130036
 20
3.156122
 42
-0.042408
  0
VERTEX
  8
0
 10
4.247908
 20
2.97029
  0
VERTEX
  8
0
 10
4.223067
 20
2.97029
 42
0.156279
  0
VERTEX
  8
0
 10
4.112556
 20
3.095641
 42
0.109517
  0
VERTEX
  8
0
 10
3.956649
 20
3.14551
 42
0.225034
  0
VERTEX
  8
0
 10
3.89991
 20
3.124589
 42
0.212214
  0
VERTEX
  8
0
 10
3.891906
 20
3.107176
 42
0.377638
  0
VERTEX
  8
0
 10
3.906314
 20
3.097938
 42
-0.098306
  0
VERTEX
  8
0
 10
3.949882
 20
3.07238
 42
-0.009837
  0
VERTEX
  8
0
 10
4.02165
 20
3.01546
 42
0.009417
  0
VERTEX
  8
0
 10
4.106676
 20
2.948074
 42
0.052547
  0
VERTEX
  8
0
 10
4.176235
 20
2.903557
 42
-0.014695
  0
VERTEX
  8
0
 10
4.216468
 20
2.82927
 42
0.058098
  0
VERTEX
  8
0
 10
4.30599
 20
2.684825
 42
-0.237723
  0
VERTEX
  8
0
 10
4.320969
 20
2.644017
 42
-0.092425
  0
VERTEX
  8
0
 10
4.305838
 20
2.607425
 42
0.078143
  0
VERTEX
  8
0
 10
4.291939
 20
2.575647
 42
0.238504
  0
VERTEX
  8
0
 10
4.301047
 20
2.54271
 42
0.117637
  0
VERTEX
  8
0
 10
4.360193
 20
2.498215
 42
-0.036813
  0
VERTEX
  8
0
 10
4.398977
 20
2.474469
 42
-0.16525
  0
VERTEX
  8
0
 10
4.421478
 20
2.445047
 42
-0.115768
  0
VERTEX
  8
0
 10
4.41488
 20
2.396177
 42
-0.022975
  0
VERTEX
  8
0
 10
4.403618
 20
2.364758
  0
VERTEX
  8
0
 10
4.403618
 20
2.364758
 42
0.317566
  0
VERTEX
  8
0
 10
4.331942
 20
2.342514
 42
0.144655
  0
VERTEX
  8
0
 10
4.224956
 20
2.371469
 42
-0.001351
  0
VERTEX
  8
0
 10
4.213957
 20
2.372289
 42
-0.060168
  0
VERTEX
  8
0
 10
4.125293
 20
2.398978
 42
-0.020047
  0
VERTEX
  8
0
 10
4.060083
 20
2.427443
 42
-0.13406
  0
VERTEX
  8
0
 10
3.984798
 20
2.50743
 42
-0.057069
  0
VERTEX
  8
0
 10
3.966816
 20
2.549187
 42
-0.154618
  0
SEQEND
  8
0
  0
POLYLINE
  8
0
 66
1
 70
1
  0
VERTEX
  8
0
 10
4.016818
 20
2.373408
 42
0.006607
  0
VERTEX
  8
0
 10
4.216371
 20
2.287173
 42
-0.002304
  0
VERTEX
  8
0
 10
4.407325
 20
2.205342
 42
0.169842
  0
VERTEX
  8
0
 10
4.354186
 20
2.128725
  0
VERTEX
  8
0
 10
4.331942
 20
2.02739
 42
0.141
  0
VERTEX
  8
0
 10
4.273552
 20
2.001117
 42
0.224701
  0
VERTEX
  8
0
 10
4.242967
 20
1.938414
 42
-0.065885
  0
VERTEX
  8
0
 10
4.212072
 20
1.919876
 42
-0.064398
  0
VERTEX
  8
0
 10
4.075113
 20
2.056467
 42
0.03272
  0
VERTEX
  8
0
 10
3.98158
 20
2.157908
 42
0.098089
  0
VERTEX
  8
0
 10
3.864819
 20
2.231293
 42
-0.12466
  0
VERTEX
  8
0
 10
3.920353
 20
2.341013
 42
-0.302432
  0
SEQEND
  8
0
  0
POLYLINE
  8
0
 66
1
 70
1
  0
VERTEX
  8
0
 10
2.821303
 20
2.114529
 42
-0.116936
  0
VERTEX
  8
0
 10
3.159108
 20
2.256252
 42
-0.083765
  0
VERTEX
  8
0
 10
3.522583
 20
2.256438
 42
-0.074001
  0
VERTEX
  8
0
 10
3.846168
 20
2.154589
 42
-0.10806
  0
VERTEX
  8
0
 10
4.0643
 20
1.990207
 42
0.073195
  0
VERTEX
  8
0
 10
4.193344
 20
1.858472
 42
0.116318
  0
VERTEX
  8
0
 10
4.324356
 20
1.807468
 42
-0.272962
  0
VERTEX
  8
0
 10
4.377185
 20
1.765798
 42
-0.152273
  0
VERTEX
  8
0
 10
4.379827
 20
1.686635
 42
-0.210451
  0
VERTEX
  8
0
 10
4.257924
 20
1.528389
 42
-0.045491
  0
VERTEX
  8
0
 10
4.257191
 20
1.506998
 42
0.048677
  0
VERTEX
  8
0
 10
4.256558
 20
1.488592
 42
0.035355
  0
VERTEX
  8
0
 10
3.815708
 20
1.350178
 42
-0.009515
  0
VERTEX
  8
0
 10
3.587543
 20
1.269882
 42
-0.032024
  0
VERTEX
  8
0
 10
3.298237
 20
1.193617
 42
-0.060951
  0
VERTEX
  8
0
 10
3.052506
 20
1.17477
 42
-0.213165
  0
VERTEX
  8
0
 10
2.677467
 20
1.356657
 42
-0.234733
  0
VERTEX
  8
0
 10
2.580141
 20
1.745196
 42
-0.185123
  0
SEQEND
  8
0
  0
POLYLINE
  8
0
 66
1
 70
1
  0
VERTEX
  8
0
 10
4.48904
 20
1.460904
 42
-0.028964
  0
VERTEX
  8
0
 10
4.321267
 20
1.411264
 42
0.000451
  0
VERTEX
  8
0
 10
4.309697
 20
1.408265
 42
0.313664
  0
VERTEX
  8
0
 10
4.336885
 20
1.346475
 42
-0.07842
  0
VERTEX
  8
0
 10
4.345281
 20
1.251854
 42
-0.026658
  0
VERTEX
  8
0
 10
4.334566
 20
1.163054
 42
0.001334
  0
VERTEX
  8
0
 10
4.331942
 20
1.146281
 42
-0.089616
  0
VERTEX
  8
0
 10
4.269698
 20
1.137917
 42
0.000574
  0
VERTEX
  8
0
 10
4.261504
 20
1.137631
 42
-0.000792
  0
VERTEX
  8
0
 10
4.26649
 20
1.154949
 42
0.034483
  0
VERTEX
  8
0
 10
4.287326
 20
1.240091
 42
0.1739
  0
VERTEX
  8
0
 10
4.278803
 20
1.30199
 42
0.17694
  0
VERTEX
  8
0
 10
4.173609
 20
1.350029
 42
0.101289
  0
VERTEX
  8
0
 10
4.056364
 20
1.337828
 42
-0.093516
  0
VERTEX
  8
0
 10
3.64462
 20
1.114161
 42
-0.069168
  0
VERTEX
  8
0
 10
3.207471
 20
1.035109
 42
-0.071644
  0
VERTEX
  8
0
 10
2.836855
 20
1.068538
 42
-0.058528
  0
VERTEX
  8
0
 10
2.705229
 20
1.117389
 42
-0.113544
  0
VERTEX
  8
0
 10
2.624714
 20
1.18231
 42
-0.137691
  0
VERTEX
  8
0
 10
2.588421
 20
1.263985
 42
-0.219201
  0
VERTEX
  8
0
 10
2.615446
 20
1.327942
 42
0.128885
  0
VERTEX
  8
0
 10
2.861739
 20
1.157918
 42
0.098461
  0
VERTEX
  8
0
 10
3.144741
 20
1.119829
 42
0.054293
  0
VERTEX
  8
0
 10
3.441019
 20
1.170015
 42
0.023651
  0
VERTEX
  8
0
 10
3.727139
 20
1.264818
 42
-0.010294
  0
VERTEX
  8
0
 10
4.036708
 20
1.368054
 42
-0.010031
  0
VERTEX
  8
0
 10
4.263979
 20
1.43466
 42
-0.027034
  0
VERTEX
  8
0
 10
4.455143
 20
1.477343
  0
VERTEX
  8
0
 10
4.487651
 20
1.505893
 42
-0.147005
  0
SEQEND
  8
0
  0
POLYLINE
  8
0
 66
1
 70
1
  0
VERTEX
  8
0
 10
4.750871
 20
1.31064
 42
-0.14749
  0
VERTEX
  8
0
 10
4.668228
 20
1.325933
 42
-0.069095
  0
VERTEX
  8
0
 10
4.590219
 20
1.377371
 42
-0.080121
  0
VERTEX
  8
0
 10
4.56129
 20
1.497338
 42
-0.036906
  0
VERTEX
  8
0
 10
4.552058
 20
1.673049
 42
-0.052596
  0
VERTEX
  8
0
 10
4.565636
 20
1.790807
 42
-0.10149
  0
VERTEX
  8
0
 10
4.580626
 20
1.825604
 42
-0.411459
  0
VERTEX
  8
0
 10
4.601644
 20
1.83055
 42
0.150434
  0
VERTEX
  8
0
 10
4.665603
 20
1.808658
 42
0.10018
  0
VERTEX
  8
0
 10
4.67315
 20
1.522026
 42
0.03743
  0
VERTEX
  8
0
 10
4.708871
 20
1.396051
 42
0.062047
  0
SEQEND
  8
0
  0
POLYLINE
  8
0
 66
1
 70
1
  0
VERTEX
  8
0
 10
4.607521
 20
1.168525
  0
VERTEX
  8
0
 10
4.576625
 20
1.31064
 42
-0.000275
  0
VERTEX
  8
0
 10
4.58402
 20
1.306251
 42
0.049272
  0
VERTEX
  8
0
 10
4.68046
 20
1.257051
 42
0.140629
  0
VERTEX
  8
0
 10
4.78961
 20
1.248851
 42
0.117462
  0
VERTEX
  8
0
 10
4.79602
 20
1.187111
 42
0.03738
  0
VERTEX
  8
0
 10
4.82153
 20
1.129086
 42
-0.045712
  0
VERTEX
  8
0
 10
4.848497
 20
1.065954
 42
0.001875
  0
VERTEX
  8
0
 10
4.826317
 20
1.06764
 42
-0.062644
  0
VERTEX
  8
0
 10
4.69867
 20
1.087622
 42
-0.223253
  0
SEQEND
  8
0
  0
POLYLINE
  8
0
 66
1
 70
1
  0
VERTEX
  8
0
 10
6.089219
 20
1.096849
 42
-0.110261
  0
VERTEX
  8
0
 10
6.007796
 20
1.046235
 42
-0.044508
  0
VERTEX
  8
0
 10
5.877027
 20
1.009093
 42
-0.041221
  0
VERTEX
  8
0
 10
5.529783
 20
0.973407
 42
-0.033883
  0
VERTEX
  8
0
 10
5.172159
 20
0.986158
 42
-0.028721
  0
VERTEX
  8
0
 10
5.028412
 20
1.009561
 42
-0.064394
  0
VERTEX
  8
0
 10
4.928822
 20
1.04371
 42
-0.055601
  0
VERTEX
  8
0
 10
4.868099
 20
1.156634
 42
0.015436
  0
VERTEX
  8
0
 10
4.839846
 20
1.216721
 42
0.084643
  0
VERTEX
  8
0
 10
4.950129
 20
1.164999
 42
0.041413
  0
VERTEX
  8
0
 10
5.103548
 20
1.133617
 42
0.042094
  0
VERTEX
  8
0
 10
5.480098
 20
1.122072
 42
0.033036
  0
VERTEX
  8
0
 10
5.850102
 20
1.162485
 42
0.026023
  0
VERTEX
  8
0
 10
5.995337
 20
1.196052
 42
0.0571
  0
VERTEX
  8
0
 10
6.094162
 20
1.235257
 42
-0.247259
  0
SEQEND
  8
0
  0
POLYLINE
  8
0
 66
1
 70
1
  0
VERTEX
  8
0
 10
5.412175
 20
2.302094
 42
-0.077727
  0
VERTEX
  8
0
 10
5.680393
 20
2.285552
 42
-0.119472
  0
VERTEX
  8
0
 10
6.015524
 20
2.137486
 42
-0.130633
  0
VERTEX
  8
0
 10
6.167035
 20
1.922178
 42
-0.093105
  0
VERTEX
  8
0
 10
6.212006
 20
1.664138
 42
-0.08895
  0
VERTEX
  8
0
 10
6.169435
 20
1.426174
 42
-0.150991
  0
VERTEX
  8
0
 10
6.058324
 20
1.271096
 42
-0.053056
  0
VERTEX
  8
0
 10
5.598892
 20
1.17569
 42
-0.062115
  0
VERTEX
  8
0
 10
5.157315
 20
1.181311
 42
-0.009939
  0
VERTEX
  8
0
 10
5.210725
 20
1.194072
 42
0.041457
  0
VERTEX
  8
0
 10
5.282208
 20
1.213956
 42
0.786032
  0
VERTEX
  8
0
 10
5.276486
 20
1.232029
 42
0.000019
  0
VERTEX
  8
0
 10
5.274369
 20
1.232477
 42
-0.075596
  0
VERTEX
  8
0
 10
4.989473
 20
1.329621
 42
-0.107491
  0
VERTEX
  8
0
 10
4.853985
 20
1.445846
 42
-0.1582
  0
VERTEX
  8
0
 10
4.794933
 20
1.628849
 42
0.166989
  0
VERTEX
  8
0
 10
4.785877
 20
1.659544
 42
0.238011
  0
VERTEX
  8
0
 10
4.765799
 20
1.669198
 42
0.340165
  0
VERTEX
  8
0
 10
4.728628
 20
1.630704
 42
0.177977
  0
VERTEX
  8
0
 10
4.849413
 20
1.348232
 42
0.16893
  0
VERTEX
  8
0
 10
5.115899
 20
1.198758
 42
-0.352765
  0
VERTEX
  8
0
 10
5.128071
 20
1.191761
 42
-0.267019
  0
VERTEX
  8
0
 10
5.109874
 20
1.188
 42
-0.072581
  0
VERTEX
  8
0
 10
4.905772
 20
1.240756
 42
-0.142559
  0
VERTEX
  8
0
 10
4.794076
 20
1.351439
 42
-0.145753
  0
VERTEX
  8
0
 10
4.702974
 20
1.645789
 42
-0.114232
  0
VERTEX
  8
0
 10
4.767722
 20
1.926451
 42
-0.0941
  0
VERTEX
  8
0
 10
4.929981
 20
2.14814
 42
-0.123371
  0
VERTEX
  8
0
 10
5.131414
 20
2.265575
 42
-0.038036
  0
VERTEX
  8
0
 10
5.303665
 20
2.290163
 42
0.013238
  0
SEQEND
  8
0
  0
POLYLINE
  8
0
 66
1
 70
1
  0
VERTEX
  8
0
 10
5.072478
 20
2.414744
 42
0.487532
  0
VERTEX
  8
0
 10
5.08824
 20
2.450028
 42
0.003581
  0
VERTEX
  8
0
 10
5.092534
 20
2.45007
 42
-0.083684
  0
VERTEX
  8
0
 10
5.114637
 20
2.448013
 42
-0.400586
  0
VERTEX
  8
0
 10
5.124075
 20
2.431492
 42
0.028944
  0
VERTEX
  8
0
 10
5.119677
 20
2.389624
 42
-0.12741
  0
VERTEX
  8
0
 10
5.101833
 20
2.311619
 42
0.083631
  0
VERTEX
  8
0
 10
4.966129
 20
2.242523
 42
0.05091
  0
VERTEX
  8
0
 10
4.839629
 20
2.129639
 42
0.097847
  0
VERTEX
  8
0
 10
4.674101
 20
1.871807
 42
-0.286885
  0
VERTEX
  8
0
 10
4.626711
 20
1.874781
 42
-0.089162
  0
VERTEX
  8
0
 10
4.560261
 20
1.926961
 42
-0.164443
  0
VERTEX
  8
0
 10
4.465975
 20
2.1335
 42
0.002865
  0
VERTEX
  8
0
 10
4.461568
 20
2.182431
 42
-0.032891
  0
VERTEX
  8
0
 10
4.452369
 20
2.362416
 42
-0.075254
  0
VERTEX
  8
0
 10
4.464121
 20
2.431642
 42
-0.236568
  0
VERTEX
  8
0
 10
4.496303
 20
2.467329
 42
-0.063375
  0
VERTEX
  8
0
 10
4.621672
 20
2.423028
 42
0.029198
  0
VERTEX
  8
0
 10
4.70966
 20
2.387519
 42
0.087456
  0
VERTEX
  8
0
 10
4.804011
 20
2.373408
 42
0.05708
  0
SEQEND
  8
0
  0
POLYLINE
  8
0
 66
1
 70
1
  0
VERTEX
  8
0
 10
5.293643
 20
4.872697
 42
-0.05083
  0
VERTEX
  8
0
 10
5.268581
 20
4.598672
 42
-0.026451
  0
VERTEX
  8
0
 10
5.183775
 20
4.229209
 42
-0.034438
  0
VERTEX
  8
0
 10
5.057069
 20
3.870483
 42
-0.032598
  0
VERTEX
  8
0
 10
4.98358
 20
3.728327
 42
-0.064219
  0
VERTEX
  8
0
 10
4.906307
 20
3.628671
 42
0.142478
  0
VERTEX
  8
0
 10
4.848449
 20
3.498536
 42
0.074377
  0
VERTEX
  8
0
 10
4.845385
 20
3.418705
 42
0.143304
  0
VERTEX
  8
0
 10
4.870397
 20
3.354807
 42
0.004283
  0
VERTEX
  8
0
 10
4.879868
 20
3.34384
 42
-0.070154
  0
VERTEX
  8
0
 10
4.910675
 20
3.301513
 42
-0.2377
  0
VERTEX
  8
0
 10
4.910128
 20
3.252686
 42
0.189967
  0
VERTEX
  8
0
 10
4.884335
 20
2.881312
 42
0.073311
  0
VERTEX
  8
0
 10
4.925866
 20
2.830386
 42
-0.091196
  0
VERTEX
  8
0
 10
4.967872
 20
2.776733
 42
-0.256451
  0
VERTEX
  8
0
 10
4.959718
 20
2.707069
 42
0.237245
  0
VERTEX
  8
0
 10
4.963425
 20
2.645279
 42
0.060392
  0
VERTEX
  8
0
 10
4.995629
 20
2.623294
 42
-0.13086
  0
VERTEX
  8
0
 10
5.038254
 20
2.588006
 42
-0.107494
  0
VERTEX
  8
0
 10
5.042405
 20
2.534273
 42
0.173545
  0
VERTEX
  8
0
 10
5.057344
 20
2.458676
 42
0.013523
  0
VERTEX
  8
0
 10
4.958989
 20
2.447373
 42
-0.022947
  0
VERTEX
  8
0
 10
4.839251
 20
2.435077
 42
-0.061293
  0
VERTEX
  8
0
 10
4.713707
 20
2.444218
 42
-0.068611
  0
VERTEX
  8
0
 10
4.570725
 20
2.495453
 42
-0.050821
  0
VERTEX
  8
0
 10
4.398675
 20
2.609443
  0
VERTEX
  8
0
 10
4.403618
 20
2.653931
 42
-0.0366
  0
VERTEX
  8
0
 10
4.425449
 20
2.629152
 42
0.052713
  0
VERTEX
  8
0
 10
4.458443
 20
2.593479
 42
0.264778
  0
VERTEX
  8
0
 10
4.496303
 20
2.58349
 42
0.30111
  0
VERTEX
  8
0
 10
4.4862
 20
2.655671
 42
0.075549
  0
VERTEX
  8
0
 10
4.425441
 20
2.705385
 42
-0.006397
  0
VERTEX
  8
0
 10
4.4087
 20
2.716706
 42
-0.12815
  0
VERTEX
  8
0
 10
4.313971
 20
2.829412
 42
-0.160329
  0
VERTEX
  8
0
 10
4.305633
 20
2.888406
 42
-0.256014
  0
VERTEX
  8
0
 10
4.345536
 20
2.929508
 42
-0.33068
  0
VERTEX
  8
0
 10
4.372698
 20
2.921717
 42
-0.096151
  0
VERTEX
  8
0
 10
4.382604
 20
2.892656
 42
0.091477
  0
VERTEX
  8
0
 10
4.39381
 20
2.859862
 42
0.282183
  0
VERTEX
  8
0
 10
4.425861
 20
2.845476
 42
0.152154
  0
VERTEX
  8
0
 10
4.44017
 20
2.884987
 42
0.050557
  0
VERTEX
  8
0
 10
4.437071
 20
2.927688
 42
-0.009588
  0
VERTEX
  8
0
 10
4.434512
 20
2.948046
 42
0.153047
  0
VERTEX
  8
0
 10
4.355677
 20
2.989069
 42
-0.06945
  0
VERTEX
  8
0
 10
4.301912
 20
3.009644
 42
-0.168335
  0
VERTEX
  8
0
 10
4.261504
 20
3.059264
 42
-0.047439
  0
VERTEX
  8
0
 10
4.237094
 20
3.226941
 42
0.065861
  0
VERTEX
  8
0
 10
4.203422
 20
3.423819
  0
VERTEX
  8
0
 10
4.229626
 20
3.441121
 42
-0.102652
  0
VERTEX
  8
0
 10
4.245052
 20
3.372286
 42
0.050227
  0
VERTEX
  8
0
 10
4.25246
 20
3.323726
 42
0.147184
  0
VERTEX
  8
0
 10
4.278803
 20
3.281706
 42
0.200633
  0
VERTEX
  8
0
 10
4.309336
 20
3.298357
 42
0.070733
  0
VERTEX
  8
0
 10
4.326936
 20
3.330083
 42
-0.038357
  0
VERTEX
  8
0
 10
4.346894
 20
3.369735
 42
-0.120078
  0
VERTEX
  8
0
 10
4.363885
 20
3.387946
 42
-0.215831
  0
VERTEX
  8
0
 10
4.404261
 20
3.385016
 42
0.004854
  0
VERTEX
  8
0
 10
4.415704
 20
3.38145
 42
0.25971
  0
VERTEX
  8
0
 10
4.447095
 20
3.387271
 42
0.165878
  0
VERTEX
  8
0
 10
4.464841
 20
3.419228
 42
0.216422
  0
VERTEX
  8
0
 10
4.439456
 20
3.51774
 42
0.112378
  0
VERTEX
  8
0
 10
4.361584
 20
3.527322
 42
0.035423
  0
VERTEX
  8
0
 10
4.282093
 20
3.513408
 42
-0.007373
  0
VERTEX
  8
0
 10
4.245343
 20
3.505571
 42
-0.093034
  0
VERTEX
  8
0
 10
3.887181
 20
3.50639
 42
-0.200133
  0
VERTEX
  8
0
 10
3.406343
 20
3.819269
  0
VERTEX
  8
0
 10
3.353207
 20
3.908246
  0
VERTEX
  8
0
 10
3.368162
 20
3.927587
 42
0.157642
  0
VERTEX
  8
0
 10
3.84879
 20
3.586736
 42
0.060444
  0
VERTEX
  8
0
 10
4.08262
 20
3.539075
 42
0.091954
  0
VERTEX
  8
0
 10
4.244975
 20
3.55126
 42
0.393744
  0
VERTEX
  8
0
 10
4.26286
 20
3.582647
 42
0.456208
  0
VERTEX
  8
0
 10
4.236443
 20
3.600915
 42
-0.132362
  0
VERTEX
  8
0
 10
4.027553
 20
3.607123
 42
-0.081496
  0
VERTEX
  8
0
 10
3.827698
 20
3.703869
 42
-0.117376
  0
VERTEX
  8
0
 10
3.549696
 20
4.007107
 42
0.268812
  0
VERTEX
  8
0
 10
3.615819
 20
4.099873
 42
0.093659
  0
VERTEX
  8
0
 10
3.611485
 20
4.157874
  0
VERTEX
  8
0
 10
3.611485
 20
4.157874
 42
-0.044701
  0
VERTEX
  8
0
 10
3.751067
 20
4.180617
 42
0.019288
  0
VERTEX
  8
0
 10
3.858471
 20
4.194835
 42
0.070004
  0
VERTEX
  8
0
 10
3.953757
 20
4.224439
 42
0.149119
  0
VERTEX
  8
0
 10
4.0199
 20
4.284292
 42
0.150045
  0
VERTEX
  8
0
 10
4.039875
 20
4.389256
 42
0.096747
  0
VERTEX
  8
0
 10
3.997881
 20
4.518717
 42
-0.048167
  0
VERTEX
  8
0
 10
3.962444
 20
4.607696
 42
-0.004202
  0
VERTEX
  8
0
 10
4.418966
 20
4.974199
 42
0.005444
  0
VERTEX
  8
0
 10
4.941181
 20
5.394886
 42
-0.204675
  0
VERTEX
  8
0
 10
4.980048
 20
5.401497
 42
-0.07222
  0
VERTEX
  8
0
 10
5.015206
 20
5.385422
 42
0.191838
  0
VERTEX
  8
0
 10
5.079589
 20
5.367701
 42
-0.069761
  0
VERTEX
  8
0
 10
5.227326
 20
5.135587
 42
-0.091574
  0
SEQEND
  8
0
  0
POLYLINE
  8
0
 66
1
 70
1
  0
VERTEX
  8
0
 10
6.685117
 20
5.630492
 42
-0.1158
  0
VERTEX
  8
0
 10
6.78056
 20
5.490304
 42
-0.120301
  0
VERTEX
  8
0
 10
6.795058
 20
5.36392
 42
-0.102256
  0
VERTEX
  8
0
 10
6.762556
 20
5.268359
 42
-0.140472
  0
VERTEX
  8
0
 10
6.716996
 20
5.220642
 42
-0.065824
  0
VERTEX
  8
0
 10
6.687709
 20
5.239062
 42
0.065538
  0
VERTEX
  8
0
 10
6.659909
 20
5.256621
 42
0.206272
  0
VERTEX
  8
0
 10
6.628018
 20
5.256479
 42
-0.128944
  0
VERTEX
  8
0
 10
6.509922
 20
5.223952
 42
-0.065359
  0
VERTEX
  8
0
 10
6.352065
 20
5.23777
 42
-0.058291
  0
VERTEX
  8
0
 10
6.189761
 20
5.292146
 42
-0.084509
  0
VERTEX
  8
0
 10
6.058324
 20
5.381294
 42
0.130073
  0
VERTEX
  8
0
 10
5.827184
 20
5.524223
 42
-0.110156
  0
VERTEX
  8
0
 10
5.680175
 20
5.603735
 42
0.117883
  0
VERTEX
  8
0
 10
5.585287
 20
5.628549
 42
0.078276
  0
VERTEX
  8
0
 10
5.482819
 20
5.596848
 42
0.011979
  0
VERTEX
  8
0
 10
5.340652
 20
5.529891
 42
-0.014403
  0
VERTEX
  8
0
 10
5.18168
 20
5.455624
 42
-0.101506
  0
VERTEX
  8
0
 10
5.068679
 20
5.425193
 42
-0.186832
  0
VERTEX
  8
0
 10
4.998959
 20
5.460349
 42
-0.100317
  0
VERTEX
  8
0
 10
4.953923
 20
5.537563
 42
-0.081591
  0
VERTEX
  8
0
 10
4.921461
 20
5.739678
 42
0.096533
  0
VERTEX
  8
0
 10
4.867407
 20
6.025644
 42
-0.097104
  0
VERTEX
  8
0
 10
4.845299
 20
6.116751
 42
-0.16943
  0
VERTEX
  8
0
 10
4.862546
 20
6.175213
 42
-0.169705
  0
VERTEX
  8
0
 10
4.907464
 20
6.203561
 42
-0.108723
  0
VERTEX
  8
0
 10
4.968368
 20
6.204322
 42
-0.041106
  0
VERTEX
  8
0
 10
5.018677
 20
6.058414
 42
-0.01184
  0
VERTEX
  8
0
 10
5.055997
 20
5.899501
 42
0.046028
  0
VERTEX
  8
0
 10
5.122613
 20
5.658675
 42
0.113469
  0
VERTEX
  8
0
 10
5.171621
 20
5.587095
 42
0.2247
  0
VERTEX
  8
0
 10
5.240757
 20
5.568211
 42
0.316328
  0
VERTEX
  8
0
 10
5.247066
 20
5.590339
 42
0.261632
  0
VERTEX
  8
0
 10
5.232968
 20
5.615606
 42
-0.156606
  0
VERTEX
  8
0
 10
5.19553
 20
5.647221
 42
-0.061685
  0
VERTEX
  8
0
 10
5.165088
 20
5.708857
 42
-0.026489
  0
VERTEX
  8
0
 10
5.111001
 20
5.901848
 42
0.026542
  0
VERTEX
  8
0
 10
5.017485
 20
6.22711
 42
-0.363823
  0
VERTEX
  8
0
 10
5.056482
 20
6.357468
 42
-0.214696
  0
VERTEX
  8
0
 10
5.190808
 20
6.382274
 42
0.017632
  0
VERTEX
  8
0
 10
5.23394
 20
6.202453
 42
-0.036974
  0
VERTEX
  8
0
 10
5.288918
 20
5.944653
 42
0.076145
  0
VERTEX
  8
0
 10
5.315735
 20
5.8202
 42
0.224197
  0
VERTEX
  8
0
 10
5.394478
 20
5.750178
 42
0.155972
  0
VERTEX
  8
0
 10
5.415508
 20
5.770917
 42
0.086835
  0
VERTEX
  8
0
 10
5.423321
 20
5.787075
 42
0.46581
  0
VERTEX
  8
0
 10
5.419032
 20
5.796401
 42
-0.201318
  0
VERTEX
  8
0
 10
5.391003
 20
5.812579
 42
-0.133942
  0
VERTEX
  8
0
 10
5.346105
 20
5.892147
 42
-0.050318
  0
VERTEX
  8
0
 10
5.334926
 20
5.979062
 42
0.046782
  0
VERTEX
  8
0
 10
5.292413
 20
6.166635
 42
-0.015596
  0
VERTEX
  8
0
 10
5.256148
 20
6.304686
 42
-0.071188
  0
VERTEX
  8
0
 10
5.243947
 20
6.421819
 42
-0.218169
  0
VERTEX
  8
0
 10
5.354804
 20
6.520608
 42
-0.114355
  0
VERTEX
  8
0
 10
5.502225
 20
6.524389
  0
VERTEX
  8
0
 10
5.529411
 20
6.502146
 42
-0.260663
  0
VERTEX
  8
0
 10
5.497028
 20
6.466596
 42
-0.158685
  0
VERTEX
  8
0
 10
5.466154
 20
6.474633
 42
0.09465
  0
VERTEX
  8
0
 10
5.450399
 20
6.480477
 42
0.388657
  0
VERTEX
  8
0
 10
5.440435
 20
6.47125
 42
0.23469
  0
VERTEX
  8
0
 10
5.478434
 20
6.429638
 42
-0.095268
  0
VERTEX
  8
0
 10
5.510875
 20
6.404518
 42
-0.072795
  0
VERTEX
  8
0
 10
5.560284
 20
6.292901
 42
-0.023551
  0
VERTEX
  8
0
 10
5.587891
 20
6.171783
 42
0.000435
  0
VERTEX
  8
0
 10
5.591201
 20
6.154892
 42
0.284972
  0
VERTEX
  8
0
 10
5.688877
 20
6.049105
 42
0.149403
  0
VERTEX
  8
0
 10
5.802821
 20
6.047807
 42
0.042489
  0
VERTEX
  8
0
 10
5.843024
 20
6.072992
 42
-0.019908
  0
VERTEX
  8
0
 10
5.873471
 20
6.093072
 42
-0.165964
  0
VERTEX
  8
0
 10
5.915401
 20
6.096683
 42
-0.106979
  0
VERTEX
  8
0
 10
5.965023
 20
6.075854
 42
-0.437631
  0
VERTEX
  8
0
 10
5.986429
 20
5.9732
 42
-0.050708
  0
VERTEX
  8
0
 10
5.938468
 20
5.912935
 42
0.128743
  0
VERTEX
  8
0
 10
5.878615
 20
5.821033
 42
0.275838
  0
VERTEX
  8
0
 10
5.89903
 20
5.763374
 42
0.097398
  0
VERTEX
  8
0
 10
5.966018
 20
5.724778
 42
0.079214
  0
VERTEX
  8
0
 10
6.096122
 20
5.69771
 42
-0.061804
  0
VERTEX
  8
0
 10
6.31072
 20
5.688335
 42
-0.134302
  0
VERTEX
  8
0
 10
6.547694
 20
5.572839
 42
0.161597
  0
VERTEX
  8
0
 10
6.596871
 20
5.548787
 42
0.046073
  0
VERTEX
  8
0
 10
6.654518
 20
5.545947
 42
-0.000495
  0
VERTEX
  8
0
 10
6.660393
 20
5.546012
 42
0.460002
  0
VERTEX
  8
0
 10
6.685088
 20
5.56945
 42
0.375161
  0
VERTEX
  8
0
 10
6.65735
 20
5.595849
 42
-0.096525
  0
VERTEX
  8
0
 10
6.582617
 20
5.621333
 42
-0.030958
  0
VERTEX
  8
0
 10
6.515468
 20
5.665699
 42
0.099937
  0
VERTEX
  8
0
 10
6.391985
 20
5.732254
 42
0.042235
  0
VERTEX
  8
0
 10
6.022486
 20
5.764385
 42
0.061447
  0
VERTEX
  8
0
 10
5.989018
 20
5.7901
 42
-0.100908
  0
VERTEX
  8
0
 10
5.947106
 20
5.826174
 42
-0.05299
  0
VERTEX
  8
0
 10
5.996323
 20
5.89213
 42
0.044511
  0
VERTEX
  8
0
 10
6.037493
 20
5.945722
 42
0.122726
  0
VERTEX
  8
0
 10
6.058324
 20
6.011968
 42
0.070501
  0
VERTEX
  8
0
 10
6.194318
 20
5.98357
 42
-0.000704
  0
VERTEX
  8
0
 10
6.20909
 20
5.981881
 42
0.031798
  0
VERTEX
  8
0
 10
6.429494
 20
5.774211
 42
0.095452
  0
SEQEND
  8
0
  0
POLYLINE
  8
0
 66
1
 70
1
  0
VERTEX
  8
0
 10
7.064446
 20
6.587725
 42
-0.157448
  0
VERTEX
  8
0
 10
6.930701
 20
6.257602
 42
-0.127983
  0
VERTEX
  8
0
 10
6.662273
 20
6.077114
 42
-0.153834
  0
VERTEX
  8
0
 10
6.044731
 20
6.057264
 42
0.200362
  0
VERTEX
  8
0
 10
5.953836
 20
6.131703
 42
0.165638
  0
VERTEX
  8
0
 10
5.833164
 20
6.127622
 42
-0.117357
  0
VERTEX
  8
0
 10
5.759694
 20
6.126342
  0
VERTEX
  8
0
 10
5.759694
 20
6.126342
 42
-0.264277
  0
VERTEX
  8
0
 10
5.893045
 20
6.184175
 42
-0.085478
  0
VERTEX
  8
0
 10
6.032434
 20
6.132141
 42
0.002778
  0
VERTEX
  8
0
 10
6.060022
 20
6.118446
 42
0.10505
  0
VERTEX
  8
0
 10
6.285924
 20
6.074802
 42
0.08155
  0
VERTEX
  8
0
 10
6.582986
 20
6.120696
 42
0.108022
  0
VERTEX
  8
0
 10
6.86702
 20
6.28419
 42
0.139958
  0
VERTEX
  8
0
 10
7.053836
 20
6.593346
 42
-0.333153
  0
VERTEX
  8
0
 10
7.062185
 20
6.606956
 42
-0.196949
  0
SEQEND
  8
0
  0
POLYLINE
  8
0
 66
1
 70
1
  0
VERTEX
  8
0
 10
4.137824
 20
8.569707
 42
0.269561
  0
VERTEX
  8
0
 10
4.127598
 20
8.594065
 42
0.281938
  0
VERTEX
  8
0
 10
4.118
 20
8.587242
 42
0.065229
  0
VERTEX
  8
0
 10
4.106174
 20
8.56065
 42
-0.003688
  0
VERTEX
  8
0
 10
4.097112
 20
8.532828
 42
0.0735
  0
VERTEX
  8
0
 10
4.073375
 20
8.432338
 42
0.401946
  0
VERTEX
  8
0
 10
4.120997
 20
8.374488
 42
0.274835
  0
VERTEX
  8
0
 10
4.175537
 20
8.389118
 42
0.138497
  0
VERTEX
  8
0
 10
4.203581
 20
8.446388
 42
0.172466
  0
VERTEX
  8
0
 10
4.190689
 20
8.576864
 42
-0.089666
  0
VERTEX
  8
0
 10
4.170488
 20
8.552463
 42
-0.192077
  0
VERTEX
  8
0
 10
4.153812
 20
8.546354
 42
-0.378459
  0
SEQEND
  8
0
  0
POLYLINE
  8
0
 66
1
 70
1
  0
VERTEX
  8
0
 10
4.597508
 20
8.51374
 42
-0.172832
  0
VERTEX
  8
0
 10
4.588766
 20
8.549393
 42
-0.029968
  0
VERTEX
  8
0
 10
4.590219
 20
8.575779
 42
0.194388
  0
VERTEX
  8
0
 10
4.547397
 20
8.540631
 42
0.079278
  0
VERTEX
  8
0
 10
4.519938
 20
8.47409
 42
0.065492
  0
VERTEX
  8
0
 10
4.510999
 20
8.401537
 42
0.139449
  0
VERTEX
  8
0
 10
4.523739
 20
8.348358
 42
0.319837
  0
VERTEX
  8
0
 10
4.561129
 20
8.336343
 42
0.148425
  0
VERTEX
  8
0
 10
4.609002
 20
8.36703
 42
0.234321
  0
VERTEX
  8
0
 10
4.649664
 20
8.531293
 42
0.447372
  0
VERTEX
  8
0
 10
4.637625
 20
8.536512
 42
0.082848
  0
VERTEX
  8
0
 10
4.623724
 20
8.525381
 42
-0.057674
  0
VERTEX
  8
0
 10
4.61056
 20
8.514287
 42
-0.308305
  0
SEQEND
  8
0
  0
POLYLINE
  8
0
 66
1
 70
1
  0
VERTEX
  8
0
 10
5.194382
 20
7.516406
 42
0.194566
  0
VERTEX
  8
0
 10
5.316712
 20
7.577739
 42
0.045026
  0
VERTEX
  8
0
 10
5.418585
 20
7.709956
 42
-0.033456
  0
VERTEX
  8
0
 10
5.515236
 20
7.838747
 42
-0.119425
  0
VERTEX
  8
0
 10
5.635957
 20
7.927217
 42
0.021115
  0
VERTEX
  8
0
 10
5.709651
 20
7.963363
 42
0.064305
  0
VERTEX
  8
0
 10
5.799293
 20
8.022597
 42
0.204783
  0
VERTEX
  8
0
 10
5.812954
 20
8.053596
 42
0.687215
  0
VERTEX
  8
0
 10
5.796499
 20
8.060144
 42
-0.012009
  0
VERTEX
  8
0
 10
5.633875
 20
7.975051
 42
0.003474
  0
VERTEX
  8
0
 10
5.546712
 20
7.930704
 42
0.092879
  0
VERTEX
  8
0
 10
5.465946
 20
7.858883
 42
0.021127
  0
VERTEX
  8
0
 10
5.388004
 20
7.753824
 42
-0.031344
  0
VERTEX
  8
0
 10
5.292822
 20
7.628904
 42
-0.155321
  0
VERTEX
  8
0
 10
5.190999
 20
7.560267
 42
0.464706
  0
VERTEX
  8
0
 10
5.179552
 20
7.536405
 42
0.278389
  0
SEQEND
  8
0
  0
POLYLINE
  8
0
 66
1
 70
1
  0
VERTEX
  8
0
 10
4.516935
 20
7.596819
 42
0.085776
  0
VERTEX
  8
0
 10
4.541557
 20
7.573654
 42
0.233493
  0
VERTEX
  8
0
 10
4.560464
 20
7.570499
 42
0.191842
  0
VERTEX
  8
0
 10
4.574004
 20
7.585055
 42
0.069397
  0
VERTEX
  8
0
 10
4.582522
 20
7.615022
 42
-0.03648
  0
VERTEX
  8
0
 10
4.608672
 20
7.731742
 42
-0.086943
  0
VERTEX
  8
0
 10
4.661894
 20
7.836785
  0
VERTEX
  8
0
 10
4.652008
 20
7.863972
 42
0.163684
  0
VERTEX
  8
0
 10
4.604431
 20
7.832125
 42
0.058895
  0
VERTEX
  8
0
 10
4.577342
 20
7.783573
 42
-0.140186
  0
VERTEX
  8
0
 10
4.523489
 20
7.708263
 42
-0.145754
  0
VERTEX
  8
0
 10
4.323292
 20
7.734215
 42
0.129367
  0
VERTEX
  8
0
 10
4.283746
 20
7.686022
 42
0.021619
  0
VERTEX
  8
0
 10
4.344322
 20
7.673583
 42
-0.044738
  0
VERTEX
  8
0
 10
4.437509
 20
7.651368
 42
-0.137335
  0
SEQEND
  8
0
  0
POLYLINE
  8
0
 66
1
 70
1
  0
VERTEX
  8
0
 10
4.047214
 20
5.790228
 42
0.428274
  0
VERTEX
  8
0
 10
3.954333
 20
5.870369
 42
0.387286
  0
VERTEX
  8
0
 10
3.86816
 20
5.772379
 42
0.266027
  0
VERTEX
  8
0
 10
3.895861
 20
5.710762
 42
0.176515
  0
VERTEX
  8
0
 10
3.961198
 20
5.694857
 42
0.169951
  0
VERTEX
  8
0
 10
4.02478
 20
5.722175
 42
0.245706
  0
SEQEND
  8
0
  0
POLYLINE
  8
0
 66
1
 70
1
  0
VERTEX
  8
0
 10
3.948389
 20
5.814101
 42
-0.422913
  0
VERTEX
  8
0
 10
3.995989
 20
5.801427
 42
-0.302902
  0
VERTEX
  8
0
 10
3.989651
 20
5.749643
 42
0.741178
  0
SEQEND
  8
0
  0
POLYLINE
  8
0
 66
1
 70
1
  0
VERTEX
  8
0
 10
4.696649
 20
3.272899
 42
-0.156796
  0
VERTEX
  8
0
 10
4.743977
 20
3.264481
 42
-0.218504
  0
VERTEX
  8
0
 10
4.762885
 20
3.235098
 42
-0.135384
  0
VERTEX
  8
0
 10
4.7427
 20
3.140667
 42
-0.046318
  0
VERTEX
  8
0
 10
4.661133
 20
2.999768
  0
VERTEX
  8
0
 10
4.678732
 20
2.986644
  0
VERTEX
  8
0
 10
4.678732
 20
2.986644
 42
0.063782
  0
VERTEX
  8
0
 10
4.799519
 20
3.150294
 42
0.068154
  0
VERTEX
  8
0
 10
4.821383
 20
3.210286
 42
0.151675
  0
VERTEX
  8
0
 10
4.817797
 20
3.26252
 42
0.197203
  0
VERTEX
  8
0
 10
4.777701
 20
3.299303
 42
0.099996
  0
VERTEX
  8
0
 10
4.690037
 20
3.312939
 42
-0.079421
  0
VERTEX
  8
0
 10
4.631292
 20
3.320575
 42
-0.153551
  0
VERTEX
  8
0
 10
4.59733
 20
3.342744
 42
-0.18337
  0
VERTEX
  8
0
 10
4.587741
 20
3.377402
 42
-0.105188
  0
VERTEX
  8
0
 10
4.602114
 20
3.422506
 42
0.640054
  0
VERTEX
  8
0
 10
4.578746
 20
3.442615
 42
0.150372
  0
VERTEX
  8
0
 10
4.533527
 20
3.375537
 42
0.233014
  0
VERTEX
  8
0
 10
4.545211
 20
3.319264
 42
0.152968
  0
VERTEX
  8
0
 10
4.603139
 20
3.282238
 42
0.092933
  0
SEQEND
  8
0
  0
POLYLINE
  8
0
 66
1
 70
1
  0
VERTEX
  8
0
 10
4.541194
 20
2.839654
 42
0.331156
  0
VERTEX
  8
0
 10
4.532793
 20
2.880773
 42
0.303592
  0
VERTEX
  8
0
 10
4.516137
 20
2.879127
 42
0.137029
  0
VERTEX
  8
0
 10
4.497979
 20
2.85329
 42
0.140081
  0
VERTEX
  8
0
 10
4.485769
 20
2.780819
 42
0.173846
  0
VERTEX
  8
0
 10
4.515771
 20
2.726076
 42
0.103714
  0
VERTEX
  8
0
 10
4.583416
 20
2.688498
 42
0.054313
  0
VERTEX
  8
0
 10
4.68414
 20
2.667524
 42
0.027069
  0
VERTEX
  8
0
 10
4.741666
 20
2.708676
 42
-0.043887
  0
VERTEX
  8
0
 10
4.804678
 20
2.75197
 42
-0.180679
  0
VERTEX
  8
0
 10
4.867344
 20
2.762987
 42
0.187831
  0
VERTEX
  8
0
 10
4.891824
 20
2.764948
 42
0.255028
  0
VERTEX
  8
0
 10
4.900688
 20
2.778855
 42
0.433856
  0
VERTEX
  8
0
 10
4.872943
 20
2.803201
 42
0.125468
  0
VERTEX
  8
0
 10
4.782486
 20
2.781543
 42
0.038113
  0
VERTEX
  8
0
 10
4.702609
 20
2.731966
 42
-0.011358
  0
VERTEX
  8
0
 10
4.665603
 20
2.707069
 42
0.059884
  0
VERTEX
  8
0
 10
4.621316
 20
2.724346
 42
-0.112252
  0
VERTEX
  8
0
 10
4.552664
 20
2.75686
 42
-0.162559
  0
VERTEX
  8
0
 10
4.535469
 20
2.789057
 42
-0.122804
  0
SEQEND
  8
0
  0
POLYLINE
  8
0
 66
1
 70
1
  0
VERTEX
  8
0
 10
4.069957
 20
2.54271
 42
0.256478
  0
VERTEX
  8
0
 10
4.066317
 20
2.503052
 42
0.178947
  0
VERTEX
  8
0
 10
4.107664
 20
2.476143
 42
0.03079
  0
VERTEX
  8
0
 10
4.343428
 20
2.411526
 42
0.671315
  0
VERTEX
  8
0
 10
4.347221
 20
2.433292
 42
-0.022312
  0
VERTEX
  8
0
 10
4.230225
 20
2.468136
 42
-0.074292
  0
VERTEX
  8
0
 10
4.114446
 20
2.520465
 42
-0.08493
  0
VERTEX
  8
0
 10
4.189912
 20
2.545107
 42
0.06514
  0
VERTEX
  8
0
 10
4.256558
 20
2.564953
 42
0.157621
  0
VERTEX
  8
0
 10
4.242967
 20
2.631686
 42
0.026445
  0
VERTEX
  8
0
 10
4.13978
 20
2.677103
 42
0.035524
  0
VERTEX
  8
0
 10
4.048517
 20
2.705064
 42
0.090055
  0
VERTEX
  8
0
 10
3.96434
 20
2.710918
 42
0.241215
  0
VERTEX
  8
0
 10
3.966214
 20
2.691151
 42
0.170025
  0
VERTEX
  8
0
 10
3.977558
 20
2.67195
 42
-0.058703
  0
VERTEX
  8
0
 10
4.097734
 20
2.654044
 42
-0.104208
  0
VERTEX
  8
0
 10
4.203422
 20
2.600792
 42
-0.087083
  0
VERTEX
  8
0
 10
4.149871
 20
2.584339
 42
0.055147
  0
VERTEX
  8
0
 10
4.106077
 20
2.572847
 42
0.153827
  0
SEQEND
  8
0
  0
POLYLINE
  8
0
 66
1
 70
1
  0
VERTEX
  8
0
 10
4.642332
 20
2.603162
 42
0.224436
  0
VERTEX
  8
0
 10
4.600014
 20
2.584542
 42
0.386417
  0
VERTEX
  8
0
 10
4.604803
 20
2.573396
 42
0.11106
  0
VERTEX
  8
0
 10
4.630208
 20
2.565817
 42
0.076393
  0
VERTEX
  8
0
 10
4.773887
 20
2.577694
 42
-0.037374
  0
VERTEX
  8
0
 10
4.882211
 20
2.592046
 42
-0.477375
  0
VERTEX
  8
0
 10
4.922502
 20
2.558288
 42
-0.289316
  0
VERTEX
  8
0
 10
4.881946
 20
2.5062
 42
0.345421
  0
VERTEX
  8
0
 10
4.866092
 20
2.481299
 42
0.502051
  0
VERTEX
  8
0
 10
4.888729
 20
2.470292
 42
0.151152
  0
VERTEX
  8
0
 10
4.953108
 20
2.51102
 42
0.171622
  0
VERTEX
  8
0
 10
4.974275
 20
2.567013
 42
0.45119
  0
VERTEX
  8
0
 10
4.894947
 20
2.637132
 42
0.042342
  0
VERTEX
  8
0
 10
4.731177
 20
2.617436
 42
-0.013176
  0
SEQEND
  8
0
  0
POLYLINE
  8
0
 66
1
 70
1
  0
VERTEX
  8
0
 10
3.122114
 20
1.213012
  0
VERTEX
  8
0
 10
3.118961
 20
1.236619
  0
VERTEX
  8
0
 10
2.944164
 20
1.293339
 42
-0.132986
  0
VERTEX
  8
0
 10
2.724812
 20
1.489209
 42
-0.162952
  0
VERTEX
  8
0
 10
2.650049
 20
1.755519
  0
VERTEX
  8
0
 10
2.619153
 20
1.760462
  0
VERTEX
  8
0
 10
2.612117
 20
1.658447
 42
0.118165
  0
VERTEX
  8
0
 10
2.677502
 20
1.430532
 42
0.122475
  0
VERTEX
  8
0
 10
2.809093
 20
1.297594
 42
0.081007
  0
VERTEX
  8
0
 10
2.969695
 20
1.233724
 42
0.042888
  0
SEQEND
  8
0
  0
ENDSEC
  0
EOF
