  0
SECTION
  2
HEADER
  9
$ACADVER
  1
AC1015
  9
$ACADMAINTVER
 70
     6
  9
$DWGCODEPAGE
  3
ANSI_1250
  9
$INSBASE
 10
0.0
 20
0.0
 30
0.0
  9
$EXTMIN
 10
0.0
 20
0.0
 30
0.0
  9
$EXTMAX
 10
279.4
 20
215.9
 30
0.0
  9
$LIMMIN
 10
0.0
 20
0.0
  9
$LIMMAX
 10
279.4
 20
215.9
  9
$ORTHOMODE
 70
     0
  9
$REGENMODE
 70
     1
  9
$FILLMODE
 70
     1
  9
$QTEXTMODE
 70
     0
  9
$MIRRTEXT
 70
     1
  9
$LTSCALE
 40
1.0
  9
$ATTMODE
 70
     1
  9
$TEXTSIZE
 40
3.5
  9
$TRACEWID
 40
1.0
  9
$TEXTSTYLE
  7
Standard
  9
$CLAYER
  8
0
  9
$CELTYPE
  6
ByLayer
  9
$CECOLOR
 62
   256
  9
$CELTSCALE
 40
1.0
  9
$DISPSILH
 70
     0
  9
$DIMSCALE
 40
1.0
  9
$DIMASZ
 40
3.302
  9
$DIMEXO
 40
1.0
  9
$DIMDLI
 40
3.75
  9
$DIMRND
 40
0.0
  9
$DIMDLE
 40
0.0
  9
$DIMEXE
 40
1.0
  9
$DIMTP
 40
0.0
  9
$DIMTM
 40
0.0
  9
$DIMTXT
 40
3.5
  9
$DIMCEN
 40
2.5
  9
$DIMTSZ
 40
0.0
  9
$DIMTOL
 70
     0
  9
$DIMLIM
 70
     0
  9
$DIMTIH
 70
     1
  9
$DIMTOH
 70
     1
  9
$DIMSE1
 70
     0
  9
$DIMSE2
 70
     0
  9
$DIMTAD
 70
     1
  9
$DIMZIN
 70
     0
  9
$DIMBLK
  1

  9
$DIMASO
 70
     1
  9
$DIMSHO
 70
     1
  9
$DIMPOST
  1

  9
$DIMAPOST
  1

  9
$DIMALT
 70
     0
  9
$DIMALTD
 70
     3
  9
$DIMALTF
 40
0.0393700787
  9
$DIMLFAC
 40
1.0
  9
$DIMTOFL
 70
     1
  9
$DIMTVP
 40
0.0
  9
$DIMTIX
 70
     0
  9
$DIMSOXD
 70
     0
  9
$DIMSAH
 70
     0
  9
$DIMBLK1
  1

  9
$DIMBLK2
  1

  9
$DIMSTYLE
  2
ISO-25
  9
$DIMCLRD
 70
     0
  9
$DIMCLRE
 70
     0
  9
$DIMCLRT
 70
     0
  9
$DIMTFAC
 40
1.0
  9
$DIMGAP
 40
1.524
  9
$DIMJUST
 70
     0
  9
$DIMSD1
 70
     0
  9
$DIMSD2
 70
     0
  9
$DIMTOLJ
 70
     0
  9
$DIMTZIN
 70
     0
  9
$DIMALTZ
 70
     0
  9
$DIMALTTZ
 70
     0
  9
$DIMUPT
 70
     0
  9
$DIMDEC
 70
     3
  9
$DIMTDEC
 70
     3
  9
$DIMALTU
 70
     2
  9
$DIMALTTD
 70
     3
  9
$DIMTXSTY
  7
Standard
  9
$DIMAUNIT
 70
     0
  9
$DIMADEC
 70
     2
  9
$DIMALTRND
 40
0.0
  9
$DIMAZIN
 70
     0
  9
$DIMDSEP
 70
    44
  9
$DIMATFIT
 70
     3
  9
$DIMFRAC
 70
     0
  9
$DIMLDRBLK
  1

  9
$DIMLUNIT
 70
     2
  9
$DIMLWD
 70
    -2
  9
$DIMLWE
 70
    -2
  9
$DIMTMOVE
 70
     0
  9
$LUNITS
 70
     2
  9
$LUPREC
 70
     2
  9
$SKETCHINC
 40
1.0
  9
$FILLETRAD
 40
10.0
  9
$AUNITS
 70
     0
  9
$AUPREC
 70
     2
  9
$MENU
  1
.
  9
$ELEVATION
 40
0.0
  9
$PELEVATION
 40
0.0
  9
$THICKNESS
 40
0.0
  9
$LIMCHECK
 70
     0
  9
$CHAMFERA
 40
10.0
  9
$CHAMFERB
 40
10.0
  9
$CHAMFERC
 40
20.0
  9
$CHAMFERD
 40
0.0
  9
$SKPOLY
 70
     0
  9
$TDCREATE
 40
2458456.419122685
  9
$TDUCREATE
 40
2458456.377456019
  9
$TDUPDATE
 40
2458456.419122697
  9
$TDUUPDATE
 40
2458456.37745603
  9
$TDINDWG
 40
0.0000000116
  9
$TDUSRTIMER
 40
0.0000000116
  9
$USRTIMER
 70
     1
  9
$ANGBASE
 50
0.0
  9
$ANGDIR
 70
     0
  9
$PDMODE
 70
     0
  9
$PDSIZE
 40
-1.0
  9
$PLINEWID
 40
0.0
  9
$SPLFRAME
 70
     0
  9
$SPLINETYPE
 70
     6
  9
$SPLINESEGS
 70
     8
  9
$HANDSEED
  5
497
  9
$SURFTAB1
 70
     6
  9
$SURFTAB2
 70
     6
  9
$SURFTYPE
 70
     6
  9
$SURFU
 70
     6
  9
$SURFV
 70
     6
  9
$UCSBASE
  2

  9
$UCSNAME
  2

  9
$UCSORG
 10
0.0
 20
0.0
 30
0.0
  9
$UCSXDIR
 10
1.0
 20
0.0
 30
0.0
  9
$UCSYDIR
 10
0.0
 20
1.0
 30
0.0
  9
$UCSORTHOREF
  2

  9
$UCSORTHOVIEW
 70
     0
  9
$UCSORGTOP
 10
0.0
 20
0.0
 30
0.0
  9
$UCSORGBOTTOM
 10
0.0
 20
0.0
 30
0.0
  9
$UCSORGLEFT
 10
0.0
 20
0.0
 30
0.0
  9
$UCSORGRIGHT
 10
0.0
 20
0.0
 30
0.0
  9
$UCSORGFRONT
 10
0.0
 20
0.0
 30
0.0
  9
$UCSORGBACK
 10
0.0
 20
0.0
 30
0.0
  9
$PUCSBASE
  2

  9
$PUCSNAME
  2

  9
$PUCSORG
 10
0.0
 20
0.0
 30
0.0
  9
$PUCSXDIR
 10
1.0
 20
0.0
 30
0.0
  9
$PUCSYDIR
 10
0.0
 20
1.0
 30
0.0
  9
$PUCSORTHOREF
  2

  9
$PUCSORTHOVIEW
 70
     0
  9
$PUCSORGTOP
 10
0.0
 20
0.0
 30
0.0
  9
$PUCSORGBOTTOM
 10
0.0
 20
0.0
 30
0.0
  9
$PUCSORGLEFT
 10
0.0
 20
0.0
 30
0.0
  9
$PUCSORGRIGHT
 10
0.0
 20
0.0
 30
0.0
  9
$PUCSORGFRONT
 10
0.0
 20
0.0
 30
0.0
  9
$PUCSORGBACK
 10
0.0
 20
0.0
 30
0.0
  9
$USERI1
 70
     0
  9
$USERI2
 70
     0
  9
$USERI3
 70
     0
  9
$USERI4
 70
     0
  9
$USERI5
 70
     0
  9
$USERR1
 40
0.0
  9
$USERR2
 40
0.0
  9
$USERR3
 40
0.0
  9
$USERR4
 40
0.0
  9
$USERR5
 40
0.0
  9
$WORLDVIEW
 70
     1
  9
$SHADEDGE
 70
     3
  9
$SHADEDIF
 70
    70
  9
$TILEMODE
 70
     1
  9
$MAXACTVP
 70
    64
  9
$PINSBASE
 10
0.0
 20
0.0
 30
0.0
  9
$PLIMCHECK
 70
     0
  9
$PEXTMIN
 10
1.0000000000E+20
 20
1.0000000000E+20
 30
1.0000000000E+20
  9
$PEXTMAX
 10
-1.0000000000E+20
 20
-1.0000000000E+20
 30
-1.0000000000E+20
  9
$PLIMMIN
 10
0.0
 20
0.0
  9
$PLIMMAX
 10
420.0
 20
297.0
  9
$UNITMODE
 70
     0
  9
$VISRETAIN
 70
     1
  9
$PLINEGEN
 70
     0
  9
$PSLTSCALE
 70
     1
  9
$TREEDEPTH
 70
  3020
  9
$CMLSTYLE
  2
Standard
  9
$CMLJUST
 70
     0
  9
$CMLSCALE
 40
20.0
  9
$PROXYGRAPHICS
 70
     1
  9
$MEASUREMENT
 70
     1
  9
$CELWEIGHT
370
    -1
  9
$ENDCAPS
280
     0
  9
$JOINSTYLE
280
     0
  9
$LWDISPLAY
290
     1
  9
$INSUNITS
 70
     4
  9
$HYPERLINKBASE
  1

  9
$STYLESHEET
  1

  9
$XEDIT
290
     1
  9
$CEPSNTYPE
380
     0
  9
$PSTYLEMODE
290
     1
  9
$FINGERPRINTGUID
  2
{32096B92-64A7-47E8-9185-DD7CB7DF9042}
  9
$VERSIONGUID
  2
{FAEB1C32-E019-11D5-929B-00C0DF256EC4}
  9
$EXTNAMES
290
     1
  9
$PSVPSCALE
 40
0.0
  9
$OLESTARTUP
290
     0
  0
ENDSEC
  0
SECTION
  2
CLASSES
  0
CLASS
  1
ACDBDICTIONARYWDFLT
  2
AcDbDictionaryWithDefault
  3
ObjectDBX Classes
 90
        0
280
     0
281
     0
  0
CLASS
  1
VISUALSTYLE
  2
AcDbVisualStyle
  3
ObjectDBX Classes
 90
     4095
280
     0
281
     0
  0
CLASS
  1
MATERIAL
  2
AcDbMaterial
  3
ObjectDBX Classes
 90
     1153
280
     0
281
     0
  0
CLASS
  1
ACDBPLACEHOLDER
  2
AcDbPlaceHolder
  3
ObjectDBX Classes
 90
        0
280
     0
281
     0
  0
CLASS
  1
LAYOUT
  2
AcDbLayout
  3
ObjectDBX Classes
 90
        0
280
     0
281
     0
  0
ENDSEC
  0
SECTION
  2
TABLES
  0
TABLE
  2
VPORT
  5
8
330
0
100
AcDbSymbolTable
 70
     1
  0
VPORT
  5
29
330
8
100
AcDbSymbolTableRecord
100
AcDbViewportTableRecord
  2
*Active
 70
     0
 10
0.0
 20
0.0
 11
1.0
 21
1.0
 12
139.7
 22
107.95
 13
0.0
 23
0.0
 14
10.0
 24
10.0
 15
10.0
 25
10.0
 16
0.0
 26
0.0
 36
1.0
 17
0.0
 27
0.0
 37
0.0
 40
215.9
 41
1.2941176471
 42
50.0
 43
0.0
 44
0.0
 50
0.0
 51
0.0
 71
     0
 72
  2000
 73
     1
 74
     3
 75
     0
 76
     0
 77
     0
 78
     0
281
     0
 65
     1
110
0.0
120
0.0
130
0.0
111
1.0
121
0.0
131
0.0
112
0.0
122
1.0
132
0.0
 79
     0
146
0.0
  0
ENDTAB
  0
TABLE
  2
LTYPE
  5
5
330
0
100
AcDbSymbolTable
 70
     6
  0
LTYPE
  5
14
330
5
100
AcDbSymbolTableRecord
100
AcDbLinetypeTableRecord
  2
ByBlock
 70
     0
  3

 72
    65
 73
     0
 40
0.0
  0
LTYPE
  5
15
330
5
100
AcDbSymbolTableRecord
100
AcDbLinetypeTableRecord
  2
ByLayer
 70
     0
  3

 72
    65
 73
     0
 40
0.0
  0
LTYPE
  5
16
330
5
100
AcDbSymbolTableRecord
100
AcDbLinetypeTableRecord
  2
Continuous
 70
     0
  3
Solid line
 72
    65
 73
     0
 40
0.0
  0
LTYPE
  5
3F
330
5
100
AcDbSymbolTableRecord
100
AcDbLinetypeTableRecord
  2
HIDDEN
 70
     0
  3
Hidden __ __ __ __ __ __ __ __ __ __ __ __ __ __
 72
    65
 73
     2
 40
1.905
 49
1.27
 74
     0
 49
-0.635
 74
     0
  0
LTYPE
  5
40
330
5
100
AcDbSymbolTableRecord
100
AcDbLinetypeTableRecord
  2
PHANTOM
 70
     0
  3
Phantom ______  __  __  ______  __  __  ______
 72
    65
 73
     6
 40
12.7
 49
6.35
 74
     0
 49
-1.27
 74
     0
 49
1.27
 74
     0
 49
-1.27
 74
     0
 49
1.27
 74
     0
 49
-1.27
 74
     0
  0
LTYPE
  5
41
330
5
100
AcDbSymbolTableRecord
100
AcDbLinetypeTableRecord
  2
CENTER
 70
     0
  3
Center ____ _ ____ _ ____ _ ____ _ ____ _ ____
 72
    65
 73
     4
 40
10.16
 49
6.35
 74
     0
 49
-1.27
 74
     0
 49
1.27
 74
     0
 49
-1.27
 74
     0
  0
LTYPE
  5
42
330
5
100
AcDbSymbolTableRecord
100
AcDbLinetypeTableRecord
  2
CENTERX2
 70
     0
  3
Center (2x) ________  __  ________  __  _____
 72
    65
 73
     4
 40
20.32
 49
12.7
 74
     0
 49
-2.54
 74
     0
 49
2.54
 74
     0
 49
-2.54
 74
     0
  0
LTYPE
  5
43
330
5
100
AcDbSymbolTableRecord
100
AcDbLinetypeTableRecord
  2
DOT2
 70
     0
  3
Dot (.5x) ........................................
 72
    65
 73
     2
 40
0.635
 49
0.0
 74
     0
 49
-0.635
 74
     0
  0
ENDTAB
  0
TABLE
  2
LAYER
  5
2
330
0
100
AcDbSymbolTable
 70
     1
  0
LAYER
  5
10
330
2
100
AcDbSymbolTableRecord
100
AcDbLayerTableRecord
  2
0
 70
     0
 62
     7
  6
Continuous
370
    -3
390
F
  0
ENDTAB
  0
TABLE
  2
STYLE
  5
3
330
0
100
AcDbSymbolTable
 70
     1
  0
STYLE
  5
11
330
3
100
AcDbSymbolTableRecord
100
AcDbTextStyleTableRecord
  2
Standard
 70
     0
 40
0.0
 41
1.0
 50
0.0
 71
     0
 42
2.5
  3
txt
  4

  0
ENDTAB
  0
TABLE
  2
VIEW
  5
6
330
0
100
AcDbSymbolTable
 70
     0
  0
ENDTAB
  0
TABLE
  2
UCS
  5
7
330
0
100
AcDbSymbolTable
 70
     0
  0
ENDTAB
  0
TABLE
  2
APPID
  5
9
330
0
100
AcDbSymbolTable
 70
     1
  0
APPID
  5
12
330
9
100
AcDbSymbolTableRecord
100
AcDbRegAppTableRecord
  2
ACAD
 70
     0
  0
ENDTAB
  0
TABLE
  2
DIMSTYLE
  5
A
330
0
100
AcDbSymbolTable
 70
     1
100
AcDbDimStyleTable
  0
DIMSTYLE
105
27
330
A
100
AcDbSymbolTableRecord
100
AcDbDimStyleTableRecord
  2
ISO-25
 70
     0
 41
2.5
 42
0.625
 43
3.75
 44
1.25
 73
     0
 74
     0
 77
     1
 78
     8
140
2.5
141
2.5
143
0.0393700787
147
0.625
171
     3
172
     1
178
     0
271
     2
272
     2
274
     3
278
    44
283
     0
284
     8
340
11
  0
ENDTAB
  0
TABLE
  2
BLOCK_RECORD
  5
1
330
0
100
AcDbSymbolTable
 70
     1
  0
BLOCK_RECORD
  5
1F
330
1
100
AcDbSymbolTableRecord
100
AcDbBlockTableRecord
  2
*Model_Space
340
22
  0
BLOCK_RECORD
  5
1B
330
1
100
AcDbSymbolTableRecord
100
AcDbBlockTableRecord
  2
*Paper_Space
340
1E
  0
BLOCK_RECORD
  5
23
330
1
100
AcDbSymbolTableRecord
100
AcDbBlockTableRecord
  2
*Paper_Space0
340
26
  0
ENDTAB
  0
ENDSEC
  0
SECTION
  2
BLOCKS
  0
BLOCK
  5
20
330
1F
100
AcDbEntity
  8
0
100
AcDbBlockBegin
  2
*Model_Space
 70
     0
 10
0.0
 20
0.0
 30
0.0
  3
*Model_Space
  1

  0
ENDBLK
  5
21
330
1F
100
AcDbEntity
  8
0
100
AcDbBlockEnd
  0
BLOCK
  5
1C
330
1B
100
AcDbEntity
 67
     1
  8
0
100
AcDbBlockBegin
  2
*Paper_Space
 70
     0
 10
0.0
 20
0.0
 30
0.0
  3
*Paper_Space
  1

  0
ENDBLK
  5
1D
330
1B
100
AcDbEntity
 67
     1
  8
0
100
AcDbBlockEnd
  0
BLOCK
  5
24
330
23
100
AcDbEntity
  8
0
100
AcDbBlockBegin
  2
*Paper_Space0
 70
     0
 10
0.0
 20
0.0
 30
0.0
  3
*Paper_Space0
  1

  0
ENDBLK
  5
25
330
23
100
AcDbEntity
  8
0
100
AcDbBlockEnd
  0
ENDSEC
  0
SECTION
  2
ENTITIES
  0
LINE
  5
44
330
1F
100
AcDbEntity
  8
0
  6
Continuous
 62
     7
370
    15
100
AcDbLine
 10
245.5921096753
 20
86.9193963059
 30
0.0
 11
248.5921083044
 21
86.9216836341
 31
0.0
  0
LINE
  5
45
330
1F
100
AcDbEntity
  8
0
  6
Continuous
 62
     7
370
    15
100
AcDbLine
 10
248.5921083044
 20
86.9216836341
 30
0.0
 11
248.5921083044
 21
103.2503313669
 31
0.0
  0
ARC
  5
46
330
1F
100
AcDbEntity
  8
0
  6
Continuous
 62
     7
370
    15
100
AcDbCircle
 10
251.5921066192
 20
103.2503286418
 30
0.0
 40
3.000000000000014
100
AcDbArc
 50
90.0
 51
180.0
  0
LINE
  5
47
330
1F
100
AcDbEntity
  8
0
  6
Continuous
 62
     7
370
    15
100
AcDbLine
 10
251.5921069335
 20
106.2503299959
 30
0.0
 11
268.0921105694
 21
106.2503299959
 31
0.0
  0
LINE
  5
48
330
1F
100
AcDbEntity
  8
0
  6
Continuous
 62
     7
370
    15
100
AcDbLine
 10
268.0921105694
 20
106.2503299959
 30
0.0
 11
268.0921105694
 21
109.250328625
 31
0.0
  0
LINE
  5
49
330
1F
100
AcDbEntity
  8
0
  6
Continuous
 62
     7
370
    15
100
AcDbLine
 10
268.0921105694
 20
109.250328625
 30
0.0
 11
251.5921069335
 21
109.250328625
 31
0.0
  0
ARC
  5
4A
330
1F
100
AcDbEntity
  8
0
  6
Continuous
 62
     7
370
    15
100
AcDbCircle
 10
251.5921066192
 20
112.2503286418
 30
0.0
 40
3.0
100
AcDbArc
 50
180.0
 51
270.0
  0
LINE
  5
4B
330
1F
100
AcDbEntity
  8
0
  6
Continuous
 62
     7
370
    15
100
AcDbLine
 10
248.5921083044
 20
112.2503272541
 30
0.0
 11
248.5921083044
 21
128.7503271647
 31
0.0
  0
LINE
  5
4C
330
1F
100
AcDbEntity
  8
0
  6
Continuous
 62
     7
370
    15
100
AcDbLine
 10
248.5921083044
 20
128.7503271647
 30
0.0
 11
245.5921096753
 21
128.7503271647
 31
0.0
  0
LINE
  5
4D
330
1F
100
AcDbEntity
  8
0
  6
Continuous
 62
     7
370
    15
100
AcDbLine
 10
245.5921096753
 20
128.7503271647
 30
0.0
 11
245.5921096753
 21
112.2503272541
 31
0.0
  0
ARC
  5
4E
330
1F
100
AcDbEntity
  8
0
  6
Continuous
 62
     7
370
    15
100
AcDbCircle
 10
242.5921066192
 20
112.2503286418
 30
0.0
 40
3.0
100
AcDbArc
 50
270.0
 51
0.0
  0
LINE
  5
4F
330
1F
100
AcDbEntity
  8
0
  6
Continuous
 62
     7
370
    15
100
AcDbLine
 10
242.5921035956
 20
109.250328625
 30
0.0
 11
226.0921074103
 21
109.250328625
 31
0.0
  0
LINE
  5
50
330
1F
100
AcDbEntity
  8
0
  6
Continuous
 62
     7
370
    15
100
AcDbLine
 10
226.0921074103
 20
109.250328625
 30
0.0
 11
226.0921074103
 21
106.2503299959
 31
0.0
  0
LINE
  5
51
330
1F
100
AcDbEntity
  8
0
  6
Continuous
 62
     7
370
    15
100
AcDbLine
 10
226.0921074103
 20
106.2503299959
 30
0.0
 11
242.5921035956
 21
106.2503299959
 31
0.0
  0
ARC
  5
52
330
1F
100
AcDbEntity
  8
0
  6
Continuous
 62
     7
370
    15
100
AcDbCircle
 10
242.5921066192
 20
103.2503286418
 30
0.0
 40
3.000000000000014
100
AcDbArc
 50
0.0
 51
90.0
  0
LINE
  5
53
330
1F
100
AcDbEntity
  8
0
  6
Continuous
 62
     7
370
    15
100
AcDbLine
 10
245.5921096753
 20
103.2503313669
 30
0.0
 11
245.5921096753
 21
86.9193963059
 31
0.0
  0
LINE
  5
54
330
1F
100
AcDbEntity
  8
0
  6
Continuous
 62
     7
370
    15
100
AcDbLine
 10
311.0011516164
 20
72.917557443
 30
0.0
 11
291.3777379345
 21
106.6978118666
 31
0.0
  0
ARC
  5
55
330
1F
100
AcDbEntity
  8
0
  6
Continuous
 62
     7
370
    15
100
AcDbCircle
 10
309.2189375669
 20
71.867074361
 30
0.0
 40
2.06876495716646
100
AcDbArc
 50
269.8196748083
 51
30.5163208353
  0
LINE
  5
56
330
1F
100
AcDbEntity
  8
0
  6
Continuous
 62
     7
370
    15
100
AcDbLine
 10
270.1343445133
 20
69.9236012348
 30
0.0
 11
309.2124311279
 21
69.798319722
 31
0.0
  0
ARC
  5
57
330
1F
100
AcDbEntity
  8
0
  6
Continuous
 62
     7
370
    15
100
AcDbCircle
 10
270.1393595713
 20
67.8437256909
 30
0.0
 40
2.079879999999983
100
AcDbArc
 50
90.1380951196
 51
150.6805019901
  0
LINE
  5
58
330
1F
100
AcDbEntity
  8
0
  6
Continuous
 62
     7
370
    15
100
AcDbLine
 10
248.9017097305
 20
34.9844015487
 30
0.0
 11
268.3259097885
 21
68.8621989735
 31
0.0
  0
ARC
  5
59
330
1F
100
AcDbEntity
  8
0
  6
Continuous
 62
     7
370
    15
100
AcDbCircle
 10
247.0921066192
 20
36.0237596497
 30
0.0
 40
2.086844836014297
100
AcDbArc
 50
209.8712920781
 51
330.1287079219
  0
LINE
  5
5A
330
1F
100
AcDbEntity
  8
0
  6
Continuous
 62
     7
370
    15
100
AcDbLine
 10
225.8583081912
 20
68.8621989735
 30
0.0
 11
245.2825082492
 21
34.9844015487
 31
0.0
  0
ARC
  5
5B
330
1F
100
AcDbEntity
  8
0
  6
Continuous
 62
     7
370
    15
100
AcDbCircle
 10
224.0407766585
 20
67.8367698806
 30
0.0
 40
2.086844836014377
100
AcDbArc
 50
29.4311978322
 51
89.7822768767
  0
LINE
  5
5C
330
1F
100
AcDbEntity
  8
0
  6
Continuous
 62
     7
370
    15
100
AcDbLine
 10
184.9717868518
 20
69.798319722
 30
0.0
 11
224.0487037252
 21
69.9236012348
 31
0.0
  0
ARC
  5
5D
330
1F
100
AcDbEntity
  8
0
  6
Continuous
 62
     7
370
    15
100
AcDbCircle
 10
184.9846074767
 20
71.878160134
 30
0.0
 40
2.079880000000054
100
AcDbArc
 50
150.0171909222
 51
269.6468134342
  0
LINE
  5
5E
330
1F
100
AcDbEntity
  8
0
  6
Continuous
 62
     7
370
    15
100
AcDbLine
 10
202.8149066518
 20
106.692119623
 30
0.0
 11
183.1830663632
 21
72.917557443
 31
0.0
  0
ARC
  5
5F
330
1F
100
AcDbEntity
  8
0
  6
Continuous
 62
     7
370
    15
100
AcDbCircle
 10
201.0319587892
 20
107.7424996497
 30
0.0
 40
2.069347991228132
100
AcDbArc
 50
329.4965773764
 51
30.5034226236
  0
LINE
  5
60
330
1F
100
AcDbEntity
  8
0
  6
Continuous
 62
     7
370
    15
100
AcDbLine
 10
183.1830663632
 20
142.5674400576
 30
0.0
 11
202.8149066518
 21
108.7928778775
 31
0.0
  0
ARC
  5
61
330
1F
100
AcDbEntity
  8
0
  6
Continuous
 62
     7
370
    15
100
AcDbCircle
 10
184.9717866192
 20
143.6067996497
 30
0.0
 40
2.068764957166513
100
AcDbArc
 50
90.0
 51
210.1593100875
  0
LINE
  5
62
330
1F
100
AcDbEntity
  8
0
  6
Continuous
 62
     7
370
    15
100
AcDbLine
 10
224.0487037252
 20
145.5625585564
 30
0.0
 11
184.9717868518
 21
145.6755652376
 31
0.0
  0
ARC
  5
63
330
1F
100
AcDbEntity
  8
0
  6
Continuous
 62
     7
370
    15
100
AcDbCircle
 10
224.0461867448
 20
147.6412781224
 30
0.0
 40
2.078719999999992
100
AcDbArc
 50
270.0694553388
 51
330.662400919
  0
LINE
  5
64
330
1F
100
AcDbEntity
  8
0
  6
Continuous
 62
     7
370
    15
100
AcDbLine
 10
245.2825082492
 20
180.5168400802
 30
0.0
 11
225.8583081912
 21
146.6227985271
 31
0.0
  0
ARC
  5
65
330
1F
100
AcDbEntity
  8
0
  6
Continuous
 62
     7
370
    15
100
AcDbCircle
 10
247.0921066192
 20
179.4763196497
 30
0.0
 40
2.087422820225888
100
AcDbArc
 50
29.8989018386
 51
150.1010981614
  0
LINE
  5
66
330
1F
100
AcDbEntity
  8
0
  6
Continuous
 62
     7
370
    15
100
AcDbLine
 10
268.3259097885
 20
146.6227985271
 30
0.0
 11
248.9017097305
 21
180.5168400802
 31
0.0
  0
ARC
  5
67
330
1F
100
AcDbEntity
  8
0
  6
Continuous
 62
     7
370
    15
100
AcDbCircle
 10
270.1343466192
 20
147.6621596497
 30
0.0
 40
2.085839026195288
100
AcDbArc
 50
209.8871620325
 51
270.0
  0
LINE
  5
68
330
1F
100
AcDbEntity
  8
0
  6
Continuous
 62
     7
370
    15
100
AcDbLine
 10
309.2124311279
 20
145.6866815038
 30
0.0
 11
270.1343445133
 21
145.5763197788
 31
0.0
  0
ARC
  5
69
330
1F
100
AcDbEntity
  8
0
  6
Continuous
 62
     7
370
    15
100
AcDbCircle
 10
309.2124266192
 20
143.6067996497
 30
0.0
 40
2.079880000000045
100
AcDbArc
 50
329.8406899125
 51
90.0
  0
LINE
  5
6A
330
1F
100
AcDbEntity
  8
0
  6
Continuous
 62
     7
370
    15
100
AcDbLine
 10
291.3681415867
 20
108.7928778775
 30
0.0
 11
311.0107628654
 21
142.5618558474
 31
0.0
  0
ARC
  5
6B
330
1F
100
AcDbEntity
  8
0
  6
Continuous
 62
     7
370
    15
100
AcDbCircle
 10
293.1568666192
 20
107.7535196497
 30
0.0
 40
2.068764957166632
100
AcDbArc
 50
149.8406899125
 51
210.6842671415
  0
ARC
  5
6C
330
1F
100
AcDbEntity
  8
0
  6
Continuous
 62
     7
370
    15
100
AcDbCircle
 10
-33.1813301975
 20
90.7454563918
 30
0.0
 40
0.1200000000000045
100
AcDbArc
 50
90.0
 51
210.4655449195
  0
LINE
  5
6D
330
1F
100
AcDbEntity
  8
0
  6
Continuous
 62
     7
370
    15
100
AcDbLine
 10
-33.2847686459
 20
90.6846142658
 30
0.0
 11
-32.1493299652
 21
88.7414581426
 31
0.0
  0
ARC
  5
6E
330
1F
100
AcDbEntity
  8
0
  6
Continuous
 62
     7
370
    15
100
AcDbCircle
 10
-32.2513301975
 20
88.6814563918
 30
0.0
 40
0.1183384975399244
100
AcDbArc
 50
327.094757077
 51
30.4655449195
  0
ARC
  5
6F
330
1F
100
AcDbEntity
  8
0
  6
Continuous
 62
     7
370
    15
100
AcDbCircle
 10
-33.1813301975
 20
86.6114563918
 30
0.0
 40
0.1183384975399235
100
AcDbArc
 50
149.5344550805
 51
270.0
  0
LINE
  5
70
330
1F
100
AcDbEntity
  8
0
  6
Continuous
 62
     7
370
    15
100
AcDbLine
 10
-33.1813247849
 20
86.4931187876
 30
0.0
 11
-30.9253336836
 21
86.4974550255
 31
0.0
  0
ARC
  5
71
330
1F
100
AcDbEntity
  8
0
  6
Continuous
 62
     7
370
    15
100
AcDbCircle
 10
-30.9253301975
 20
86.3774563918
 30
0.0
 40
0.1200000000000055
100
AcDbArc
 50
30.4655449195
 51
90.0
  0
LINE
  5
72
330
1F
100
AcDbEntity
  8
0
  6
Continuous
 62
     7
370
    15
100
AcDbLine
 10
-30.8219047238
 20
86.4382974156
 30
0.0
 11
-29.701337402
 21
84.4814545759
 31
0.0
  0
ARC
  5
73
330
1F
100
AcDbEntity
  8
0
  6
Continuous
 62
     7
370
    15
100
AcDbCircle
 10
-29.5993301975
 20
84.5414563918
 30
0.0
 40
0.1183384975398968
100
AcDbArc
 50
210.4655449195
 51
330.9453959009
  0
LINE
  5
74
330
1F
100
AcDbEntity
  8
0
  6
Continuous
 62
     7
370
    15
100
AcDbLine
 10
-29.4958801915
 20
84.4839877733
 30
0.0
 11
-28.3705295969
 21
86.435056413
 31
0.0
  0
ARC
  5
75
330
1F
100
AcDbEntity
  8
0
  6
Continuous
 62
     7
370
    15
100
AcDbCircle
 10
-28.2666686733
 20
86.3751629549
 30
0.0
 40
0.1198934526986473
100
AcDbArc
 50
90.0294017615
 51
150.0294017615
  0
LINE
  5
76
330
1F
100
AcDbEntity
  8
0
  6
Continuous
 62
     7
370
    15
100
AcDbLine
 10
-28.2667281081
 20
86.4950559386
 30
0.0
 11
-26.0113330532
 21
86.4914573081
 31
0.0
  0
ARC
  5
77
330
1F
100
AcDbEntity
  8
0
  6
Continuous
 62
     7
370
    15
100
AcDbCircle
 10
-26.0113301975
 20
86.6114563918
 30
0.0
 40
0.120000000000033
100
AcDbArc
 50
270.0
 51
30.4655449195
  0
LINE
  5
78
330
1F
100
AcDbEntity
  8
0
  6
Continuous
 62
     7
370
    15
100
AcDbLine
 10
-25.9079040934
 20
86.6722978004
 30
0.0
 11
-27.0433278729
 21
88.6154539235
 31
0.0
  0
ARC
  5
79
330
1F
100
AcDbEntity
  8
0
  6
Continuous
 62
     7
370
    15
100
AcDbCircle
 10
-26.9413301975
 20
88.6754563918
 30
0.0
 40
0.1183384975399274
100
AcDbArc
 50
147.094757077
 51
210.4655449195
  0
LINE
  5
7A
330
1F
100
AcDbEntity
  8
0
  6
Continuous
 62
     7
370
    15
100
AcDbLine
 10
-27.0406903673
 20
88.7397445091
 30
0.0
 11
-25.9093346049
 21
90.6854561814
 31
0.0
  0
ARC
  5
7B
330
1F
100
AcDbEntity
  8
0
  6
Continuous
 62
     7
370
    15
100
AcDbCircle
 10
-26.0113301975
 20
90.7454563918
 30
0.0
 40
0.1183384975399377
100
AcDbArc
 50
329.5344550806
 51
90.0
  0
LINE
  5
7C
330
1F
100
AcDbEntity
  8
0
  6
Continuous
 62
     7
370
    15
100
AcDbLine
 10
-26.0113330532
 20
90.8637932785
 30
0.0
 11
-28.2673241545
 21
90.8594570406
 31
0.0
  0
ARC
  5
7D
330
1F
100
AcDbEntity
  8
0
  6
Continuous
 62
     7
370
    15
100
AcDbCircle
 10
-28.2673301975
 20
90.9794563918
 30
0.0
 40
0.1200000000000188
100
AcDbArc
 50
210.4655449195
 51
270.0
  0
LINE
  5
7E
330
1F
100
AcDbEntity
  8
0
  6
Continuous
 62
     7
370
    15
100
AcDbLine
 10
-28.3707680155
 20
90.9186146506
 30
0.0
 11
-29.4913353373
 21
92.8754574903
 31
0.0
  0
ARC
  5
7F
330
1F
100
AcDbEntity
  8
0
  6
Continuous
 62
     7
370
    15
100
AcDbCircle
 10
-29.5933301975
 20
92.8154563918
 30
0.0
 40
0.1183384975399201
100
AcDbArc
 50
30.4655449195
 51
150.9453959009
  0
LINE
  5
80
330
1F
100
AcDbEntity
  8
0
  6
Continuous
 62
     7
370
    15
100
AcDbLine
 10
-29.6967776467
 20
92.8729242929
 30
0.0
 11
-30.8233352352
 21
90.9194565662
 31
0.0
  0
ARC
  5
81
330
1F
100
AcDbEntity
  8
0
  6
Continuous
 62
     7
370
    15
100
AcDbCircle
 10
-30.9253301975
 20
90.9794563918
 30
0.0
 40
0.1183384975399274
100
AcDbArc
 50
270.0
 51
329.5344550805
  0
LINE
  5
82
330
1F
100
AcDbEntity
  8
0
  6
Continuous
 62
     7
370
    15
100
AcDbLine
 10
-30.9253336836
 20
90.8611185201
 30
0.0
 11
-33.1813247849
 21
90.865454758
 31
0.0
  0
ARC
  5
83
330
1F
100
AcDbEntity
  8
0
  6
Continuous
 62
     7
370
    15
100
AcDbCircle
 10
-23.3533301975
 20
125.0957695311
 30
0.0
 40
0.1183384975398669
100
AcDbArc
 50
329.5344550805
 51
90.0
  0
LINE
  5
84
330
1F
100
AcDbEntity
  8
0
  6
Continuous
 62
     7
370
    15
100
AcDbLine
 10
-23.3533235241
 20
125.2141065248
 30
0.0
 11
-25.6093295266
 21
125.2097702869
 31
0.0
  0
ARC
  5
85
330
1F
100
AcDbEntity
  8
0
  6
Continuous
 62
     7
370
    15
100
AcDbCircle
 10
-25.6093301975
 20
125.3297695311
 30
0.0
 40
0.1199999999999983
100
AcDbArc
 50
210.4655449195
 51
270.0
  0
LINE
  5
86
330
1F
100
AcDbEntity
  8
0
  6
Continuous
 62
     7
370
    15
100
AcDbLine
 10
-25.7127584864
 20
125.2689278968
 30
0.0
 11
-26.8333258082
 21
127.2257707365
 31
0.0
  0
ARC
  5
87
330
1F
100
AcDbEntity
  8
0
  6
Continuous
 62
     7
370
    15
100
AcDbCircle
 10
-26.9353301975
 20
127.1657695311
 30
0.0
 40
0.1183384975399382
100
AcDbArc
 50
30.4655449195
 51
150.9453959009
  0
LINE
  5
88
330
1F
100
AcDbEntity
  8
0
  6
Continuous
 62
     7
370
    15
100
AcDbLine
 10
-27.0387830187
 20
127.2232375391
 30
0.0
 11
-28.1653257061
 21
125.2697698124
 31
0.0
  0
ARC
  5
89
330
1F
100
AcDbEntity
  8
0
  6
Continuous
 62
     7
370
    15
100
AcDbCircle
 10
-28.2672486183
 20
125.3299080005
 30
0.0
 40
0.1183384975399486
100
AcDbArc
 50
269.9605019071
 51
329.4566424715
  0
LINE
  5
8A
330
1F
100
AcDbEntity
  8
0
  6
Continuous
 62
     7
370
    15
100
AcDbLine
 10
-28.2673241545
 20
125.2115658768
 30
0.0
 11
-30.5233301569
 21
125.2157680043
 31
0.0
  0
ARC
  5
8B
330
1F
100
AcDbEntity
  8
0
  6
Continuous
 62
     7
370
    15
100
AcDbCircle
 10
-30.5233301975
 20
125.0957695311
 30
0.0
 40
0.1200000000000188
100
AcDbArc
 50
90.0
 51
210.4655449195
  0
LINE
  5
8C
330
1F
100
AcDbEntity
  8
0
  6
Continuous
 62
     7
370
    15
100
AcDbLine
 10
-30.6267591168
 20
125.034927512
 30
0.0
 11
-29.4913353373
 21
123.0857662209
 31
0.0
  0
ARC
  5
8D
330
1F
100
AcDbEntity
  8
0
  6
Continuous
 62
     7
370
    15
100
AcDbCircle
 10
-29.5933301975
 20
123.0257695311
 30
0.0
 40
0.1183384975399359
100
AcDbArc
 50
329.5344550806
 51
30.4655449195
  0
LINE
  5
8E
330
1F
100
AcDbEntity
  8
0
  6
Continuous
 62
     7
370
    15
100
AcDbLine
 10
-29.4913353373
 20
122.9657671698
 30
0.0
 11
-30.6253286053
 21
121.0157714136
 31
0.0
  0
ARC
  5
8F
330
1F
100
AcDbEntity
  8
0
  6
Continuous
 62
     7
370
    15
100
AcDbCircle
 10
-30.5233301975
 20
120.9557695311
 30
0.0
 40
0.1183384975399235
100
AcDbArc
 50
149.5344550805
 51
270.0
  0
LINE
  5
90
330
1F
100
AcDbEntity
  8
0
  6
Continuous
 62
     7
370
    15
100
AcDbLine
 10
-30.5233301569
 20
120.8374343165
 30
0.0
 11
-28.2673241545
 21
120.8417705544
 31
0.0
  0
ARC
  5
91
330
1F
100
AcDbEntity
  8
0
  6
Continuous
 62
     7
370
    15
100
AcDbCircle
 10
-28.2673301975
 20
120.7217695311
 30
0.0
 40
0.1200000000000055
100
AcDbArc
 50
30.4655449195
 51
90.0
  0
LINE
  5
92
330
1F
100
AcDbEntity
  8
0
  6
Continuous
 62
     7
370
    15
100
AcDbLine
 10
-28.1638951947
 20
120.7826129444
 30
0.0
 11
-27.0433278729
 21
118.8257701047
 31
0.0
  0
ARC
  5
93
330
1F
100
AcDbEntity
  8
0
  6
Continuous
 62
     7
370
    15
100
AcDbCircle
 10
-26.9413301975
 20
118.8857695311
 30
0.0
 40
0.1183384975398968
100
AcDbArc
 50
210.4655449195
 51
330.9453959009
  0
LINE
  5
94
330
1F
100
AcDbEntity
  8
0
  6
Continuous
 62
     7
370
    15
100
AcDbLine
 10
-26.8378855635
 20
118.8282958515
 30
0.0
 11
-25.7107319285
 21
120.7829705723
 31
0.0
  0
ARC
  5
95
330
1F
100
AcDbEntity
  8
0
  6
Continuous
 62
     7
370
    15
100
AcDbCircle
 10
-25.6063959557
 20
120.7234541046
 30
0.0
 40
0.1201154444690788
100
AcDbArc
 50
89.9686329475
 51
150.2982491442
  0
LINE
  5
96
330
1F
100
AcDbEntity
  8
0
  6
Continuous
 62
     7
370
    15
100
AcDbLine
 10
-25.6063343932
 20
120.8435661443
 30
0.0
 11
-23.3533235241
 21
120.835772837
 31
0.0
  0
ARC
  5
97
330
1F
100
AcDbEntity
  8
0
  6
Continuous
 62
     7
370
    15
100
AcDbCircle
 10
-23.3533301975
 20
120.9557695311
 30
0.0
 40
0.1200000000000045
100
AcDbArc
 50
270.0
 51
30.4655449195
  0
LINE
  5
98
330
1F
100
AcDbEntity
  8
0
  6
Continuous
 62
     7
370
    15
100
AcDbLine
 10
-23.2498945643
 20
121.0166133292
 30
0.0
 11
-24.3853332449
 21
122.9657671698
 31
0.0
  0
ARC
  5
99
330
1F
100
AcDbEntity
  8
0
  6
Continuous
 62
     7
370
    15
100
AcDbCircle
 10
-24.2833301975
 20
123.0257695311
 30
0.0
 40
0.1183384975398857
100
AcDbArc
 50
149.5344550805
 51
210.4655449195
  0
LINE
  5
9A
330
1F
100
AcDbEntity
  8
0
  6
Continuous
 62
     7
370
    15
100
AcDbLine
 10
-24.3853332449
 20
123.0857662209
 30
0.0
 11
-23.2513250758
 21
125.0357694276
 31
0.0
  0
ARC
  5
9B
330
1F
100
AcDbEntity
  8
0
  6
Continuous
 62
     7
370
    15
100
AcDbCircle
 10
-107.7463301975
 20
32.2097110537
 30
0.0
 40
1.186808467781793
100
AcDbArc
 50
208.7004518387
 51
331.2995481613
  0
LINE
  5
9C
330
1F
100
AcDbEntity
  8
0
  6
Continuous
 62
     7
370
    15
100
AcDbLine
 10
-106.7053230454
 20
31.6397763141
 30
0.0
 11
-101.6181113173
 21
40.5082172998
 31
0.0
  0
ARC
  5
9D
330
1F
100
AcDbEntity
  8
0
  6
Continuous
 62
     7
370
    15
100
AcDbCircle
 10
-101.0953301975
 20
40.2137695311
 30
0.0
 40
0.5999999999999948
100
AcDbArc
 50
90.0
 51
150.6109885337
  0
LINE
  5
9E
330
1F
100
AcDbEntity
  8
0
  6
Continuous
 62
     7
370
    15
100
AcDbLine
 10
-101.0953338791
 20
40.8137656101
 30
0.0
 11
-89.8272993018
 21
40.7809234508
 31
0.0
  0
ARC
  5
9F
330
1F
100
AcDbEntity
  8
0
  6
Continuous
 62
     7
370
    15
100
AcDbCircle
 10
-89.8213301975
 20
41.3777695311
 30
0.0
 40
0.5968718455414195
100
AcDbArc
 50
269.4270613023
 51
30.1735200296
  0
LINE
  5
A0
330
1F
100
AcDbEntity
  8
0
  6
Continuous
 62
     7
370
    15
100
AcDbLine
 10
-89.3053265263
 20
41.6777647384
 30
0.0
 11
-94.9667097975
 21
51.4233178743
 31
0.0
  0
ARC
  5
A1
330
1F
100
AcDbEntity
  8
0
  6
Continuous
 62
     7
370
    15
100
AcDbCircle
 10
-94.4533301975
 20
51.7277695311
 30
0.0
 40
0.5968718455414138
100
AcDbArc
 50
149.8264799704
 51
210.6689266497
  0
LINE
  5
A2
330
1F
100
AcDbEntity
  8
0
  6
Continuous
 62
     7
370
    15
100
AcDbLine
 10
-94.9693324019
 20
52.0277685769
 30
0.0
 11
-89.3071146656
 21
61.7728001722
 31
0.0
  0
ARC
  5
A3
330
1F
100
AcDbEntity
  8
0
  6
Continuous
 62
     7
370
    15
100
AcDbCircle
 10
-89.8273301975
 20
62.0717695311
 30
0.0
 40
0.600000000000044
100
AcDbArc
 50
330.1134730596
 51
90.0
  0
LINE
  5
A4
330
1F
100
AcDbEntity
  8
0
  6
Continuous
 62
     7
370
    15
100
AcDbLine
 10
-89.8273291041
 20
62.6717723258
 30
0.0
 11
-101.0953338791
 21
62.6397050269
 31
0.0
  0
ARC
  5
A5
330
1F
100
AcDbEntity
  8
0
  6
Continuous
 62
     7
370
    15
100
AcDbCircle
 10
-101.0953301975
 20
63.2417695311
 30
0.0
 40
0.6020664415162216
100
AcDbArc
 50
209.8865269404
 51
270.0
  0
LINE
  5
A6
330
1F
100
AcDbEntity
  8
0
  6
Continuous
 62
     7
370
    15
100
AcDbLine
 10
-101.6173364569
 20
62.9417664655
 30
0.0
 11
-107.2228403736
 21
72.7183810719
 31
0.0
  0
ARC
  5
A7
330
1F
100
AcDbEntity
  8
0
  6
Continuous
 62
     7
370
    15
100
AcDbCircle
 10
-107.7433301975
 20
72.4157695311
 30
0.0
 40
0.6020664415162882
100
AcDbArc
 50
30.1735200296
 51
150.1134730596
  0
LINE
  5
A8
330
1F
100
AcDbEntity
  8
0
  6
Continuous
 62
     7
370
    15
100
AcDbLine
 10
-108.2653256108
 20
72.7157659181
 30
0.0
 11
-113.8745399166
 21
62.9413343318
 31
0.0
  0
ARC
  5
A9
330
1F
100
AcDbEntity
  8
0
  6
Continuous
 62
     7
370
    15
100
AcDbCircle
 10
-114.3973301975
 20
63.2357695311
 30
0.0
 40
0.5999999999999982
100
AcDbArc
 50
270.0
 51
330.6109885337
  0
LINE
  5
AA
330
1F
100
AcDbEntity
  8
0
  6
Continuous
 62
     7
370
    15
100
AcDbLine
 10
-114.397332256
 20
62.6357711204
 30
0.0
 11
-125.6653519322
 21
62.6686132797
 31
0.0
  0
ARC
  5
AB
330
1F
100
AcDbEntity
  8
0
  6
Continuous
 62
     7
370
    15
100
AcDbCircle
 10
-125.6713301975
 20
62.0717695311
 30
0.0
 40
0.5968718455414326
100
AcDbArc
 50
89.4270613023
 51
210.1735200296
  0
LINE
  5
AC
330
1F
100
AcDbEntity
  8
0
  6
Continuous
 62
     7
370
    15
100
AcDbLine
 10
-126.1873396088
 20
61.771771992
 30
0.0
 11
-120.5259414364
 21
52.0262188562
 31
0.0
  0
ARC
  5
AD
330
1F
100
AcDbEntity
  8
0
  6
Continuous
 62
     7
370
    15
100
AcDbCircle
 10
-121.0393301975
 20
51.7217695311
 30
0.0
 40
0.5968718455414225
100
AcDbArc
 50
329.8264799704
 51
30.6689266497
  0
LINE
  5
AE
330
1F
100
AcDbEntity
  8
0
  6
Continuous
 62
     7
370
    15
100
AcDbLine
 10
-120.523318832
 20
51.4217681535
 30
0.0
 11
-126.1855514695
 21
41.6767365583
 31
0.0
  0
ARC
  5
AF
330
1F
100
AcDbEntity
  8
0
  6
Continuous
 62
     7
370
    15
100
AcDbCircle
 10
-125.6653301975
 20
41.3777695311
 30
0.0
 40
0.600000000000044
100
AcDbArc
 50
150.1134730596
 51
270.0
  0
LINE
  5
B0
330
1F
100
AcDbEntity
  8
0
  6
Continuous
 62
     7
370
    15
100
AcDbLine
 10
-125.6653221299
 20
40.7777644046
 30
0.0
 11
-114.397332256
 21
40.8098317035
 31
0.0
  0
ARC
  5
B1
330
1F
100
AcDbEntity
  8
0
  6
Continuous
 62
     7
370
    15
100
AcDbCircle
 10
-114.3973301975
 20
40.2077695311
 30
0.0
 40
0.6020664415162325
100
AcDbArc
 50
29.8865269404
 51
90.0
  0
LINE
  5
B2
330
1F
100
AcDbEntity
  8
0
  6
Continuous
 62
     7
370
    15
100
AcDbLine
 10
-113.8753445793
 20
40.5077702649
 30
0.0
 11
-108.7873430897
 21
31.6397763141
 31
0.0
  0
ARC
  5
B3
330
1F
100
AcDbEntity
  8
0
  6
Continuous
 62
     7
370
    15
100
AcDbCircle
 10
54.4066698025
 20
47.2637695311
 30
0.0
 40
0.1183384975398826
100
AcDbArc
 50
149.5344550805
 51
210.4655449195
  0
LINE
  5
B4
330
1F
100
AcDbEntity
  8
0
  6
Continuous
 62
     7
370
    15
100
AcDbLine
 10
54.3046666335
 20
47.3237700113
 30
0.0
 11
55.4416699361
 21
49.273169721
 31
0.0
  0
ARC
  5
B5
330
1F
100
AcDbEntity
  8
0
  6
Continuous
 62
     7
370
    15
100
AcDbCircle
 10
55.3386616628
 20
49.3340950854
 30
0.0
 40
0.1196770654720192
100
AcDbArc
 50
329.3972347856
 51
90.3791084765
  0
LINE
  5
B6
330
1F
100
AcDbEntity
  8
0
  6
Continuous
 62
     7
370
    15
100
AcDbLine
 10
55.3378684472
 20
49.4537717946
 30
0.0
 11
53.0770717214
 21
49.4417763599
 31
0.0
  0
ARC
  5
B7
330
1F
100
AcDbEntity
  8
0
  6
Continuous
 62
     7
370
    15
100
AcDbCircle
 10
53.076594261
 20
49.5617700888
 30
0.0
 40
0.1200014999906437
100
AcDbArc
 50
209.9998940109
 51
270.2270521083
  0
LINE
  5
B8
330
1F
100
AcDbEntity
  8
0
  6
Continuous
 62
     7
370
    15
100
AcDbLine
 10
52.9726667355
 20
49.5017684348
 30
0.0
 11
51.8506689023
 21
51.4577693589
 31
0.0
  0
ARC
  5
B9
330
1F
100
AcDbEntity
  8
0
  6
Continuous
 62
     7
370
    15
100
AcDbCircle
 10
51.7486698025
 20
51.3977695311
 30
0.0
 40
0.1183384975399802
100
AcDbArc
 50
30.4655449194
 51
149.5344550806
  0
LINE
  5
BA
330
1F
100
AcDbEntity
  8
0
  6
Continuous
 62
     7
370
    15
100
AcDbLine
 10
51.6466720055
 20
51.4577693589
 30
0.0
 11
50.5246667217
 21
49.5017684348
 31
0.0
  0
ARC
  5
BB
330
1F
100
AcDbEntity
  8
0
  6
Continuous
 62
     7
370
    15
100
AcDbCircle
 10
50.4226698025
 20
49.5617695311
 30
0.0
 40
0.1183384975398754
100
AcDbArc
 50
267.1375947739
 51
329.5344550805
  0
LINE
  5
BC
330
1F
100
AcDbEntity
  8
0
  6
Continuous
 62
     7
370
    15
100
AcDbLine
 10
50.4167599629
 20
49.4435794004
 30
0.0
 11
48.1594724606
 21
49.4537717946
 31
0.0
  0
ARC
  5
BD
330
1F
100
AcDbEntity
  8
0
  6
Continuous
 62
     7
370
    15
100
AcDbCircle
 10
48.1592466177
 20
49.3337682387
 30
0.0
 40
0.1200014999906794
100
AcDbArc
 50
89.8934383908
 51
210.3302183622
  0
LINE
  5
BE
330
1F
100
AcDbEntity
  8
0
  6
Continuous
 62
     7
370
    15
100
AcDbLine
 10
48.0556709717
 20
49.273169721
 30
0.0
 11
49.1926668237
 21
47.3237700113
 31
0.0
  0
ARC
  5
BF
330
1F
100
AcDbEntity
  8
0
  6
Continuous
 62
     7
370
    15
100
AcDbCircle
 10
49.0906698025
 20
47.2637695311
 30
0.0
 40
0.118338497539946
100
AcDbArc
 50
329.5344550805
 51
30.4655449194
  0
LINE
  5
C0
330
1F
100
AcDbEntity
  8
0
  6
Continuous
 62
     7
370
    15
100
AcDbLine
 10
49.1926668237
 20
47.2037709602
 30
0.0
 11
48.0586661051
 21
45.253775204
 31
0.0
  0
ARC
  5
C1
330
1F
100
AcDbEntity
  8
0
  6
Continuous
 62
     7
370
    15
100
AcDbCircle
 10
48.1606698025
 20
45.1937695311
 30
0.0
 40
0.118338497539941
100
AcDbArc
 50
149.5344550805
 51
272.8624052261
  0
LINE
  5
C2
330
1F
100
AcDbEntity
  8
0
  6
Continuous
 62
     7
370
    15
100
AcDbLine
 10
48.1665803145
 20
45.0755722173
 30
0.0
 11
50.4166705559
 21
45.0797743448
 31
0.0
  0
ARC
  5
C3
330
1F
100
AcDbEntity
  8
0
  6
Continuous
 62
     7
370
    15
100
AcDbCircle
 10
50.4166698025
 20
44.9597695311
 30
0.0
 40
0.1200000000000306
100
AcDbArc
 50
29.0546040991
 51
90.0
  0
LINE
  5
C4
330
1F
100
AcDbEntity
  8
0
  6
Continuous
 62
     7
370
    15
100
AcDbLine
 10
50.5215672802
 20
45.0180537351
 30
0.0
 11
51.6466720055
 21
43.0637664445
 31
0.0
  0
ARC
  5
C5
330
1F
100
AcDbEntity
  8
0
  6
Continuous
 62
     7
370
    15
100
AcDbCircle
 10
51.7486698025
 20
43.1237695311
 30
0.0
 40
0.1183384975399892
100
AcDbArc
 50
210.4655449195
 51
329.5344550805
  0
LINE
  5
C6
330
1F
100
AcDbEntity
  8
0
  6
Continuous
 62
     7
370
    15
100
AcDbLine
 10
51.8506689023
 20
43.0637664445
 30
0.0
 11
52.9732702326
 21
45.0209743627
 31
0.0
  0
ARC
  5
C7
330
1F
100
AcDbEntity
  8
0
  6
Continuous
 62
     7
370
    15
100
AcDbCircle
 10
53.0776040443
 20
44.9614541046
 30
0.0
 40
0.1201154444690337
100
AcDbArc
 50
89.9686329475
 51
150.2982491442
  0
LINE
  5
C8
330
1F
100
AcDbEntity
  8
0
  6
Continuous
 62
     7
370
    15
100
AcDbLine
 10
53.0776677679
 20
45.0815624841
 30
0.0
 11
55.3306711863
 21
45.0737691768
 31
0.0
  0
ARC
  5
C9
330
1F
100
AcDbEntity
  8
0
  6
Continuous
 62
     7
370
    15
100
AcDbCircle
 10
55.3306698025
 20
45.1937695311
 30
0.0
 40
0.1200000000000614
100
AcDbArc
 50
270.0
 51
29.0546040991
  0
LINE
  5
CA
330
1F
100
AcDbEntity
  8
0
  6
Continuous
 62
     7
370
    15
100
AcDbLine
 10
55.4355679105
 20
45.2520466693
 30
0.0
 11
54.3046666335
 21
47.2037709602
 31
0.0
  0
ARC
  5
CB
330
1F
100
AcDbEntity
  8
0
  6
Continuous
 62
     7
370
    15
100
AcDbCircle
 10
-68.6593301975
 20
40.3637695311
 30
0.0
 40
0.1183384975398951
100
AcDbArc
 50
149.5344550805
 51
270.0
  0
LINE
  5
CC
330
1F
100
AcDbEntity
  8
0
  6
Continuous
 62
     7
370
    15
100
AcDbLine
 10
-68.6593355585
 20
40.2454353221
 30
0.0
 11
-66.4033295561
 21
40.255776728
 31
0.0
  0
ARC
  5
CD
330
1F
100
AcDbEntity
  8
0
  6
Continuous
 62
     7
370
    15
100
AcDbCircle
 10
-66.4033301975
 20
40.1357695311
 30
0.0
 40
0.1200000000000163
100
AcDbArc
 50
30.4655449195
 51
90.0
  0
LINE
  5
CE
330
1F
100
AcDbEntity
  8
0
  6
Continuous
 62
     7
370
    15
100
AcDbLine
 10
-66.2999005963
 20
40.1966191181
 30
0.0
 11
-65.1793332745
 21
38.2397688278
 31
0.0
  0
ARC
  5
CF
330
1F
100
AcDbEntity
  8
0
  6
Continuous
 62
     7
370
    15
100
AcDbCircle
 10
-65.0773301975
 20
38.2997695311
 30
0.0
 40
0.1183384975399068
100
AcDbArc
 50
210.4655449195
 51
330.9453959009
  0
LINE
  5
D0
330
1F
100
AcDbEntity
  8
0
  6
Continuous
 62
     7
370
    15
100
AcDbLine
 10
-64.9738909651
 20
38.2423020252
 30
0.0
 11
-63.8497324635
 21
40.190971578
 31
0.0
  0
ARC
  5
D1
330
1F
100
AcDbEntity
  8
0
  6
Continuous
 62
     7
370
    15
100
AcDbCircle
 10
-63.74569877
 20
40.1319757848
 30
0.0
 40
0.1195943142461437
100
AcDbArc
 50
89.8234223333
 51
150.4434597583
  0
LINE
  5
D2
330
1F
100
AcDbEntity
  8
0
  6
Continuous
 62
     7
370
    15
100
AcDbLine
 10
-63.7453349282
 20
40.2515746005
 30
0.0
 11
-61.4893289257
 21
40.2437663921
 31
0.0
  0
ARC
  5
D3
330
1F
100
AcDbEntity
  8
0
  6
Continuous
 62
     7
370
    15
100
AcDbCircle
 10
-61.4893301975
 20
40.3637695311
 30
0.0
 40
0.1200000000000401
100
AcDbArc
 50
270.0
 51
30.4655449195
  0
LINE
  5
D4
330
1F
100
AcDbEntity
  8
0
  6
Continuous
 62
     7
370
    15
100
AcDbLine
 10
-61.3858999659
 20
40.4246068843
 30
0.0
 11
-62.5213237454
 21
42.3737681754
 31
0.0
  0
ARC
  5
D5
330
1F
100
AcDbEntity
  8
0
  6
Continuous
 62
     7
370
    15
100
AcDbCircle
 10
-62.4193301975
 20
42.4337695311
 30
0.0
 40
0.1183384975399071
100
AcDbArc
 50
149.5344550805
 51
210.4655449195
  0
LINE
  5
D6
330
1F
100
AcDbEntity
  8
0
  6
Continuous
 62
     7
370
    15
100
AcDbLine
 10
-62.5213237454
 20
42.4937672265
 30
0.0
 11
-61.3873304774
 21
44.4437629827
 31
0.0
  0
ARC
  5
D7
330
1F
100
AcDbEntity
  8
0
  6
Continuous
 62
     7
370
    15
100
AcDbCircle
 10
-61.4893301975
 20
44.5037695311
 30
0.0
 40
0.1183384975399449
100
AcDbArc
 50
329.5344550805
 51
90.0
  0
LINE
  5
D8
330
1F
100
AcDbEntity
  8
0
  6
Continuous
 62
     7
370
    15
100
AcDbLine
 10
-61.4893289257
 20
44.622114981
 30
0.0
 11
-63.7453349282
 21
44.6177638419
 31
0.0
  0
ARC
  5
D9
330
1F
100
AcDbEntity
  8
0
  6
Continuous
 62
     7
370
    15
100
AcDbCircle
 10
-63.7453301975
 20
44.7377695311
 30
0.0
 40
0.1199999999999882
100
AcDbArc
 50
210.4655449195
 51
270.0
  0
LINE
  5
DA
330
1F
100
AcDbEntity
  8
0
  6
Continuous
 62
     7
370
    15
100
AcDbLine
 10
-63.848763888
 20
44.6769214519
 30
0.0
 11
-64.9693312098
 21
46.6337717422
 31
0.0
  0
ARC
  5
DB
330
1F
100
AcDbEntity
  8
0
  6
Continuous
 62
     7
370
    15
100
AcDbCircle
 10
-65.0713301975
 20
46.5737695311
 30
0.0
 40
0.1183384975399171
100
AcDbArc
 50
30.4655449195
 51
150.9453959009
  0
LINE
  5
DC
330
1F
100
AcDbEntity
  8
0
  6
Continuous
 62
     7
370
    15
100
AcDbLine
 10
-65.1747735192
 20
46.6312385448
 30
0.0
 11
-66.3013311077
 21
44.6777708181
 31
0.0
  0
ARC
  5
DD
330
1F
100
AcDbEntity
  8
0
  6
Continuous
 62
     7
370
    15
100
AcDbCircle
 10
-66.4033301975
 20
44.7377695311
 30
0.0
 40
0.1183384975399316
100
AcDbArc
 50
270.0
 51
329.5344550805
  0
LINE
  5
DE
330
1F
100
AcDbEntity
  8
0
  6
Continuous
 62
     7
370
    15
100
AcDbLine
 10
-66.4033295561
 20
44.619432772
 30
0.0
 11
-68.6593355585
 21
44.6237690099
 31
0.0
  0
ARC
  5
DF
330
1F
100
AcDbEntity
  8
0
  6
Continuous
 62
     7
370
    15
100
AcDbCircle
 10
-68.6593301975
 20
44.5037695311
 30
0.0
 40
0.1200000000000045
100
AcDbArc
 50
90.0
 51
210.4655449195
  0
LINE
  5
E0
330
1F
100
AcDbEntity
  8
0
  6
Continuous
 62
     7
370
    15
100
AcDbLine
 10
-68.7627645184
 20
44.4429285177
 30
0.0
 11
-67.6273258377
 21
42.4937672265
 31
0.0
  0
ARC
  5
E1
330
1F
100
AcDbEntity
  8
0
  6
Continuous
 62
     7
370
    15
100
AcDbCircle
 10
-67.7293301975
 20
42.4337695311
 30
0.0
 40
0.1183384975398927
100
AcDbArc
 50
329.5344550805
 51
30.4655449195
  0
LINE
  5
E2
330
1F
100
AcDbEntity
  8
0
  6
Continuous
 62
     7
370
    15
100
AcDbLine
 10
-67.6273258377
 20
42.3737681754
 30
0.0
 11
-68.7613340069
 21
40.4237724193
 31
0.0
  0
ARC
  5
E3
330
1F
100
AcDbEntity
  8
0
  6
Continuous
 62
     7
370
    15
100
AcDbCircle
 10
21.5746698025
 20
68.0117695311
 30
0.0
 40
0.1183384975398712
100
AcDbArc
 50
329.5344550805
 51
30.4655449195
  0
LINE
  5
E4
330
1F
100
AcDbEntity
  8
0
  6
Continuous
 62
     7
370
    15
100
AcDbLine
 10
21.6766668509
 20
67.9517678269
 30
0.0
 11
20.5426661323
 21
66.0017720707
 31
0.0
  0
ARC
  5
E5
330
1F
100
AcDbEntity
  8
0
  6
Continuous
 62
     7
370
    15
100
AcDbCircle
 10
20.6446698025
 20
65.9417695311
 30
0.0
 40
0.1183384975398394
100
AcDbArc
 50
149.5344550805
 51
272.8624052261
  0
LINE
  5
E6
330
1F
100
AcDbEntity
  8
0
  6
Continuous
 62
     7
370
    15
100
AcDbLine
 10
20.6505803417
 20
65.8235765346
 30
0.0
 11
22.9006705831
 21
65.8277712115
 31
0.0
  0
ARC
  5
E7
330
1F
100
AcDbEntity
  8
0
  6
Continuous
 62
     7
370
    15
100
AcDbCircle
 10
22.9006698025
 20
65.7077695311
 30
0.0
 40
0.1200000000000199
100
AcDbArc
 50
29.0546040991
 51
90.0
  0
LINE
  5
E8
330
1F
100
AcDbEntity
  8
0
  6
Continuous
 62
     7
370
    15
100
AcDbLine
 10
23.0055673073
 20
65.7660431512
 30
0.0
 11
24.1306720327
 21
63.8117707618
 31
0.0
  0
ARC
  5
E9
330
1F
100
AcDbEntity
  8
0
  6
Continuous
 62
     7
370
    15
100
AcDbCircle
 10
24.2326698025
 20
63.8717695311
 30
0.0
 40
0.1183384975400071
100
AcDbArc
 50
210.4655449194
 51
329.5344550806
  0
LINE
  5
EA
330
1F
100
AcDbEntity
  8
0
  6
Continuous
 62
     7
370
    15
100
AcDbLine
 10
24.3346689295
 20
63.8117707618
 30
0.0
 11
25.4572702597
 21
65.7689712294
 31
0.0
  0
ARC
  5
EB
330
1F
100
AcDbEntity
  8
0
  6
Continuous
 62
     7
370
    15
100
AcDbCircle
 10
25.5616040443
 20
65.7094541046
 30
0.0
 40
0.1201154444691042
100
AcDbArc
 50
89.9686329474
 51
150.2982491442
  0
LINE
  5
EC
330
1F
100
AcDbEntity
  8
0
  6
Continuous
 62
     7
370
    15
100
AcDbLine
 10
25.5616677951
 20
65.8295668014
 30
0.0
 11
27.8146712135
 21
65.8217660435
 31
0.0
  0
ARC
  5
ED
330
1F
100
AcDbEntity
  8
0
  6
Continuous
 62
     7
370
    15
100
AcDbCircle
 10
27.8146698025
 20
65.9417695311
 30
0.0
 40
0.1200000000000475
100
AcDbArc
 50
270.0
 51
29.0546040991
  0
LINE
  5
EE
330
1F
100
AcDbEntity
  8
0
  6
Continuous
 62
     7
370
    15
100
AcDbLine
 10
27.9195679377
 20
66.000043536
 30
0.0
 11
26.7886666607
 21
67.9517678269
 31
0.0
  0
ARC
  5
EF
330
1F
100
AcDbEntity
  8
0
  6
Continuous
 62
     7
370
    15
100
AcDbCircle
 10
26.8906698025
 20
68.0117695311
 30
0.0
 40
0.1183384975398712
100
AcDbArc
 50
149.5344550805
 51
210.4655449195
  0
LINE
  5
F0
330
1F
100
AcDbEntity
  8
0
  6
Continuous
 62
     7
370
    15
100
AcDbLine
 10
26.7886666607
 20
68.071766878
 30
0.0
 11
27.9226673793
 21
70.0217700847
 31
0.0
  0
ARC
  5
F1
330
1F
100
AcDbEntity
  8
0
  6
Continuous
 62
     7
370
    15
100
AcDbCircle
 10
27.8206698025
 20
70.0817695311
 30
0.0
 40
0.1183384975399318
100
AcDbArc
 50
329.5344550805
 51
92.8624052262
  0
LINE
  5
F2
330
1F
100
AcDbEntity
  8
0
  6
Continuous
 62
     7
370
    15
100
AcDbLine
 10
27.8147606205
 20
70.1999581703
 30
0.0
 11
25.564670379
 21
70.195770944
 31
0.0
  0
ARC
  5
F3
330
1F
100
AcDbEntity
  8
0
  6
Continuous
 62
     7
370
    15
100
AcDbCircle
 10
25.5646698025
 20
70.3157695311
 30
0.0
 40
0.1200000000000199
100
AcDbArc
 50
209.0546040991
 51
270.0
  0
LINE
  5
F4
330
1F
100
AcDbEntity
  8
0
  6
Continuous
 62
     7
370
    15
100
AcDbLine
 10
25.4597736548
 20
70.2574915536
 30
0.0
 11
24.3346689295
 21
72.2117713936
 31
0.0
  0
ARC
  5
F5
330
1F
100
AcDbEntity
  8
0
  6
Continuous
 62
     7
370
    15
100
AcDbCircle
 10
24.2326698025
 20
72.1517695311
 30
0.0
 40
0.1183384975399995
100
AcDbArc
 50
30.4655449195
 51
149.5344550804
  0
LINE
  5
F6
330
1F
100
AcDbEntity
  8
0
  6
Continuous
 62
     7
370
    15
100
AcDbLine
 10
24.1306720327
 20
72.2117713936
 30
0.0
 11
23.0086667489
 21
70.2557704695
 31
0.0
  0
ARC
  5
F7
330
1F
100
AcDbEntity
  8
0
  6
Continuous
 62
     7
370
    15
100
AcDbCircle
 10
22.9066698025
 20
70.3157695311
 30
0.0
 40
0.1183384975398869
100
AcDbArc
 50
267.1375947739
 51
329.5344550805
  0
LINE
  5
F8
330
1F
100
AcDbEntity
  8
0
  6
Continuous
 62
     7
370
    15
100
AcDbLine
 10
22.9007599901
 20
70.197581435
 30
0.0
 11
20.6506697487
 21
70.2017686613
 31
0.0
  0
ARC
  5
F9
330
1F
100
AcDbEntity
  8
0
  6
Continuous
 62
     7
370
    15
100
AcDbCircle
 10
20.6506698025
 20
70.0817695311
 30
0.0
 40
0.1200000000000614
100
AcDbArc
 50
90.0
 51
209.0546040991
  0
LINE
  5
FA
330
1F
100
AcDbEntity
  8
0
  6
Continuous
 62
     7
370
    15
100
AcDbLine
 10
20.5457730244
 20
70.0234911688
 30
0.0
 11
21.6766668509
 21
68.071766878
 31
0.0
  0
ARC
  5
FB
330
1F
100
AcDbEntity
  8
0
  6
Continuous
 62
     7
370
    15
100
AcDbCircle
 10
-132.4153301975
 20
104.6897695311
 30
0.0
 40
0.1183384975398631
100
AcDbArc
 50
329.5344550805
 51
30.4655449195
  0
LINE
  5
FC
330
1F
100
AcDbEntity
  8
0
  6
Continuous
 62
     7
370
    15
100
AcDbLine
 10
-132.3133261849
 20
104.6297691115
 30
0.0
 11
-133.447334354
 21
102.6797659047
 31
0.0
  0
ARC
  5
FD
330
1F
100
AcDbEntity
  8
0
  6
Continuous
 62
     7
370
    15
100
AcDbCircle
 10
-133.3453301975
 20
102.6197695311
 30
0.0
 40
0.1183384975399078
100
AcDbArc
 50
149.5344550805
 51
270.0
  0
LINE
  5
FE
330
1F
100
AcDbEntity
  8
0
  6
Continuous
 62
     7
370
    15
100
AcDbLine
 10
-133.3453210045
 20
102.5014288076
 30
0.0
 11
-131.0893448044
 21
102.5057724961
 31
0.0
  0
ARC
  5
FF
330
1F
100
AcDbEntity
  8
0
  6
Continuous
 62
     7
370
    15
100
AcDbCircle
 10
-131.0893301975
 20
102.3857695311
 30
0.0
 40
0.1200000000000365
100
AcDbArc
 50
30.4655449194
 51
90.0
  0
LINE
  5
100
330
1F
100
AcDbEntity
  8
0
  6
Continuous
 62
     7
370
    15
100
AcDbLine
 10
-130.9859009434
 20
102.4466148861
 30
0.0
 11
-129.8653336216
 21
100.4897720464
 31
0.0
  0
ARC
  5
101
330
1F
100
AcDbEntity
  8
0
  6
Continuous
 62
     7
370
    15
100
AcDbCircle
 10
-129.7633301975
 20
100.5497695311
 30
0.0
 40
0.1183384975399424
100
AcDbArc
 50
210.4655449194
 51
330.9453959009
  0
LINE
  5
102
330
1F
100
AcDbEntity
  8
0
  6
Continuous
 62
     7
370
    15
100
AcDbLine
 10
-129.6598764111
 20
100.4922977932
 30
0.0
 11
-128.5327227761
 21
102.446972514
 31
0.0
  0
ARC
  5
103
330
1F
100
AcDbEntity
  8
0
  6
Continuous
 62
     7
370
    15
100
AcDbCircle
 10
-128.4283959557
 20
102.3874541046
 30
0.0
 40
0.1201154444690646
100
AcDbArc
 50
89.9686329475
 51
150.2982491442
  0
LINE
  5
104
330
1F
100
AcDbEntity
  8
0
  6
Continuous
 62
     7
370
    15
100
AcDbLine
 10
-128.4283252407
 20
102.507568086
 30
0.0
 11
-126.1753292729
 21
102.4997673281
 31
0.0
  0
ARC
  5
105
330
1F
100
AcDbEntity
  8
0
  6
Continuous
 62
     7
370
    15
100
AcDbCircle
 10
-126.1753301975
 20
102.6197695311
 30
0.0
 40
0.1200000000000372
100
AcDbArc
 50
270.0
 51
30.4655449195
  0
LINE
  5
106
330
1F
100
AcDbEntity
  8
0
  6
Continuous
 62
     7
370
    15
100
AcDbLine
 10
-126.0718854119
 20
102.6806152709
 30
0.0
 11
-127.2073240925
 21
104.6297691115
 31
0.0
  0
ARC
  5
107
330
1F
100
AcDbEntity
  8
0
  6
Continuous
 62
     7
370
    15
100
AcDbCircle
 10
-127.1053301975
 20
104.6897695311
 30
0.0
 40
0.1183384975399244
100
AcDbArc
 50
149.5344550805
 51
210.4655449195
  0
LINE
  5
108
330
1F
100
AcDbEntity
  8
0
  6
Continuous
 62
     7
370
    15
100
AcDbLine
 10
-127.2073240925
 20
104.7497681626
 30
0.0
 11
-126.0733159233
 21
106.6997713693
 31
0.0
  0
ARC
  5
109
330
1F
100
AcDbEntity
  8
0
  6
Continuous
 62
     7
370
    15
100
AcDbCircle
 10
-126.1753301975
 20
106.7597695311
 30
0.0
 40
0.1183384975399093
100
AcDbArc
 50
329.5344550805
 51
90.0
  0
LINE
  5
10A
330
1F
100
AcDbEntity
  8
0
  6
Continuous
 62
     7
370
    15
100
AcDbLine
 10
-126.1753292729
 20
106.8781084665
 30
0.0
 11
-128.4313352753
 21
106.8677670606
 31
0.0
  0
ARC
  5
10B
330
1F
100
AcDbEntity
  8
0
  6
Continuous
 62
     7
370
    15
100
AcDbCircle
 10
-128.4313301975
 20
106.9877695311
 30
0.0
 40
0.1200000000000188
100
AcDbArc
 50
207.8972710309
 51
270.0
  0
LINE
  5
10C
330
1F
100
AcDbEntity
  8
0
  6
Continuous
 62
     7
370
    15
100
AcDbLine
 10
-128.5373719384
 20
106.9316259869
 30
0.0
 11
-129.6553166558
 21
108.8837675103
 31
0.0
  0
ARC
  5
10D
330
1F
100
AcDbEntity
  8
0
  6
Continuous
 62
     7
370
    15
100
AcDbCircle
 10
-129.7573301975
 20
108.8237695311
 30
0.0
 40
0.1183384975399568
100
AcDbArc
 50
30.4655449195
 51
150.9453959009
  0
LINE
  5
10E
330
1F
100
AcDbEntity
  8
0
  6
Continuous
 62
     7
370
    15
100
AcDbLine
 10
-129.8607738663
 20
108.8812417634
 30
0.0
 11
-130.9909375359
 21
106.9277665861
 31
0.0
  0
ARC
  5
10F
330
1F
100
AcDbEntity
  8
0
  6
Continuous
 62
     7
370
    15
100
AcDbCircle
 10
-131.0947924082
 20
106.9876617776
 30
0.0
 40
0.1198934526986409
100
AcDbArc
 50
269.7429954509
 51
330.0300584299
  0
LINE
  5
110
330
1F
100
AcDbEntity
  8
0
  6
Continuous
 62
     7
370
    15
100
AcDbLine
 10
-131.0953350712
 20
106.8677670606
 30
0.0
 11
-133.3453210045
 21
106.8797699459
 31
0.0
  0
ARC
  5
111
330
1F
100
AcDbEntity
  8
0
  6
Continuous
 62
     7
370
    15
100
AcDbCircle
 10
-133.3453301975
 20
106.7597695311
 30
0.0
 40
0.1200000000000422
100
AcDbArc
 50
90.0
 51
210.4655449195
  0
LINE
  5
112
330
1F
100
AcDbEntity
  8
0
  6
Continuous
 62
     7
370
    15
100
AcDbLine
 10
-133.4487648655
 20
106.6989294537
 30
0.0
 11
-132.3133261849
 21
104.7497681626
 31
0.0
  0
ARC
  5
113
330
1F
100
AcDbEntity
  8
0
  6
Continuous
 62
     7
370
    15
100
AcDbCircle
 10
9.1486698025
 20
143.9357695311
 30
0.0
 40
0.6000000000000227
100
AcDbArc
 50
270.0
 51
29.8865269404
  0
LINE
  5
114
330
1F
100
AcDbEntity
  8
0
  6
Continuous
 62
     7
370
    15
100
AcDbLine
 10
9.6688715767
 20
144.2347384342
 30
0.0
 11
4.0066687416
 21
153.9797700294
 31
0.0
  0
ARC
  5
115
330
1F
100
AcDbEntity
  8
0
  6
Continuous
 62
     7
370
    15
100
AcDbCircle
 10
4.5226698025
 20
154.2797695311
 30
0.0
 40
0.5968718455414149
100
AcDbArc
 50
149.3310733503
 51
210.1735200296
  0
LINE
  5
116
330
1F
100
AcDbEntity
  8
0
  6
Continuous
 62
     7
370
    15
100
AcDbLine
 10
4.0092764448
 20
154.584220732
 30
0.0
 11
9.6706746172
 21
164.3297701426
 31
0.0
  0
ARC
  5
117
330
1F
100
AcDbEntity
  8
0
  6
Continuous
 62
     7
370
    15
100
AcDbCircle
 10
9.1546698025
 20
164.6297695311
 30
0.0
 40
0.596871845541434
100
AcDbArc
 50
329.8264799704
 51
90.5729386977
  0
LINE
  5
118
330
1F
100
AcDbEntity
  8
0
  6
Continuous
 62
     7
370
    15
100
AcDbLine
 10
9.1487018417
 20
165.2266114302
 30
0.0
 11
-2.1193327357
 21
165.193769271
 31
0.0
  0
ARC
  5
119
330
1F
100
AcDbEntity
  8
0
  6
Continuous
 62
     7
370
    15
100
AcDbCircle
 10
-2.1193301975
 20
165.7937695311
 30
0.0
 40
0.6000000000000469
100
AcDbArc
 50
209.3890114663
 51
270.0
  0
LINE
  5
11A
330
1F
100
AcDbEntity
  8
0
  6
Continuous
 62
     7
370
    15
100
AcDbLine
 10
-2.6421101738
 20
165.4993268945
 30
0.0
 11
-8.2513244797
 21
175.2737696566
 31
0.0
  0
ARC
  5
11B
330
1F
100
AcDbEntity
  8
0
  6
Continuous
 62
     7
370
    15
100
AcDbCircle
 10
-8.7733301975
 20
174.9737695311
 30
0.0
 40
0.6020664415162038
100
AcDbArc
 50
29.8865269404
 51
149.8264799704
  0
LINE
  5
11C
330
1F
100
AcDbEntity
  8
0
  6
Continuous
 62
     7
370
    15
100
AcDbLine
 10
-9.293824618
 20
175.2763801538
 30
0.0
 11
-14.8993285347
 21
165.499770204
 31
0.0
  0
ARC
  5
11D
330
1F
100
AcDbEntity
  8
0
  6
Continuous
 62
     7
370
    15
100
AcDbCircle
 10
-15.4213301975
 20
165.7997695311
 30
0.0
 40
0.6020664415162159
100
AcDbArc
 50
270.0
 51
330.1134730596
  0
LINE
  5
11E
330
1F
100
AcDbEntity
  8
0
  6
Continuous
 62
     7
370
    15
100
AcDbLine
 10
-15.4213311125
 20
165.1977031775
 30
0.0
 11
-26.6893358876
 21
165.2297686138
 31
0.0
  0
ARC
  5
11F
330
1F
100
AcDbEntity
  8
0
  6
Continuous
 62
     7
370
    15
100
AcDbCircle
 10
-26.6893301975
 20
164.6297695311
 30
0.0
 40
0.6000000000000227
100
AcDbArc
 50
90.0
 51
209.8865269404
  0
LINE
  5
120
330
1F
100
AcDbEntity
  8
0
  6
Continuous
 62
     7
370
    15
100
AcDbLine
 10
-27.2095354248
 20
164.3307983228
 30
0.0
 11
-21.5473325898
 21
154.5857704528
 31
0.0
  0
ARC
  5
121
330
1F
100
AcDbEntity
  8
0
  6
Continuous
 62
     7
370
    15
100
AcDbCircle
 10
-22.0633301975
 20
154.2857695311
 30
0.0
 40
0.59687184554143
100
AcDbArc
 50
329.3310733503
 51
30.1735200296
  0
LINE
  5
122
330
1F
100
AcDbEntity
  8
0
  6
Continuous
 62
     7
370
    15
100
AcDbLine
 10
-21.549940293
 20
153.9813197501
 30
0.0
 11
-27.2113235642
 21
144.2357703396
 31
0.0
  0
ARC
  5
123
330
1F
100
AcDbEntity
  8
0
  6
Continuous
 62
     7
370
    15
100
AcDbCircle
 10
-26.6953301975
 20
143.9357695311
 30
0.0
 40
0.5968718455414079
100
AcDbArc
 50
149.8264799704
 51
270.5729386977
  0
LINE
  5
124
330
1F
100
AcDbEntity
  8
0
  6
Continuous
 62
     7
370
    15
100
AcDbLine
 10
-26.6893656899
 20
143.338929052
 30
0.0
 11
-15.4213311125
 21
143.3717712112
 31
0.0
  0
ARC
  5
125
330
1F
100
AcDbEntity
  8
0
  6
Continuous
 62
     7
370
    15
100
AcDbCircle
 10
-15.4213301975
 20
142.7717695311
 30
0.0
 40
0.6000000000000331
100
AcDbArc
 50
29.3890114663
 51
90.0
  0
LINE
  5
126
330
1F
100
AcDbEntity
  8
0
  6
Continuous
 62
     7
370
    15
100
AcDbLine
 10
-14.8985387732
 20
143.0662117251
 30
0.0
 11
-9.8113270451
 21
134.1977707394
 31
0.0
  0
ARC
  5
127
330
1F
100
AcDbEntity
  8
0
  6
Continuous
 62
     7
370
    15
100
AcDbCircle
 10
-8.7703301975
 20
134.7343032882
 30
0.0
 40
1.171131705878929
100
AcDbArc
 50
207.2666810019
 51
332.7333189977
  0
LINE
  5
128
330
1F
100
AcDbEntity
  8
0
  6
Continuous
 62
     7
370
    15
100
AcDbLine
 10
-7.7293368031
 20
134.1977707394
 30
0.0
 11
-2.6413353134
 21
143.0657684155
 31
0.0
  0
ARC
  5
129
330
1F
100
AcDbEntity
  8
0
  6
Continuous
 62
     7
370
    15
100
AcDbCircle
 10
-2.1193301975
 20
142.7657695311
 30
0.0
 40
0.6020664415162287
100
AcDbArc
 50
90.0
 51
150.1134730596
  0
LINE
  5
12A
330
1F
100
AcDbEntity
  8
0
  6
Continuous
 62
     7
370
    15
100
AcDbLine
 10
-2.1193327357
 20
143.3678373047
 30
0.0
 11
9.1486720394
 21
143.3357700058
 31
0.0
  0
ARC
  5
12B
330
1F
100
AcDbEntity
  8
0
  6
Continuous
 62
     7
370
    15
100
AcDbCircle
 10
-69.6553301975
 20
184.3157695311
 30
0.0
 40
0.118338497539933
100
AcDbArc
 50
149.5344550806
 51
210.4655449195
  0
LINE
  5
12C
330
1F
100
AcDbEntity
  8
0
  6
Continuous
 62
     7
370
    15
100
AcDbLine
 10
-69.7573276211
 20
184.3757695802
 30
0.0
 11
-68.6293246199
 21
186.3197694816
 31
0.0
  0
ARC
  5
12D
330
1F
100
AcDbEntity
  8
0
  6
Continuous
 62
     7
370
    15
100
AcDbCircle
 10
-68.7313301975
 20
186.3797695311
 30
0.0
 40
0.1183384975399129
100
AcDbArc
 50
329.5344550805
 51
90.0
  0
LINE
  5
12E
330
1F
100
AcDbEntity
  8
0
  6
Continuous
 62
     7
370
    15
100
AcDbLine
 10
-68.7313230683
 20
186.4981079758
 30
0.0
 11
-70.9873290707
 21
186.4937696424
 31
0.0
  0
ARC
  5
12F
330
1F
100
AcDbEntity
  8
0
  6
Continuous
 62
     7
370
    15
100
AcDbCircle
 10
-70.9873301975
 20
186.6137695311
 30
0.0
 40
0.1200000000000372
100
AcDbArc
 50
210.4655449195
 51
270.0
  0
LINE
  5
130
330
1F
100
AcDbEntity
  8
0
  6
Continuous
 62
     7
370
    15
100
AcDbLine
 10
-71.0907580305
 20
186.5529270195
 30
0.0
 11
-72.2113253523
 21
188.50976951
 31
0.0
  0
ARC
  5
131
330
1F
100
AcDbEntity
  8
0
  6
Continuous
 62
     7
370
    15
100
AcDbCircle
 10
-72.3133301975
 20
188.4497695311
 30
0.0
 40
0.1183384975399662
100
AcDbArc
 50
30.4655449195
 51
150.9453959009
  0
LINE
  5
132
330
1F
100
AcDbEntity
  8
0
  6
Continuous
 62
     7
370
    15
100
AcDbLine
 10
-72.4167825629
 20
188.507239805
 30
0.0
 11
-73.5433252503
 21
186.5537696336
 31
0.0
  0
ARC
  5
133
330
1F
100
AcDbEntity
  8
0
  6
Continuous
 62
     7
370
    15
100
AcDbCircle
 10
-73.6453301975
 20
186.6137695311
 30
0.0
 40
0.1183384975399235
100
AcDbArc
 50
270.0
 51
329.5344550805
  0
LINE
  5
134
330
1F
100
AcDbEntity
  8
0
  6
Continuous
 62
     7
370
    15
100
AcDbLine
 10
-73.6453236986
 20
186.4954311219
 30
0.0
 11
-75.9013297011
 21
186.4997694552
 31
0.0
  0
ARC
  5
135
330
1F
100
AcDbEntity
  8
0
  6
Continuous
 62
     7
370
    15
100
AcDbCircle
 10
-75.9013301975
 20
186.3797695311
 30
0.0
 40
0.1200000000000955
100
AcDbArc
 50
90.0
 51
210.4655449194
  0
LINE
  5
136
330
1F
100
AcDbEntity
  8
0
  6
Continuous
 62
     7
370
    15
100
AcDbLine
 10
-76.0047586609
 20
186.3189271003
 30
0.0
 11
-74.8693348814
 21
184.3757695802
 31
0.0
  0
ARC
  5
137
330
1F
100
AcDbEntity
  8
0
  6
Continuous
 62
     7
370
    15
100
AcDbCircle
 10
-74.9713301975
 20
184.3157695311
 30
0.0
 40
0.1183384975399575
100
AcDbArc
 50
329.5344550805
 51
30.4655449194
  0
LINE
  5
138
330
1F
100
AcDbEntity
  8
0
  6
Continuous
 62
     7
370
    15
100
AcDbLine
 10
-74.8693348814
 20
184.2557695978
 30
0.0
 11
-76.0033281494
 21
182.305769185
 31
0.0
  0
ARC
  5
139
330
1F
100
AcDbEntity
  8
0
  6
Continuous
 62
     7
370
    15
100
AcDbCircle
 10
-75.9013301975
 20
182.2457695311
 30
0.0
 40
0.1183384975399373
100
AcDbArc
 50
149.5344550806
 51
270.0
  0
LINE
  5
13A
330
1F
100
AcDbEntity
  8
0
  6
Continuous
 62
     7
370
    15
100
AcDbLine
 10
-75.9013297011
 20
182.1274311565
 30
0.0
 11
-73.6453236986
 21
182.1317692571
 31
0.0
  0
ARC
  5
13B
330
1F
100
AcDbEntity
  8
0
  6
Continuous
 62
     7
370
    15
100
AcDbCircle
 10
-73.6457048608
 20
182.011770116
 30
0.0
 40
0.1200000000000525
100
AcDbArc
 50
30.3310288128
 51
89.8211111371
  0
LINE
  5
13C
330
1F
100
AcDbEntity
  8
0
  6
Continuous
 62
     7
370
    15
100
AcDbLine
 10
-73.5421331574
 20
182.0723695033
 30
0.0
 11
-72.421327417
 21
180.1157697387
 31
0.0
  0
ARC
  5
13D
330
1F
100
AcDbEntity
  8
0
  6
Continuous
 62
     7
370
    15
100
AcDbCircle
 10
-72.3193301975
 20
180.1757695311
 30
0.0
 40
0.1183384975399273
100
AcDbArc
 50
210.4655449195
 51
330.9453959009
  0
LINE
  5
13E
330
1F
100
AcDbEntity
  8
0
  6
Continuous
 62
     7
370
    15
100
AcDbLine
 10
-72.2158851076
 20
180.1182992109
 30
0.0
 11
-71.0905345131
 21
182.0693697133
 31
0.0
  0
ARC
  5
13F
330
1F
100
AcDbEntity
  8
0
  6
Continuous
 62
     7
370
    15
100
AcDbCircle
 10
-70.9866686733
 20
182.0094760942
 30
0.0
 40
0.1198934526986442
100
AcDbArc
 50
90.0294017615
 51
150.0294017615
  0
LINE
  5
140
330
1F
100
AcDbEntity
  8
0
  6
Continuous
 62
     7
370
    15
100
AcDbLine
 10
-70.9867330242
 20
182.1293692388
 30
0.0
 11
-68.7313230683
 21
182.1257696771
 31
0.0
  0
ARC
  5
141
330
1F
100
AcDbEntity
  8
0
  6
Continuous
 62
     7
370
    15
100
AcDbCircle
 10
-68.7313301975
 20
182.2457695311
 30
0.0
 40
0.1200000000000045
100
AcDbArc
 50
270.0
 51
30.4655449195
  0
LINE
  5
142
330
1F
100
AcDbEntity
  8
0
  6
Continuous
 62
     7
370
    15
100
AcDbLine
 10
-68.6278941084
 20
182.306612032
 30
0.0
 11
-69.7573276211
 21
184.2557695978
 31
0.0
  0
ARC
  5
143
330
1F
100
AcDbEntity
  8
0
  6
Continuous
 62
     7
370
    15
100
AcDbCircle
 10
-16.5913301975
 20
233.1917695311
 30
0.0
 40
0.1183384975399153
100
AcDbArc
 50
329.5344550806
 51
92.8624052261
  0
LINE
  5
144
330
1F
100
AcDbEntity
  8
0
  6
Continuous
 62
     7
370
    15
100
AcDbLine
 10
-16.597241347
 20
233.3099610456
 30
0.0
 11
-18.8473315884
 21
233.305770094
 31
0.0
  0
ARC
  5
145
330
1F
100
AcDbEntity
  8
0
  6
Continuous
 62
     7
370
    15
100
AcDbCircle
 10
-18.8473301975
 20
233.4257695311
 30
0.0
 40
0.1200000000000614
100
AcDbArc
 50
209.0546040991
 51
270.0
  0
LINE
  5
146
330
1F
100
AcDbEntity
  8
0
  6
Continuous
 62
     7
370
    15
100
AcDbLine
 10
-18.9522357632
 20
233.3674907037
 30
0.0
 11
-20.077333038
 21
235.3217705437
 31
0.0
  0
ARC
  5
147
330
1F
100
AcDbEntity
  8
0
  6
Continuous
 62
     7
370
    15
100
AcDbCircle
 10
-20.1793301975
 20
235.2617695311
 30
0.0
 40
0.1183384975399662
100
AcDbArc
 50
30.4655449195
 51
149.5344550805
  0
LINE
  5
148
330
1F
100
AcDbEntity
  8
0
  6
Continuous
 62
     7
370
    15
100
AcDbLine
 10
-20.2813299347
 20
235.3217705437
 30
0.0
 11
-21.403327768
 21
233.3657696195
 31
0.0
  0
ARC
  5
149
330
1F
100
AcDbEntity
  8
0
  6
Continuous
 62
     7
370
    15
100
AcDbCircle
 10
-21.5053301975
 20
233.4257695311
 30
0.0
 40
0.1183384975399464
100
AcDbArc
 50
267.1375947739
 51
329.5344550805
  0
LINE
  5
14A
330
1F
100
AcDbEntity
  8
0
  6
Continuous
 62
     7
370
    15
100
AcDbLine
 10
-21.5112419773
 20
233.3075768598
 30
0.0
 11
-23.7613322188
 21
233.3117678114
 31
0.0
  0
ARC
  5
14B
330
1F
100
AcDbEntity
  8
0
  6
Continuous
 62
     7
370
    15
100
AcDbCircle
 10
-23.7613301975
 20
233.1917695311
 30
0.0
 40
0.1200000000000045
100
AcDbArc
 50
90.0
 51
209.0546040991
  0
LINE
  5
14C
330
1F
100
AcDbEntity
  8
0
  6
Continuous
 62
     7
370
    15
100
AcDbLine
 10
-23.8662363936
 20
233.1334940441
 30
0.0
 11
-22.7353276659
 21
231.1817697533
 31
0.0
  0
ARC
  5
14D
330
1F
100
AcDbEntity
  8
0
  6
Continuous
 62
     7
370
    15
100
AcDbCircle
 10
-22.8373301975
 20
231.1217695311
 30
0.0
 40
0.1183384975399101
100
AcDbArc
 50
329.5344550806
 51
30.4655449195
  0
LINE
  5
14E
330
1F
100
AcDbEntity
  8
0
  6
Continuous
 62
     7
370
    15
100
AcDbLine
 10
-22.7353276659
 20
231.0617707022
 30
0.0
 11
-23.8693358351
 21
229.1117712208
 31
0.0
  0
ARC
  5
14F
330
1F
100
AcDbEntity
  8
0
  6
Continuous
 62
     7
370
    15
100
AcDbCircle
 10
-23.7673301975
 20
229.0517695311
 30
0.0
 40
0.1183384975398884
100
AcDbArc
 50
149.5344550805
 51
272.8624052261
  0
LINE
  5
150
330
1F
100
AcDbEntity
  8
0
  6
Continuous
 62
     7
370
    15
100
AcDbLine
 10
-23.7614216257
 20
228.9335794099
 30
0.0
 11
-21.5113313843
 21
228.9377703615
 31
0.0
  0
ARC
  5
151
330
1F
100
AcDbEntity
  8
0
  6
Continuous
 62
     7
370
    15
100
AcDbCircle
 10
-21.5113301975
 20
228.8177695311
 30
0.0
 40
0.1199999999999761
100
AcDbArc
 50
29.0546040991
 51
90.0
  0
LINE
  5
152
330
1F
100
AcDbEntity
  8
0
  6
Continuous
 62
     7
370
    15
100
AcDbLine
 10
-21.4064272095
 20
228.8760460265
 30
0.0
 11
-20.2813299347
 21
226.9217699118
 31
0.0
  0
ARC
  5
153
330
1F
100
AcDbEntity
  8
0
  6
Continuous
 62
     7
370
    15
100
AcDbCircle
 10
-20.1793301975
 20
226.9817695311
 30
0.0
 40
0.1183384975399129
100
AcDbArc
 50
210.4655449195
 51
329.5344550806
  0
LINE
  5
154
330
1F
100
AcDbEntity
  8
0
  6
Continuous
 62
     7
370
    15
100
AcDbLine
 10
-20.077333038
 20
226.9217699118
 30
0.0
 11
-18.9547242571
 21
228.8789703794
 31
0.0
  0
ARC
  5
155
330
1F
100
AcDbEntity
  8
0
  6
Continuous
 62
     7
370
    15
100
AcDbCircle
 10
-18.8503959557
 20
228.8194541046
 30
0.0
 40
0.1201154444690788
100
AcDbArc
 50
89.9686329475
 51
150.2982491442
  0
LINE
  5
156
330
1F
100
AcDbEntity
  8
0
  6
Continuous
 62
     7
370
    15
100
AcDbLine
 10
-18.8503267218
 20
228.9395696767
 30
0.0
 11
-16.5973307539
 21
228.9317689188
 31
0.0
  0
ARC
  5
157
330
1F
100
AcDbEntity
  8
0
  6
Continuous
 62
     7
370
    15
100
AcDbCircle
 10
-16.5972718878
 20
229.051769517
 30
0.0
 40
0.1200000000000369
100
AcDbArc
 50
269.972159129
 51
29.0124801255
  0
LINE
  5
158
330
1F
100
AcDbEntity
  8
0
  6
Continuous
 62
     7
370
    15
100
AcDbLine
 10
-16.4923371722
 20
229.1099681803
 30
0.0
 11
-17.6233353068
 21
231.0617707022
 31
0.0
  0
ARC
  5
159
330
1F
100
AcDbEntity
  8
0
  6
Continuous
 62
     7
370
    15
100
AcDbCircle
 10
-17.5213301975
 20
231.1217695311
 30
0.0
 40
0.1183384975399575
100
AcDbArc
 50
149.5344550806
 51
210.4655449194
  0
LINE
  5
15A
330
1F
100
AcDbEntity
  8
0
  6
Continuous
 62
     7
370
    15
100
AcDbLine
 10
-17.6233353068
 20
231.1817697533
 30
0.0
 11
-16.4893271376
 21
233.1317692347
 31
0.0
  0
CIRCLE
  5
15B
330
1F
100
AcDbEntity
  8
0
  6
Continuous
 62
     7
370
    15
100
AcDbCircle
 10
-113.7735690439
 20
211.5833713777
 30
0.0
 40
1.0
  0
CIRCLE
  5
15C
330
1F
100
AcDbEntity
  8
0
  6
Continuous
 62
     7
370
    15
100
AcDbCircle
 10
-152.3608779442
 20
97.4969688966
 30
0.0
 40
1.0
  0
CIRCLE
  5
15D
330
1F
100
AcDbEntity
  8
0
  6
Continuous
 62
     7
370
    15
100
AcDbCircle
 10
75.9746172282
 20
45.5296288179
 30
0.0
 40
1.0
  0
CIRCLE
  5
15E
330
1F
100
AcDbEntity
  8
0
  6
Continuous
 62
     7
370
    15
100
AcDbCircle
 10
42.3944172771
 20
153.6498645083
 30
0.0
 40
1.0
  0
ARC
  5
15F
330
1F
100
AcDbEntity
  8
0
  6
Continuous
 62
     7
370
    15
100
AcDbCircle
 10
-20.1313301975
 20
19.5497695311
 30
0.0
 40
3.752371841915493
100
AcDbArc
 50
84.0332005173
 51
185.3213342442
  0
LINE
  5
160
330
1F
100
AcDbEntity
  8
0
  6
Continuous
 62
     7
370
    15
100
AcDbLine
 10
-22.4173368861
 20
3.5717702754
 30
0.0
 11
-23.8675327946
 21
19.2017621644
 31
0.0
  0
LINE
  5
161
330
1F
100
AcDbEntity
  8
0
  6
Continuous
 62
     7
370
    15
100
AcDbLine
 10
-26.1673333098
 20
3.5717702754
 30
0.0
 11
-22.4173368861
 21
3.5717702754
 31
0.0
  0
LINE
  5
162
330
1F
100
AcDbEntity
  8
0
  6
Continuous
 62
     7
370
    15
100
AcDbLine
 10
-26.1673333098
 20
0.5717641958
 30
0.0
 11
-26.1673333098
 21
3.5717702754
 31
0.0
  0
LINE
  5
163
330
1F
100
AcDbEntity
  8
0
  6
Continuous
 62
     7
370
    15
100
AcDbLine
 10
-67.417323773
 20
0.5717641958
 30
0.0
 11
-26.1673333098
 21
0.5717641958
 31
0.0
  0
LINE
  5
164
330
1F
100
AcDbEntity
  8
0
  6
Continuous
 62
     7
370
    15
100
AcDbLine
 10
-67.417323773
 20
3.5717702754
 30
0.0
 11
-67.417323773
 21
0.5717641958
 31
0.0
  0
LINE
  5
165
330
1F
100
AcDbEntity
  8
0
  6
Continuous
 62
     7
370
    15
100
AcDbLine
 10
-71.1685271908
 20
3.5717702754
 30
0.0
 11
-67.417323773
 21
3.5717702754
 31
0.0
  0
LINE
  5
166
330
1F
100
AcDbEntity
  8
0
  6
Continuous
 62
     7
370
    15
100
AcDbLine
 10
-69.7213264157
 20
19.2017621644
 30
0.0
 11
-71.1685271908
 21
3.5717702754
 31
0.0
  0
ARC
  5
167
330
1F
100
AcDbEntity
  8
0
  6
Continuous
 62
     7
370
    15
100
AcDbCircle
 10
-73.4528292855
 20
19.5539623145
 30
0.0
 40
3.748082869948312
100
AcDbArc
 50
354.6081836687
 51
95.977037576
  0
ARC
  5
168
330
1F
100
AcDbEntity
  8
0
  6
Continuous
 62
     7
370
    15
100
AcDbCircle
 10
-90.3676636427
 20
198.5657380966
 30
0.0
 40
176.0612545451154
100
AcDbArc
 50
242.5888544471
 51
275.3855256015
  0
ARC
  5
169
330
1F
100
AcDbEntity
  8
0
  6
Continuous
 62
     7
370
    15
100
AcDbCircle
 10
-169.5679450042
 20
45.5301193167
 30
0.0
 40
3.748765284730475
100
AcDbArc
 50
110.3161766336
 51
240.3683044209
  0
ARC
  5
16A
330
1F
100
AcDbEntity
  8
0
  6
Continuous
 62
     7
370
    15
100
AcDbCircle
 10
-209.8753301975
 20
154.5677695311
 30
0.0
 40
112.500512466033
100
AcDbArc
 50
290.2866279507
 51
317.1590995311
  0
ARC
  5
16B
330
1F
100
AcDbEntity
  8
0
  6
Continuous
 62
     7
370
    15
100
AcDbCircle
 10
-130.1350699024
 20
80.6193771143
 30
0.0
 40
3.749081359479968
100
AcDbArc
 50
317.1848587344
 51
83.3855466365
  0
ARC
  5
16C
330
1F
100
AcDbEntity
  8
0
  6
Continuous
 62
     7
370
    15
100
AcDbCircle
 10
-123.9051898835
 20
134.1968234714
 30
0.0
 40
50.1893482121456
100
AcDbArc
 50
232.2136705159
 51
263.3661992843
  0
ARC
  5
16D
330
1F
100
AcDbEntity
  8
0
  6
Continuous
 62
     7
370
    15
100
AcDbCircle
 10
-152.3608779442
 20
97.4969688966
 30
0.0
 40
3.750081839107003
100
AcDbArc
 50
110.387911329
 51
232.242470804
  0
ARC
  5
16E
330
1F
100
AcDbEntity
  8
0
  6
Continuous
 62
     7
370
    15
100
AcDbCircle
 10
-180.403338436
 20
172.9097664675
 30
0.0
 40
76.70779308518759
100
AcDbArc
 50
290.3982754269
 51
330.5074921257
  0
ARC
  5
16F
330
1F
100
AcDbEntity
  8
0
  6
Continuous
 62
     7
370
    15
100
AcDbCircle
 10
-116.8993301975
 20
136.9937695311
 30
0.0
 40
3.750834243205103
100
AcDbArc
 50
330.4824817134
 51
81.8984133245
  0
ARC
  5
170
330
1F
100
AcDbEntity
  8
0
  6
Continuous
 62
     7
370
    15
100
AcDbCircle
 10
-110.4291741447
 20
182.82750975
 30
0.0
 40
42.53733828626329
100
AcDbArc
 50
228.783379281
 51
261.9707510894
  0
ARC
  5
171
330
1F
100
AcDbEntity
  8
0
  6
Continuous
 62
     7
370
    15
100
AcDbCircle
 10
-135.9855127936
 20
153.6499295932
 30
0.0
 40
3.750000000000009
100
AcDbArc
 50
110.6079409571
 51
228.764342123
  0
ARC
  5
172
330
1F
100
AcDbEntity
  8
0
  6
Continuous
 62
     7
370
    15
100
AcDbCircle
 10
-167.4493301975
 20
237.4277695311
 30
0.0
 40
85.741331032356
100
AcDbArc
 50
290.5832627776
 51
332.430774944
  0
ARC
  5
173
330
1F
100
AcDbEntity
  8
0
  6
Continuous
 62
     7
370
    15
100
AcDbCircle
 10
-94.7662918415
 20
199.4816150799
 30
0.0
 40
3.749047030913331
100
AcDbArc
 50
332.4047091523
 51
92.3725064623
  0
ARC
  5
174
330
1F
100
AcDbEntity
  8
0
  6
Continuous
 62
     7
370
    15
100
AcDbCircle
 10
-96.4773871221
 20
241.5199299494
 30
0.0
 40
38.32407806953747
100
AcDbArc
 50
239.9895606681
 51
272.3267604325
  0
ARC
  5
175
330
1F
100
AcDbEntity
  8
0
  6
Continuous
 62
     7
370
    15
100
AcDbCircle
 10
-113.7735690439
 20
211.5833713777
 30
0.0
 40
3.750168044234852
100
AcDbArc
 50
126.0372267107
 51
240.0560858247
  0
ARC
  5
176
330
1F
100
AcDbEntity
  8
0
  6
Continuous
 62
     7
370
    15
100
AcDbCircle
 10
-240.8038349876
 20
376.9337695311
 30
0.0
 40
204.763585608187
100
AcDbArc
 50
307.5606283035
 51
338.5389422906
  0
ARC
  5
177
330
1F
100
AcDbEntity
  8
0
  6
Continuous
 62
     7
370
    15
100
AcDbCircle
 10
-49.2672349876
 20
301.5773937073
 30
0.0
 40
1.065036513547953
100
AcDbArc
 50
24.3884530209
 51
155.6115469791
  0
LINE
  5
178
330
1F
100
AcDbEntity
  8
0
  6
Continuous
 62
     7
370
    15
100
AcDbLine
 10
-48.2972415139
 20
151.974334503
 30
0.0
 11
-48.2972415139
 21
302.0171664007
 31
0.0
  0
LINE
  5
179
330
1F
100
AcDbEntity
  8
0
  6
Continuous
 62
     7
370
    15
100
AcDbLine
 10
-45.2972354342
 20
151.974334503
 30
0.0
 11
-48.2972415139
 21
151.974334503
 31
0.0
  0
LINE
  5
17A
330
1F
100
AcDbEntity
  8
0
  6
Continuous
 62
     7
370
    15
100
AcDbLine
 10
-45.2972354342
 20
302.0171664007
 30
0.0
 11
-45.2972354342
 21
151.974334503
 31
0.0
  0
ARC
  5
17B
330
1F
100
AcDbEntity
  8
0
  6
Continuous
 62
     7
370
    15
100
AcDbCircle
 10
-44.3269085352
 20
301.2924077749
 30
0.0
 40
1.211120566898455
100
AcDbArc
 50
36.8085825216
 51
143.2430015548
  0
ARC
  5
17C
330
1F
100
AcDbEntity
  8
0
  6
Continuous
 62
     7
370
    15
100
AcDbCircle
 10
147.2086698025
 20
376.9337695311
 30
0.0
 40
204.762619086297
100
AcDbArc
 50
201.4609014609
 51
232.4417057853
  0
ARC
  5
17D
330
1F
100
AcDbEntity
  8
0
  6
Continuous
 62
     7
370
    15
100
AcDbCircle
 10
20.1851647408
 20
211.5804468529
 30
0.0
 40
3.749300190702245
100
AcDbArc
 50
300.0103449756
 51
53.9447918793
  0
ARC
  5
17E
330
1F
100
AcDbEntity
  8
0
  6
Continuous
 62
     7
370
    15
100
AcDbCircle
 10
2.8936428603
 20
241.5154870378
 30
0.0
 40
38.31956717970602
100
AcDbArc
 50
267.6624895361
 51
300.012042532
  0
ARC
  5
17F
330
1F
100
AcDbEntity
  8
0
  6
Continuous
 62
     7
370
    15
100
AcDbCircle
 10
1.1806698025
 20
199.4837695311
 30
0.0
 40
3.747042273580596
100
AcDbArc
 50
87.7046206593
 51
207.6277861051
  0
ARC
  5
180
330
1F
100
AcDbEntity
  8
0
  6
Continuous
 62
     7
370
    15
100
AcDbCircle
 10
73.8654032412
 20
237.4193377529
 30
0.0
 40
85.73592817481509
100
AcDbArc
 50
207.5638490706
 51
249.4105436553
  0
ARC
  5
181
330
1F
100
AcDbEntity
  8
0
  6
Continuous
 62
     7
370
    15
100
AcDbCircle
 10
42.3944172771
 20
153.6498645083
 30
0.0
 40
3.750091198891088
100
AcDbArc
 50
311.2396128068
 51
69.3861849874
  0
ARC
  5
182
330
1F
100
AcDbEntity
  8
0
  6
Continuous
 62
     7
370
    15
100
AcDbCircle
 10
16.8305598493
 20
182.8181678451
 30
0.0
 40
42.53540702708751
100
AcDbArc
 50
278.0491650256
 51
311.2328216023
  0
ARC
  5
183
330
1F
100
AcDbEntity
  8
0
  6
Continuous
 62
     7
370
    15
100
AcDbCircle
 10
23.3086698025
 20
136.9877695311
 30
0.0
 40
3.750567317086801
100
AcDbArc
 50
98.0031700545
 51
209.4356444387
  0
ARC
  5
184
330
1F
100
AcDbEntity
  8
0
  6
Continuous
 62
     7
370
    15
100
AcDbCircle
 10
86.808432553
 20
172.9113450663
 30
0.0
 40
76.70756040156873
100
AcDbArc
 50
209.4949930129
 51
249.6050592559
  0
ARC
  5
185
330
1F
100
AcDbEntity
  8
0
  6
Continuous
 62
     7
370
    15
100
AcDbCircle
 10
58.7682906731
 20
97.4966108401
 30
0.0
 40
3.751321783051963
100
AcDbArc
 50
307.7848842162
 51
69.5873995453
  0
ARC
  5
186
330
1F
100
AcDbEntity
  8
0
  6
Continuous
 62
     7
370
    15
100
AcDbCircle
 10
30.3171666365
 20
134.1935035522
 30
0.0
 40
50.18545140297146
100
AcDbArc
 50
276.6311991735
 51
307.7863274563
  0
ARC
  5
187
330
1F
100
AcDbEntity
  8
0
  6
Continuous
 62
     7
370
    15
100
AcDbCircle
 10
36.5446698025
 20
80.6177695311
 30
0.0
 40
3.751002729937708
100
AcDbArc
 50
96.6162285727
 51
222.8544383194
  0
ARC
  5
188
330
1F
100
AcDbEntity
  8
0
  6
Continuous
 62
     7
370
    15
100
AcDbCircle
 10
116.2803648008
 20
154.5693607822
 30
0.0
 40
112.5012620121217
100
AcDbArc
 50
222.84498578
 51
249.7154229063
  0
ARC
  5
189
330
1F
100
AcDbEntity
  8
0
  6
Continuous
 62
     7
370
    15
100
AcDbCircle
 10
75.9746172282
 20
45.5296288179
 30
0.0
 40
3.749401968314455
100
AcDbArc
 50
299.6747972226
 51
69.6567945597
  0
ARC
  5
18A
330
1F
100
AcDbEntity
  8
0
  6
Continuous
 62
     7
370
    15
100
AcDbCircle
 10
-3.2222712833
 20
198.566318681
 30
0.0
 40
176.0611692598908
100
AcDbArc
 50
264.6162876254
 51
297.4109301299
  0
CIRCLE
  5
18B
330
1F
100
AcDbEntity
  8
0
  6
Continuous
 62
     7
370
    15
100
AcDbCircle
 10
20.1851647408
 20
211.5804468529
 30
0.0
 40
1.000000000000004
  0
CIRCLE
  5
18C
330
1F
100
AcDbEntity
  8
0
  6
Continuous
 62
     7
370
    15
100
AcDbCircle
 10
58.7682906731
 20
97.4966108401
 30
0.0
 40
1.0
  0
CIRCLE
  5
18D
330
1F
100
AcDbEntity
  8
0
  6
Continuous
 62
     7
370
    15
100
AcDbCircle
 10
-169.5679450042
 20
45.5301193167
 30
0.0
 40
1.0
  0
CIRCLE
  5
18E
330
1F
100
AcDbEntity
  8
0
  6
Continuous
 62
     7
370
    15
100
AcDbCircle
 10
-135.9855127936
 20
153.6499295932
 30
0.0
 40
1.0
  0
ARC
  5
18F
330
1F
100
AcDbEntity
  8
0
  6
Continuous
 62
     7
370
    15
100
AcDbCircle
 10
-64.7953301975
 20
252.2177695311
 30
0.0
 40
0.118338497539952
100
AcDbArc
 50
149.5344550806
 51
270.0
  0
LINE
  5
190
330
1F
100
AcDbEntity
  8
0
  6
Continuous
 62
     7
370
    15
100
AcDbLine
 10
-64.7953303505
 20
252.0994312413
 30
0.0
 11
-62.5393243481
 21
252.1037712045
 31
0.0
  0
ARC
  5
191
330
1F
100
AcDbEntity
  8
0
  6
Continuous
 62
     7
370
    15
100
AcDbCircle
 10
-62.5393301975
 20
251.9837695311
 30
0.0
 40
0.1200000000000469
100
AcDbArc
 50
30.4655449194
 51
90.0
  0
LINE
  5
192
330
1F
100
AcDbEntity
  8
0
  6
Continuous
 62
     7
370
    15
100
AcDbLine
 10
-62.4358953883
 20
252.0446135946
 30
0.0
 11
-61.3153280665
 21
250.0877707549
 31
0.0
  0
ARC
  5
193
330
1F
100
AcDbEntity
  8
0
  6
Continuous
 62
     7
370
    15
100
AcDbCircle
 10
-61.2133301975
 20
250.1477695311
 30
0.0
 40
0.1183384975399392
100
AcDbArc
 50
210.4655449195
 51
330.9453959009
  0
LINE
  5
194
330
1F
100
AcDbEntity
  8
0
  6
Continuous
 62
     7
370
    15
100
AcDbLine
 10
-61.1098857571
 20
250.090300227
 30
0.0
 11
-59.98873729
 21
252.0449712225
 31
0.0
  0
ARC
  5
195
330
1F
100
AcDbEntity
  8
0
  6
Continuous
 62
     7
370
    15
100
AcDbCircle
 10
-59.8843959557
 20
251.9854541046
 30
0.0
 40
0.1201154444691073
100
AcDbArc
 50
89.9686329475
 51
150.2982491442
  0
LINE
  5
196
330
1F
100
AcDbEntity
  8
0
  6
Continuous
 62
     7
370
    15
100
AcDbLine
 10
-59.8843248535
 20
252.1055705198
 30
0.0
 11
-57.6253237177
 21
252.0977697619
 31
0.0
  0
ARC
  5
197
330
1F
100
AcDbEntity
  8
0
  6
Continuous
 62
     7
370
    15
100
AcDbCircle
 10
-57.6253301975
 20
252.2177695311
 30
0.0
 40
0.120000000000033
100
AcDbArc
 50
270.0
 51
30.4655449195
  0
LINE
  5
198
330
1F
100
AcDbEntity
  8
0
  6
Continuous
 62
     7
370
    15
100
AcDbLine
 10
-57.5218947579
 20
252.2786102541
 30
0.0
 11
-58.6573334385
 21
254.2277715452
 31
0.0
  0
ARC
  5
199
330
1F
100
AcDbEntity
  8
0
  6
Continuous
 62
     7
370
    15
100
AcDbCircle
 10
-58.5553301975
 20
254.2877695311
 30
0.0
 40
0.1183384975398743
100
AcDbArc
 50
149.5344550805
 51
210.4655449195
  0
LINE
  5
19A
330
1F
100
AcDbEntity
  8
0
  6
Continuous
 62
     7
370
    15
100
AcDbLine
 10
-58.6573334385
 20
254.3477705963
 30
0.0
 11
-57.5233252693
 21
256.2977663525
 31
0.0
  0
ARC
  5
19B
330
1F
100
AcDbEntity
  8
0
  6
Continuous
 62
     7
370
    15
100
AcDbCircle
 10
-57.6253301975
 20
256.3577695311
 30
0.0
 40
0.1183384975399662
100
AcDbArc
 50
329.5344550805
 51
89.9999999999
  0
LINE
  5
19C
330
1F
100
AcDbEntity
  8
0
  6
Continuous
 62
     7
370
    15
100
AcDbLine
 10
-57.6253237177
 20
256.4761109002
 30
0.0
 11
-59.8813297201
 21
256.4717672118
 31
0.0
  0
ARC
  5
19D
330
1F
100
AcDbEntity
  8
0
  6
Continuous
 62
     7
370
    15
100
AcDbCircle
 10
-59.8813301975
 20
256.5917695311
 30
0.0
 40
0.1200000000000327
100
AcDbArc
 50
209.0546040991
 51
270.0
  0
LINE
  5
19E
330
1F
100
AcDbEntity
  8
0
  6
Continuous
 62
     7
370
    15
100
AcDbLine
 10
-59.986233895
 20
256.533495272
 30
0.0
 11
-61.1053260018
 21
258.4877676614
 31
0.0
  0
ARC
  5
19F
330
1F
100
AcDbEntity
  8
0
  6
Continuous
 62
     7
370
    15
100
AcDbCircle
 10
-61.2073301975
 20
258.4277695311
 30
0.0
 40
0.1183384975399758
100
AcDbArc
 50
30.4655449195
 51
150.9453959008
  0
LINE
  5
1A0
330
1F
100
AcDbEntity
  8
0
  6
Continuous
 62
     7
370
    15
100
AcDbLine
 10
-61.3107832123
 20
258.4852419146
 30
0.0
 11
-62.4373258997
 21
256.5317667373
 31
0.0
  0
ARC
  5
1A1
330
1F
100
AcDbEntity
  8
0
  6
Continuous
 62
     7
370
    15
100
AcDbCircle
 10
-62.5393301975
 20
256.5917695311
 30
0.0
 40
0.1183384975400238
100
AcDbArc
 50
270.0
 51
329.5344550805
  0
LINE
  5
1A2
330
1F
100
AcDbEntity
  8
0
  6
Continuous
 62
     7
370
    15
100
AcDbLine
 10
-62.5393243481
 20
256.4734286912
 30
0.0
 11
-64.7953303505
 21
256.4777723797
 31
0.0
  0
ARC
  5
1A3
330
1F
100
AcDbEntity
  8
0
  6
Continuous
 62
     7
370
    15
100
AcDbCircle
 10
-64.7953301975
 20
256.3577695311
 30
0.0
 40
0.1200000000000754
100
AcDbArc
 50
90.0
 51
210.4655449194
  0
LINE
  5
1A4
330
1F
100
AcDbEntity
  8
0
  6
Continuous
 62
     7
370
    15
100
AcDbLine
 10
-64.8987593104
 20
256.2969244369
 30
0.0
 11
-63.7693257977
 21
254.3477705963
 31
0.0
  0
ARC
  5
1A5
330
1F
100
AcDbEntity
  8
0
  6
Continuous
 62
     7
370
    15
100
AcDbCircle
 10
-63.8713301975
 20
254.2877695311
 30
0.0
 40
0.1183384975398927
100
AcDbArc
 50
329.5344550805
 51
30.4655449195
  0
LINE
  5
1A6
330
1F
100
AcDbEntity
  8
0
  6
Continuous
 62
     7
370
    15
100
AcDbLine
 10
-63.7693257977
 20
254.2277715452
 30
0.0
 11
-64.8973287989
 21
252.2777683385
 31
0.0
  0
ARC
  5
1A7
330
1F
100
AcDbEntity
  8
0
  6
Continuous
 62
     7
370
    15
100
AcDbCircle
 10
-17.5573301975
 20
192.6557695311
 30
0.0
 40
0.1183384975398884
100
AcDbArc
 50
329.5344550805
 51
92.8624052261
  0
LINE
  5
1A8
330
1F
100
AcDbEntity
  8
0
  6
Continuous
 62
     7
370
    15
100
AcDbLine
 10
-17.5632389237
 20
192.7739604194
 30
0.0
 11
-19.8133291651
 21
192.7697694678
 31
0.0
  0
ARC
  5
1A9
330
1F
100
AcDbEntity
  8
0
  6
Continuous
 62
     7
370
    15
100
AcDbCircle
 10
-19.8133884915
 20
192.8897695169
 30
0.0
 40
0.1199999999999715
100
AcDbArc
 50
209.0124646783
 51
270.0278333588
  0
LINE
  5
1AA
330
1F
100
AcDbEntity
  8
0
  6
Continuous
 62
     7
370
    15
100
AcDbLine
 10
-19.918337648
 20
192.8315694727
 30
0.0
 11
-21.0433306147
 21
194.7857696847
 31
0.0
  0
ARC
  5
1AB
330
1F
100
AcDbEntity
  8
0
  6
Continuous
 62
     7
370
    15
100
AcDbCircle
 10
-21.1453301975
 20
194.7257695311
 30
0.0
 40
0.1183384975399071
100
AcDbArc
 50
30.4655449195
 51
149.5344550805
  0
LINE
  5
1AC
330
1F
100
AcDbEntity
  8
0
  6
Continuous
 62
     7
370
    15
100
AcDbLine
 10
-21.2473275114
 20
194.7857696847
 30
0.0
 11
-22.3693253447
 21
192.829769459
 31
0.0
  0
ARC
  5
1AD
330
1F
100
AcDbEntity
  8
0
  6
Continuous
 62
     7
370
    15
100
AcDbCircle
 10
-22.4713301975
 20
192.8897695311
 30
0.0
 40
0.1183384975398882
100
AcDbArc
 50
267.1375947739
 51
329.5344550805
  0
LINE
  5
1AE
330
1F
100
AcDbEntity
  8
0
  6
Continuous
 62
     7
370
    15
100
AcDbLine
 10
-22.4772395541
 20
192.7715787948
 30
0.0
 11
-24.7273297955
 21
192.7757695135
 31
0.0
  0
ARC
  5
1AF
330
1F
100
AcDbEntity
  8
0
  6
Continuous
 62
     7
370
    15
100
AcDbCircle
 10
-24.7273301975
 20
192.6557695311
 30
0.0
 40
0.1200000000000078
100
AcDbArc
 50
90.0
 51
209.0546040991
  0
LINE
  5
1B0
330
1F
100
AcDbEntity
  8
0
  6
Continuous
 62
     7
370
    15
100
AcDbLine
 10
-24.8322339703
 20
192.5974924867
 30
0.0
 11
-23.7013252426
 21
190.6457695346
 31
0.0
  0
ARC
  5
1B1
330
1F
100
AcDbEntity
  8
0
  6
Continuous
 62
     7
370
    15
100
AcDbCircle
 10
-23.8033301975
 20
190.5857695311
 30
0.0
 40
0.1183384975398957
100
AcDbArc
 50
329.5344550805
 51
30.4655449195
  0
LINE
  5
1B2
330
1F
100
AcDbEntity
  8
0
  6
Continuous
 62
     7
370
    15
100
AcDbLine
 10
-23.7013252426
 20
190.5257695376
 30
0.0
 11
-24.8353334118
 21
188.5757695469
 31
0.0
  0
ARC
  5
1B3
330
1F
100
AcDbEntity
  8
0
  6
Continuous
 62
     7
370
    15
100
AcDbCircle
 10
-24.7333301975
 20
188.5157695311
 30
0.0
 40
0.1183384975399273
100
AcDbArc
 50
149.5344550805
 51
272.8624052261
  0
LINE
  5
1B4
330
1F
100
AcDbEntity
  8
0
  6
Continuous
 62
     7
370
    15
100
AcDbLine
 10
-24.7274192025
 20
188.3975786673
 30
0.0
 11
-22.477328961
 21
188.4017695025
 31
0.0
  0
ARC
  5
1B5
330
1F
100
AcDbEntity
  8
0
  6
Continuous
 62
     7
370
    15
100
AcDbCircle
 10
-22.4773301975
 20
188.2817695311
 30
0.0
 40
0.1200000000000161
100
AcDbArc
 50
29.0546040991
 51
90.0
  0
LINE
  5
1B6
330
1F
100
AcDbEntity
  8
0
  6
Continuous
 62
     7
370
    15
100
AcDbLine
 10
-22.3724247862
 20
188.3400467974
 30
0.0
 11
-21.2473275114
 21
186.3857695185
 31
0.0
  0
ARC
  5
1B7
330
1F
100
AcDbEntity
  8
0
  6
Continuous
 62
     7
370
    15
100
AcDbCircle
 10
-21.1453301975
 20
186.4457695311
 30
0.0
 40
0.1183384975398898
100
AcDbArc
 50
210.4655449194
 51
329.5344550806
  0
LINE
  5
1B8
330
1F
100
AcDbEntity
  8
0
  6
Continuous
 62
     7
370
    15
100
AcDbLine
 10
-21.0433306147
 20
186.3857695185
 30
0.0
 11
-19.920736735
 21
188.3429695204
 31
0.0
  0
ARC
  5
1B9
330
1F
100
AcDbEntity
  8
0
  6
Continuous
 62
     7
370
    15
100
AcDbCircle
 10
-19.8163959557
 20
188.2834541046
 30
0.0
 40
0.1201154444690788
100
AcDbArc
 50
89.9686329475
 51
150.2982491442
  0
LINE
  5
1BA
330
1F
100
AcDbEntity
  8
0
  6
Continuous
 62
     7
370
    15
100
AcDbLine
 10
-19.8163242985
 20
188.4035695162
 30
0.0
 11
-17.5633283306
 21
188.3957695732
 31
0.0
  0
ARC
  5
1BB
330
1F
100
AcDbEntity
  8
0
  6
Continuous
 62
     7
370
    15
100
AcDbCircle
 10
-17.5633301975
 20
188.5157695311
 30
0.0
 40
0.1200000000000045
100
AcDbArc
 50
270.0
 51
29.0546040991
  0
LINE
  5
1BC
330
1F
100
AcDbEntity
  8
0
  6
Continuous
 62
     7
370
    15
100
AcDbLine
 10
-17.4584241558
 20
188.5740467165
 30
0.0
 11
-18.5893328835
 21
190.5257695376
 31
0.0
  0
ARC
  5
1BD
330
1F
100
AcDbEntity
  8
0
  6
Continuous
 62
     7
370
    15
100
AcDbCircle
 10
-18.4873301975
 20
190.5857695311
 30
0.0
 40
0.1183384975399431
100
AcDbArc
 50
149.5344550806
 51
210.4655449195
  0
LINE
  5
1BE
330
1F
100
AcDbEntity
  8
0
  6
Continuous
 62
     7
370
    15
100
AcDbLine
 10
-18.5893328835
 20
190.6457695346
 30
0.0
 11
-17.4553247143
 21
192.5957695399
 31
0.0
  0
ARC
  5
1BF
330
1F
100
AcDbEntity
  8
0
  6
Continuous
 62
     7
370
    15
100
AcDbCircle
 10
-90.4513301975
 20
145.0877695311
 30
0.0
 40
0.120000000000033
100
AcDbArc
 50
270.0
 51
30.4655449195
  0
LINE
  5
1C0
330
1F
100
AcDbEntity
  8
0
  6
Continuous
 62
     7
370
    15
100
AcDbLine
 10
-90.3479011704
 20
145.148611749
 30
0.0
 11
-91.4833249499
 21
147.0917678722
 31
0.0
  0
ARC
  5
1C1
330
1F
100
AcDbEntity
  8
0
  6
Continuous
 62
     7
370
    15
100
AcDbCircle
 10
-91.381420899
 20
147.1519234577
 30
0.0
 40
0.1183384975398993
100
AcDbArc
 50
147.2338983833
 51
210.5520475253
  0
LINE
  5
1C2
330
1F
100
AcDbEntity
  8
0
  6
Continuous
 62
     7
370
    15
100
AcDbLine
 10
-91.4809258629
 20
147.2159690507
 30
0.0
 11
-90.3493316819
 21
149.16177013
 31
0.0
  0
ARC
  5
1C3
330
1F
100
AcDbEntity
  8
0
  6
Continuous
 62
     7
370
    15
100
AcDbCircle
 10
-90.4513301975
 20
149.2217695311
 30
0.0
 40
0.1183384975399235
100
AcDbArc
 50
329.5344550805
 51
90.0
  0
LINE
  5
1C4
330
1F
100
AcDbEntity
  8
0
  6
Continuous
 62
     7
370
    15
100
AcDbLine
 10
-90.4513301302
 20
149.3401072272
 30
0.0
 11
-92.7073361327
 21
149.3357709893
 31
0.0
  0
ARC
  5
1C5
330
1F
100
AcDbEntity
  8
0
  6
Continuous
 62
     7
370
    15
100
AcDbCircle
 10
-92.7073301975
 20
149.4557695311
 30
0.0
 40
0.1199999999999802
100
AcDbArc
 50
209.0546040991
 51
270.0
  0
LINE
  5
1C6
330
1F
100
AcDbEntity
  8
0
  6
Continuous
 62
     7
370
    15
100
AcDbLine
 10
-92.8122254063
 20
149.3974915989
 30
0.0
 11
-93.9313324143
 21
151.3517677136
 31
0.0
  0
ARC
  5
1C7
330
1F
100
AcDbEntity
  8
0
  6
Continuous
 62
     7
370
    15
100
AcDbCircle
 10
-94.0333301975
 20
151.2917695311
 30
0.0
 40
0.1183384975399273
100
AcDbArc
 50
30.4655449195
 51
150.9453959009
  0
LINE
  5
1C8
330
1F
100
AcDbEntity
  8
0
  6
Continuous
 62
     7
370
    15
100
AcDbLine
 10
-94.1367747237
 20
151.3492382415
 30
0.0
 11
-95.2633323122
 21
149.3957705148
 31
0.0
  0
ARC
  5
1C9
330
1F
100
AcDbEntity
  8
0
  6
Continuous
 62
     7
370
    15
100
AcDbCircle
 10
-95.3653301975
 20
149.4557695311
 30
0.0
 40
0.1183384975398951
100
AcDbArc
 50
270.0
 51
329.5344550805
  0
LINE
  5
1CA
330
1F
100
AcDbEntity
  8
0
  6
Continuous
 62
     7
370
    15
100
AcDbLine
 10
-95.3653307606
 20
149.3374324687
 30
0.0
 11
-97.621336763
 21
149.3417687066
 31
0.0
  0
ARC
  5
1CB
330
1F
100
AcDbEntity
  8
0
  6
Continuous
 62
     7
370
    15
100
AcDbCircle
 10
-97.6213301975
 20
149.2217695311
 30
0.0
 40
0.1200000000000098
100
AcDbArc
 50
90.0
 51
210.4655449194
  0
LINE
  5
1CC
330
1F
100
AcDbEntity
  8
0
  6
Continuous
 62
     7
370
    15
100
AcDbLine
 10
-97.7247657229
 20
149.1609282144
 30
0.0
 11
-96.5953322102
 21
147.2177683659
 31
0.0
  0
ARC
  5
1CD
330
1F
100
AcDbEntity
  8
0
  6
Continuous
 62
     7
370
    15
100
AcDbCircle
 10
-96.6973301975
 20
147.1577695311
 30
0.0
 40
0.1183384975398804
100
AcDbArc
 50
327.094757077
 51
30.4655449195
  0
LINE
  5
1CE
330
1F
100
AcDbEntity
  8
0
  6
Continuous
 62
     7
370
    15
100
AcDbLine
 10
-96.5979697157
 20
147.0934815057
 30
0.0
 11
-97.7233352114
 21
145.1477698334
 31
0.0
  0
ARC
  5
1CF
330
1F
100
AcDbEntity
  8
0
  6
Continuous
 62
     7
370
    15
100
AcDbCircle
 10
-97.6213301975
 20
145.0877695311
 30
0.0
 40
0.1183384975399028
100
AcDbArc
 50
149.5344550805
 51
270.0
  0
LINE
  5
1D0
330
1F
100
AcDbEntity
  8
0
  6
Continuous
 62
     7
370
    15
100
AcDbLine
 10
-97.621336763
 20
144.9694327362
 30
0.0
 11
-95.3653307606
 21
144.9737689741
 31
0.0
  0
ARC
  5
1D1
330
1F
100
AcDbEntity
  8
0
  6
Continuous
 62
     7
370
    15
100
AcDbCircle
 10
-95.3653301975
 20
144.8537695311
 30
0.0
 40
0.1200000000000127
100
AcDbArc
 50
30.4655449195
 51
90.0
  0
LINE
  5
1D2
330
1F
100
AcDbEntity
  8
0
  6
Continuous
 62
     7
370
    15
100
AcDbLine
 10
-95.2619018008
 20
144.9146113642
 30
0.0
 11
-94.141334479
 21
142.9577685245
 31
0.0
  0
ARC
  5
1D3
330
1F
100
AcDbEntity
  8
0
  6
Continuous
 62
     7
370
    15
100
AcDbCircle
 10
-94.0393301975
 20
143.0177695311
 30
0.0
 40
0.1183384975399178
100
AcDbArc
 50
210.4655449195
 51
330.9453959009
  0
LINE
  5
1D4
330
1F
100
AcDbEntity
  8
0
  6
Continuous
 62
     7
370
    15
100
AcDbLine
 10
-93.9358772684
 20
142.9602979966
 30
0.0
 11
-92.8171278883
 21
144.9107705899
 31
0.0
  0
ARC
  5
1D5
330
1F
100
AcDbEntity
  8
0
  6
Continuous
 62
     7
370
    15
100
AcDbCircle
 10
-92.7127949168
 20
144.8512559259
 30
0.0
 40
0.1201154444690447
100
AcDbArc
 50
89.6829233331
 51
150.2992493136
  0
LINE
  5
1D6
330
1F
100
AcDbEntity
  8
0
  6
Continuous
 62
     7
370
    15
100
AcDbLine
 10
-92.7121343066
 20
144.9713698872
 30
0.0
 11
-90.4513301302
 21
144.9677712568
 31
0.0
  0
ARC
  5
1D7
330
1F
100
AcDbEntity
  8
0
  6
Continuous
 62
     7
370
    15
100
AcDbCircle
 10
19.1626698025
 20
101.3117695311
 30
0.0
 40
0.1183384975398712
100
AcDbArc
 50
329.5344550805
 51
30.4655449195
  0
LINE
  5
1D8
330
1F
100
AcDbEntity
  8
0
  6
Continuous
 62
     7
370
    15
100
AcDbLine
 10
19.2646680425
 20
101.2517727264
 30
0.0
 11
18.1306673239
 21
99.3017695196
 31
0.0
  0
ARC
  5
1D9
330
1F
100
AcDbEntity
  8
0
  6
Continuous
 62
     7
370
    15
100
AcDbCircle
 10
18.2326698025
 20
99.2417695311
 30
0.0
 40
0.118338497539952
100
AcDbArc
 50
149.5344550806
 51
270.0
  0
LINE
  5
1DA
330
1F
100
AcDbEntity
  8
0
  6
Continuous
 62
     7
370
    15
100
AcDbLine
 10
18.2326732229
 20
99.1234324225
 30
0.0
 11
20.4886717747
 21
99.1277686604
 31
0.0
  0
ARC
  5
1DB
330
1F
100
AcDbEntity
  8
0
  6
Continuous
 62
     7
370
    15
100
AcDbCircle
 10
20.4886698025
 20
99.0077695311
 30
0.0
 40
0.1200000000000312
100
AcDbArc
 50
30.4655449194
 51
90.0
  0
LINE
  5
1DC
330
1F
100
AcDbEntity
  8
0
  6
Continuous
 62
     7
370
    15
100
AcDbLine
 10
20.5921007346
 20
99.0686110504
 30
0.0
 11
21.7126680564
 21
97.1117682107
 31
0.0
  0
ARC
  5
1DD
330
1F
100
AcDbEntity
  8
0
  6
Continuous
 62
     7
370
    15
100
AcDbCircle
 10
21.8146698025
 20
97.1717695311
 30
0.0
 40
0.1183384975399464
100
AcDbArc
 50
210.4655449194
 51
330.9453959009
  0
LINE
  5
1DE
330
1F
100
AcDbEntity
  8
0
  6
Continuous
 62
     7
370
    15
100
AcDbLine
 10
21.9181178163
 20
97.1143014081
 30
0.0
 11
23.0452714513
 21
99.0689686783
 31
0.0
  0
ARC
  5
1DF
330
1F
100
AcDbEntity
  8
0
  6
Continuous
 62
     7
370
    15
100
AcDbCircle
 10
23.1496040443
 20
99.0094541046
 30
0.0
 40
0.1201154444691042
100
AcDbArc
 50
89.9686329475
 51
150.2982491442
  0
LINE
  5
1E0
330
1F
100
AcDbEntity
  8
0
  6
Continuous
 62
     7
370
    15
100
AcDbLine
 10
23.1496689867
 20
99.1295717009
 30
0.0
 11
25.4026724051
 21
99.121770943
 31
0.0
  0
ARC
  5
1E1
330
1F
100
AcDbEntity
  8
0
  6
Continuous
 62
     7
370
    15
100
AcDbCircle
 10
25.4026698025
 20
99.2417695311
 30
0.0
 40
0.1199999999999761
100
AcDbArc
 50
270.0
 51
30.4655449195
  0
LINE
  5
1E2
330
1F
100
AcDbEntity
  8
0
  6
Continuous
 62
     7
370
    15
100
AcDbLine
 10
25.506101365
 20
99.3026114353
 30
0.0
 11
24.3766678523
 21
101.2517727264
 31
0.0
  0
ARC
  5
1E3
330
1F
100
AcDbEntity
  8
0
  6
Continuous
 62
     7
370
    15
100
AcDbCircle
 10
24.4786698025
 20
101.3117695311
 30
0.0
 40
0.1183384975399431
100
AcDbArc
 50
149.5344550806
 51
210.4655449195
  0
LINE
  5
1E4
330
1F
100
AcDbEntity
  8
0
  6
Continuous
 62
     7
370
    15
100
AcDbLine
 10
24.3766678523
 20
101.3717717775
 30
0.0
 11
25.5046708535
 21
103.3217675336
 31
0.0
  0
ARC
  5
1E5
330
1F
100
AcDbEntity
  8
0
  6
Continuous
 62
     7
370
    15
100
AcDbCircle
 10
25.4026698025
 20
103.3817695311
 30
0.0
 40
0.1183384975398884
100
AcDbArc
 50
329.5344550805
 51
90.0
  0
LINE
  5
1E6
330
1F
100
AcDbEntity
  8
0
  6
Continuous
 62
     7
370
    15
100
AcDbLine
 10
25.4026724051
 20
103.5001046308
 30
0.0
 11
23.1466664027
 21
103.4897706755
 31
0.0
  0
ARC
  5
1E7
330
1F
100
AcDbEntity
  8
0
  6
Continuous
 62
     7
370
    15
100
AcDbCircle
 10
23.1466698025
 20
103.6097695311
 30
0.0
 40
0.1200000000000043
100
AcDbArc
 50
207.8972710309
 51
270.0
  0
LINE
  5
1E8
330
1F
100
AcDbEntity
  8
0
  6
Continuous
 62
     7
370
    15
100
AcDbLine
 10
23.0406148385
 20
103.5536221512
 30
0.0
 11
21.9226701211
 21
105.5057711252
 31
0.0
  0
ARC
  5
1E9
330
1F
100
AcDbEntity
  8
0
  6
Continuous
 62
     7
370
    15
100
AcDbCircle
 10
21.8206698025
 20
105.4457695311
 30
0.0
 40
0.1183384975399533
100
AcDbArc
 50
30.4655449194
 51
150.9453959009
  0
LINE
  5
1EA
330
1F
100
AcDbEntity
  8
0
  6
Continuous
 62
     7
370
    15
100
AcDbLine
 10
21.7172203611
 20
105.5032379278
 30
0.0
 11
20.5870715927
 21
103.549770201
 31
0.0
  0
ARC
  5
1EB
330
1F
100
AcDbEntity
  8
0
  6
Continuous
 62
     7
370
    15
100
AcDbCircle
 10
20.4832075918
 20
103.6096617776
 30
0.0
 40
0.1198934526986808
100
AcDbArc
 50
269.7429954509
 51
330.0300584299
  0
LINE
  5
1EC
330
1F
100
AcDbEntity
  8
0
  6
Continuous
 62
     7
370
    15
100
AcDbLine
 10
20.4826666068
 20
103.4897706755
 30
0.0
 11
18.2326732229
 21
103.5017661103
 31
0.0
  0
ARC
  5
1ED
330
1F
100
AcDbEntity
  8
0
  6
Continuous
 62
     7
370
    15
100
AcDbCircle
 10
18.2326698025
 20
103.3817695311
 30
0.0
 40
0.1200000000000472
100
AcDbArc
 50
90.0
 51
210.4655449195
  0
LINE
  5
1EE
330
1F
100
AcDbEntity
  8
0
  6
Continuous
 62
     7
370
    15
100
AcDbLine
 10
18.1292368125
 20
103.320925618
 30
0.0
 11
19.2646680425
 21
101.3717717775
 31
0.0
  0
ARC
  5
1EF
330
1F
100
AcDbEntity
  8
0
  6
Continuous
 62
     7
370
    15
100
AcDbCircle
 10
-90.8653301975
 20
81.3857695311
 30
0.0
 40
0.1183384975399093
100
AcDbArc
 50
149.5344550806
 51
270.0
  0
LINE
  5
1F0
330
1F
100
AcDbEntity
  8
0
  6
Continuous
 62
     7
370
    15
100
AcDbLine
 10
-90.8653290917
 20
81.2674305685
 30
0.0
 11
-88.6093230892
 21
81.2717668064
 31
0.0
  0
ARC
  5
1F1
330
1F
100
AcDbEntity
  8
0
  6
Continuous
 62
     7
370
    15
100
AcDbCircle
 10
-88.6093301975
 20
81.1517695311
 30
0.0
 40
0.1200000000000045
100
AcDbArc
 50
30.4655449195
 51
90.0
  0
LINE
  5
1F2
330
1F
100
AcDbEntity
  8
0
  6
Continuous
 62
     7
370
    15
100
AcDbLine
 10
-88.5058941294
 20
81.2126091965
 30
0.0
 11
-87.3853268076
 21
79.2557663568
 31
0.0
  0
ARC
  5
1F3
330
1F
100
AcDbEntity
  8
0
  6
Continuous
 62
     7
370
    15
100
AcDbCircle
 10
-87.2833301975
 20
79.3157695311
 30
0.0
 40
0.1183384975399273
100
AcDbArc
 50
210.4655449195
 51
330.9453959009
  0
LINE
  5
1F4
330
1F
100
AcDbEntity
  8
0
  6
Continuous
 62
     7
370
    15
100
AcDbLine
 10
-87.1798844982
 20
79.2582995542
 30
0.0
 11
-86.0527308632
 21
81.2129668244
 31
0.0
  0
ARC
  5
1F5
330
1F
100
AcDbEntity
  8
0
  6
Continuous
 62
     7
370
    15
100
AcDbCircle
 10
-85.9483959557
 20
81.1534541046
 30
0.0
 40
0.120115444469098
100
AcDbArc
 50
89.9686329475
 51
150.2982491442
  0
LINE
  5
1F6
330
1F
100
AcDbEntity
  8
0
  6
Continuous
 62
     7
370
    15
100
AcDbLine
 10
-85.9483333279
 20
81.2735698469
 30
0.0
 11
-83.69533736
 21
81.2657690891
 31
0.0
  0
ARC
  5
1F7
330
1F
100
AcDbEntity
  8
0
  6
Continuous
 62
     7
370
    15
100
AcDbCircle
 10
-83.6953301975
 20
81.3857695311
 30
0.0
 40
0.1200000000000055
100
AcDbArc
 50
270.0
 51
30.4655449195
  0
LINE
  5
1F8
330
1F
100
AcDbEntity
  8
0
  6
Continuous
 62
     7
370
    15
100
AcDbLine
 10
-83.591893499
 20
81.4466095813
 30
0.0
 11
-84.7273321797
 21
83.3957708724
 31
0.0
  0
ARC
  5
1F9
330
1F
100
AcDbEntity
  8
0
  6
Continuous
 62
     7
370
    15
100
AcDbCircle
 10
-84.6253301975
 20
83.4557695311
 30
0.0
 40
0.1183384975399316
100
AcDbArc
 50
149.5344550805
 51
210.4655449195
  0
LINE
  5
1FA
330
1F
100
AcDbEntity
  8
0
  6
Continuous
 62
     7
370
    15
100
AcDbLine
 10
-84.7273321797
 20
83.5157699235
 30
0.0
 11
-83.5933240105
 21
85.4657731303
 31
0.0
  0
ARC
  5
1FB
330
1F
100
AcDbEntity
  8
0
  6
Continuous
 62
     7
370
    15
100
AcDbCircle
 10
-83.6953301975
 20
85.5257695311
 30
0.0
 40
0.1183384975399093
100
AcDbArc
 50
329.5344550806
 51
90.0
  0
LINE
  5
1FC
330
1F
100
AcDbEntity
  8
0
  6
Continuous
 62
     7
370
    15
100
AcDbLine
 10
-83.69533736
 20
85.6441102274
 30
0.0
 11
-85.9513284613
 21
85.6397665389
 31
0.0
  0
ARC
  5
1FD
330
1F
100
AcDbEntity
  8
0
  6
Continuous
 62
     7
370
    15
100
AcDbCircle
 10
-85.9513301975
 20
85.7597695311
 30
0.0
 40
0.1200000000000055
100
AcDbArc
 50
210.4655449195
 51
270.0
  0
LINE
  5
1FE
330
1F
100
AcDbEntity
  8
0
  6
Continuous
 62
     7
370
    15
100
AcDbLine
 10
-86.0547574211
 20
85.6989241489
 30
0.0
 11
-87.1753247429
 21
87.6557669886
 31
0.0
  0
ARC
  5
1FF
330
1F
100
AcDbEntity
  8
0
  6
Continuous
 62
     7
370
    15
100
AcDbCircle
 10
-87.2773301975
 20
87.5957695311
 30
0.0
 40
0.1183384975399385
100
AcDbArc
 50
30.4655449195
 51
150.9453959009
  0
LINE
  5
200
330
1F
100
AcDbEntity
  8
0
  6
Continuous
 62
     7
370
    15
100
AcDbLine
 10
-87.3807819535
 20
87.6532412418
 30
0.0
 11
-88.5073246409
 21
85.6997660645
 31
0.0
  0
ARC
  5
201
330
1F
100
AcDbEntity
  8
0
  6
Continuous
 62
     7
370
    15
100
AcDbCircle
 10
-88.6093301975
 20
85.7597695311
 30
0.0
 40
0.1183384975398809
100
AcDbArc
 50
270.0
 51
329.5344550805
  0
LINE
  5
202
330
1F
100
AcDbEntity
  8
0
  6
Continuous
 62
     7
370
    15
100
AcDbLine
 10
-88.6093230892
 20
85.6414280184
 30
0.0
 11
-90.8653290917
 21
85.6457717069
 31
0.0
  0
ARC
  5
203
330
1F
100
AcDbEntity
  8
0
  6
Continuous
 62
     7
370
    15
100
AcDbCircle
 10
-90.8653301975
 20
85.5257695311
 30
0.0
 40
0.1200000000000045
100
AcDbArc
 50
90.0
 51
210.4655449195
  0
LINE
  5
204
330
1F
100
AcDbEntity
  8
0
  6
Continuous
 62
     7
370
    15
100
AcDbLine
 10
-90.9687580515
 20
85.4649237641
 30
0.0
 11
-89.833334272
 21
83.5157699235
 31
0.0
  0
ARC
  5
205
330
1F
100
AcDbEntity
  8
0
  6
Continuous
 62
     7
370
    15
100
AcDbCircle
 10
-89.9353301975
 20
83.4557695311
 30
0.0
 40
0.1183384975399071
100
AcDbArc
 50
329.5344550805
 51
30.4655449195
  0
LINE
  5
206
330
1F
100
AcDbEntity
  8
0
  6
Continuous
 62
     7
370
    15
100
AcDbLine
 10
-89.833334272
 20
83.3957708724
 30
0.0
 11
-90.96732754
 21
81.4457676657
 31
0.0
  0
ARC
  5
207
330
1F
100
AcDbEntity
  8
0
  6
Continuous
 62
     7
370
    15
100
AcDbCircle
 10
-141.5893301975
 20
45.8117695311
 30
0.0
 40
0.1183384975398559
100
AcDbArc
 50
329.5344550805
 51
30.4655449195
  0
LINE
  5
208
330
1F
100
AcDbEntity
  8
0
  6
Continuous
 62
     7
370
    15
100
AcDbLine
 10
-141.4873154808
 20
45.7517720111
 30
0.0
 11
-142.62132365
 21
43.801776255
 31
0.0
  0
ARC
  5
209
330
1F
100
AcDbEntity
  8
0
  6
Continuous
 62
     7
370
    15
100
AcDbCircle
 10
-142.5193301975
 20
43.7417695311
 30
0.0
 40
0.1183384975399251
100
AcDbArc
 50
149.5344550805
 51
270.0
  0
LINE
  5
20A
330
1F
100
AcDbEntity
  8
0
  6
Continuous
 62
     7
370
    15
100
AcDbLine
 10
-142.5193401028
 20
43.6234242566
 30
0.0
 11
-140.2633341004
 21
43.6337656625
 31
0.0
  0
ARC
  5
20B
330
1F
100
AcDbEntity
  8
0
  6
Continuous
 62
     7
370
    15
100
AcDbCircle
 10
-140.2633301975
 20
43.5137695311
 30
0.0
 40
0.1199999999999832
100
AcDbArc
 50
29.0546040991
 51
90.0
  0
LINE
  5
20C
330
1F
100
AcDbEntity
  8
0
  6
Continuous
 62
     7
370
    15
100
AcDbLine
 10
-140.1584299256
 20
43.5720450528
 30
0.0
 11
-139.0393229176
 21
41.6177726634
 31
0.0
  0
ARC
  5
20D
330
1F
100
AcDbEntity
  8
0
  6
Continuous
 62
     7
370
    15
100
AcDbCircle
 10
-138.9373301975
 20
41.6777695311
 30
0.0
 40
0.1183384975399496
100
AcDbArc
 50
210.4655449194
 51
330.9453959009
  0
LINE
  5
20E
330
1F
100
AcDbEntity
  8
0
  6
Continuous
 62
     7
370
    15
100
AcDbLine
 10
-138.8338955094
 20
41.6203058608
 30
0.0
 11
-137.710318153
 21
43.5689754136
 31
0.0
  0
ARC
  5
20F
330
1F
100
AcDbEntity
  8
0
  6
Continuous
 62
     7
370
    15
100
AcDbCircle
 10
-137.6059949168
 20
43.5094559259
 30
0.0
 40
0.1201154444690659
100
AcDbArc
 50
89.6829233331
 51
150.2992493136
  0
LINE
  5
210
330
1F
100
AcDbEntity
  8
0
  6
Continuous
 62
     7
370
    15
100
AcDbLine
 10
-137.6053245713
 20
43.6295635351
 30
0.0
 11
-135.3493185688
 21
43.6217702277
 31
0.0
  0
ARC
  5
211
330
1F
100
AcDbEntity
  8
0
  6
Continuous
 62
     7
370
    15
100
AcDbCircle
 10
-135.3493301975
 20
43.7417695311
 30
0.0
 40
0.120000000000035
100
AcDbArc
 50
270.0
 51
30.4655449195
  0
LINE
  5
212
330
1F
100
AcDbEntity
  8
0
  6
Continuous
 62
     7
370
    15
100
AcDbLine
 10
-135.2459045101
 20
43.80261072
 30
0.0
 11
-136.3753231217
 21
45.7517720111
 31
0.0
  0
ARC
  5
213
330
1F
100
AcDbEntity
  8
0
  6
Continuous
 62
     7
370
    15
100
AcDbCircle
 10
-136.2733301975
 20
45.8117695311
 30
0.0
 40
0.1183384975398804
100
AcDbArc
 50
149.5344550805
 51
210.4655449195
  0
LINE
  5
214
330
1F
100
AcDbEntity
  8
0
  6
Continuous
 62
     7
370
    15
100
AcDbLine
 10
-136.3753231217
 20
45.8717710622
 30
0.0
 11
-135.2473350216
 21
47.8217668184
 31
0.0
  0
ARC
  5
215
330
1F
100
AcDbEntity
  8
0
  6
Continuous
 62
     7
370
    15
100
AcDbCircle
 10
-135.3493301975
 20
47.8817695311
 30
0.0
 40
0.1183384975399164
100
AcDbArc
 50
329.5344550805
 51
90.0
  0
LINE
  5
216
330
1F
100
AcDbEntity
  8
0
  6
Continuous
 62
     7
370
    15
100
AcDbLine
 10
-135.3493185688
 20
48.0001039155
 30
0.0
 11
-137.6053245713
 21
47.9957676776
 31
0.0
  0
ARC
  5
217
330
1F
100
AcDbEntity
  8
0
  6
Continuous
 62
     7
370
    15
100
AcDbCircle
 10
-137.6053301975
 20
48.1157695311
 30
0.0
 40
0.119999999999986
100
AcDbArc
 50
210.4655449195
 51
270.0
  0
LINE
  5
218
330
1F
100
AcDbEntity
  8
0
  6
Continuous
 62
     7
370
    15
100
AcDbLine
 10
-137.7087684323
 20
48.0549252876
 30
0.0
 11
-138.829335754
 21
50.0117755779
 31
0.0
  0
ARC
  5
219
330
1F
100
AcDbEntity
  8
0
  6
Continuous
 62
     7
370
    15
100
AcDbCircle
 10
-138.9313301975
 20
49.9517695311
 30
0.0
 40
0.1183384975399295
100
AcDbArc
 50
30.4655449195
 51
150.9453959009
  0
LINE
  5
21A
330
1F
100
AcDbEntity
  8
0
  6
Continuous
 62
     7
370
    15
100
AcDbLine
 10
-139.0347631623
 20
50.0092423805
 30
0.0
 11
-140.155330484
 21
48.0557746537
 31
0.0
  0
ARC
  5
21B
330
1F
100
AcDbEntity
  8
0
  6
Continuous
 62
     7
370
    15
100
AcDbCircle
 10
-140.2573301975
 20
48.1157695311
 30
0.0
 40
0.1183384975399325
100
AcDbArc
 50
267.1375947739
 51
329.5344550805
  0
LINE
  5
21C
330
1F
100
AcDbEntity
  8
0
  6
Continuous
 62
     7
370
    15
100
AcDbLine
 10
-140.2632446934
 20
47.9975856193
 30
0.0
 11
-142.5193401028
 21
48.0017728456
 31
0.0
  0
ARC
  5
21D
330
1F
100
AcDbEntity
  8
0
  6
Continuous
 62
     7
370
    15
100
AcDbCircle
 10
-142.5193301975
 20
47.8817695311
 30
0.0
 40
0.1200000000000141
100
AcDbArc
 50
90.0
 51
210.4655449195
  0
LINE
  5
21E
330
1F
100
AcDbEntity
  8
0
  6
Continuous
 62
     7
370
    15
100
AcDbLine
 10
-142.6227541615
 20
47.8209323533
 30
0.0
 11
-141.4873154808
 21
45.8717710622
 31
0.0
  0
ARC
  5
21F
330
1F
100
AcDbEntity
  8
0
  6
Continuous
 62
     7
370
    15
100
AcDbCircle
 10
0.2146698025
 20
34.6037695311
 30
0.0
 40
0.1183384975399088
100
AcDbArc
 50
270.0
 51
329.5344550805
  0
LINE
  5
220
330
1F
100
AcDbEntity
  8
0
  6
Continuous
 62
     7
370
    15
100
AcDbLine
 10
0.2146659445
 20
34.4854361661
 30
0.0
 11
-2.0413251568
 21
34.489772404
 31
0.0
  0
ARC
  5
221
330
1F
100
AcDbEntity
  8
0
  6
Continuous
 62
     7
370
    15
100
AcDbCircle
 10
-2.0413301975
 20
34.3697695311
 30
0.0
 40
0.1200000000000123
100
AcDbArc
 50
90.0
 51
210.4655449195
  0
LINE
  5
222
330
1F
100
AcDbEntity
  8
0
  6
Continuous
 62
     7
370
    15
100
AcDbLine
 10
-2.1447690178
 20
34.3089319118
 30
0.0
 11
-1.0093303372
 21
32.3597706207
 31
0.0
  0
ARC
  5
223
330
1F
100
AcDbEntity
  8
0
  6
Continuous
 62
     7
370
    15
100
AcDbCircle
 10
-1.1113301975
 20
32.2997695311
 30
0.0
 40
0.1183384975399218
100
AcDbArc
 50
329.5344550806
 51
30.4655449195
  0
LINE
  5
224
330
1F
100
AcDbEntity
  8
0
  6
Continuous
 62
     7
370
    15
100
AcDbLine
 10
-1.0093303372
 20
32.2397715696
 30
0.0
 11
-2.1433236052
 21
30.2897758134
 31
0.0
  0
ARC
  5
225
330
1F
100
AcDbEntity
  8
0
  6
Continuous
 62
     7
370
    15
100
AcDbCircle
 10
-2.0413301975
 20
30.2297695311
 30
0.0
 40
0.1183384975398672
100
AcDbArc
 50
149.5344550805
 51
270.0
  0
LINE
  5
226
330
1F
100
AcDbEntity
  8
0
  6
Continuous
 62
     7
370
    15
100
AcDbLine
 10
-2.0413251568
 20
30.1114238151
 30
0.0
 11
0.2146659445
 21
30.121765221
 31
0.0
  0
ARC
  5
227
330
1F
100
AcDbEntity
  8
0
  6
Continuous
 62
     7
370
    15
100
AcDbCircle
 10
0.2146698025
 20
30.0017695311
 30
0.0
 40
0.1200000000000134
100
AcDbArc
 50
27.8972710309
 51
90.0
  0
LINE
  5
228
330
1F
100
AcDbEntity
  8
0
  6
Continuous
 62
     7
370
    15
100
AcDbLine
 10
0.3207175087
 20
30.0579137452
 30
0.0
 11
1.4386771272
 21
28.1057722219
 31
0.0
  0
ARC
  5
229
330
1F
100
AcDbEntity
  8
0
  6
Continuous
 62
     7
370
    15
100
AcDbCircle
 10
1.5406698025
 20
28.1657695311
 30
0.0
 40
0.118338497539914
100
AcDbArc
 50
210.4655449195
 51
330.9453959009
  0
LINE
  5
22A
330
1F
100
AcDbEntity
  8
0
  6
Continuous
 62
     7
370
    15
100
AcDbLine
 10
1.6441194366
 20
28.1083054193
 30
0.0
 11
2.7712730716
 21
30.0569749721
 31
0.0
  0
ARC
  5
22B
330
1F
100
AcDbEntity
  8
0
  6
Continuous
 62
     7
370
    15
100
AcDbCircle
 10
2.8756040443
 20
29.9974541046
 30
0.0
 40
0.1201154444691357
100
AcDbArc
 50
89.9686329475
 51
150.2982491442
  0
LINE
  5
22C
330
1F
100
AcDbEntity
  8
0
  6
Continuous
 62
     7
370
    15
100
AcDbLine
 10
2.875670607
 20
30.1175630935
 30
0.0
 11
5.1286665748
 21
30.1097697862
 31
0.0
  0
ARC
  5
22D
330
1F
100
AcDbEntity
  8
0
  6
Continuous
 62
     7
370
    15
100
AcDbCircle
 10
5.1286698025
 20
30.2297695311
 30
0.0
 40
0.1200000000000081
100
AcDbArc
 50
270.0
 51
30.4655449195
  0
LINE
  5
22E
330
1F
100
AcDbEntity
  8
0
  6
Continuous
 62
     7
370
    15
100
AcDbLine
 10
5.2320955347
 20
30.2906102784
 30
0.0
 11
4.0966717552
 21
32.2397715696
 31
0.0
  0
ARC
  5
22F
330
1F
100
AcDbEntity
  8
0
  6
Continuous
 62
     7
370
    15
100
AcDbCircle
 10
4.1986698025
 20
32.2997695311
 30
0.0
 40
0.1183384975398849
100
AcDbArc
 50
149.5344550805
 51
210.4655449195
  0
LINE
  5
230
330
1F
100
AcDbEntity
  8
0
  6
Continuous
 62
     7
370
    15
100
AcDbLine
 10
4.0966717552
 20
32.3597706207
 30
0.0
 11
5.2306650232
 21
34.3097663768
 31
0.0
  0
ARC
  5
231
330
1F
100
AcDbEntity
  8
0
  6
Continuous
 62
     7
370
    15
100
AcDbCircle
 10
5.1286698025
 20
34.3697695311
 30
0.0
 40
0.1183384975398951
100
AcDbArc
 50
329.5344550805
 51
90.0
  0
LINE
  5
232
330
1F
100
AcDbEntity
  8
0
  6
Continuous
 62
     7
370
    15
100
AcDbLine
 10
5.1286665748
 20
34.488103474
 30
0.0
 11
2.8726754736
 21
34.4837672361
 31
0.0
  0
ARC
  5
233
330
1F
100
AcDbEntity
  8
0
  6
Continuous
 62
     7
370
    15
100
AcDbCircle
 10
2.8726698025
 20
34.6037695311
 30
0.0
 40
0.1200000000000117
100
AcDbArc
 50
210.4655449195
 51
270.0
  0
LINE
  5
234
330
1F
100
AcDbEntity
  8
0
  6
Continuous
 62
     7
370
    15
100
AcDbLine
 10
2.7692316126
 20
34.542924846
 30
0.0
 11
1.6486642908
 21
36.4997751363
 31
0.0
  0
ARC
  5
235
330
1F
100
AcDbEntity
  8
0
  6
Continuous
 62
     7
370
    15
100
AcDbCircle
 10
1.5466698025
 20
36.4397695311
 30
0.0
 40
0.1183384975399662
100
AcDbArc
 50
30.4655449195
 51
150.9453959009
  0
LINE
  5
236
330
1F
100
AcDbEntity
  8
0
  6
Continuous
 62
     7
370
    15
100
AcDbLine
 10
1.4432219814
 20
36.4972419389
 30
0.0
 11
0.3166643928
 21
34.5437742122
 31
0.0
  0
ARC
  5
237
330
1F
100
AcDbEntity
  8
0
  6
Continuous
 62
     7
370
    15
100
AcDbCircle
 10
-8.3203301975
 20
46.1569790845
 30
0.0
 40
1.160631313439486
100
AcDbArc
 50
206.243144668
 51
333.756855332
  0
LINE
  5
238
330
1F
100
AcDbEntity
  8
0
  6
Continuous
 62
     7
370
    15
100
AcDbLine
 10
-7.2793366362
 20
45.6437683948
 30
0.0
 11
-2.189532106
 21
54.5167393335
 31
0.0
  0
ARC
  5
239
330
1F
100
AcDbEntity
  8
0
  6
Continuous
 62
     7
370
    15
100
AcDbCircle
 10
-1.6693301975
 20
54.2177695311
 30
0.0
 40
0.6000000000000156
100
AcDbArc
 50
90.0
 51
150.1134730596
  0
LINE
  5
23A
330
1F
100
AcDbEntity
  8
0
  6
Continuous
 62
     7
370
    15
100
AcDbLine
 10
-1.6693325688
 20
54.8177725919
 30
0.0
 11
9.6028743337
 21
54.7817713865
 31
0.0
  0
ARC
  5
23B
330
1F
100
AcDbEntity
  8
0
  6
Continuous
 62
     7
370
    15
100
AcDbCircle
 10
9.6047580261
 20
55.3816180408
 30
0.0
 40
0.5998514816185812
100
AcDbArc
 50
269.8196429831
 51
30.2236787953
  0
LINE
  5
23C
330
1F
100
AcDbEntity
  8
0
  6
Continuous
 62
     7
370
    15
100
AcDbLine
 10
10.123073871
 20
55.6835747608
 30
0.0
 11
4.4566689085
 21
65.4317728527
 31
0.0
  0
ARC
  5
23D
330
1F
100
AcDbEntity
  8
0
  6
Continuous
 62
     7
370
    15
100
AcDbCircle
 10
4.9726698025
 20
65.7317695311
 30
0.0
 40
0.5968718455413936
100
AcDbArc
 50
149.8264799704
 51
210.1735200296
  0
LINE
  5
23E
330
1F
100
AcDbEntity
  8
0
  6
Continuous
 62
     7
370
    15
100
AcDbLine
 10
4.4566689085
 20
66.0317681082
 30
0.0
 11
10.1188717436
 21
75.7767997034
 31
0.0
  0
ARC
  5
23F
330
1F
100
AcDbEntity
  8
0
  6
Continuous
 62
     7
370
    15
100
AcDbCircle
 10
9.5986698025
 20
76.0757695311
 30
0.0
 40
0.6000000000000234
100
AcDbArc
 50
330.1134730596
 51
90.0
  0
LINE
  5
240
330
1F
100
AcDbEntity
  8
0
  6
Continuous
 62
     7
370
    15
100
AcDbLine
 10
9.5986722063
 20
76.6757718571
 30
0.0
 11
-1.6693325688
 21
76.6437045582
 31
0.0
  0
ARC
  5
241
330
1F
100
AcDbEntity
  8
0
  6
Continuous
 62
     7
370
    15
100
AcDbCircle
 10
-1.6693301975
 20
77.2457695311
 30
0.0
 40
0.6020664415162489
100
AcDbArc
 50
209.8865269404
 51
270.0
  0
LINE
  5
242
330
1F
100
AcDbEntity
  8
0
  6
Continuous
 62
     7
370
    15
100
AcDbLine
 10
-2.1913351466
 20
76.9457659968
 30
0.0
 11
-7.795334046
 21
86.7197728999
 31
0.0
  0
ARC
  5
243
330
1F
100
AcDbEntity
  8
0
  6
Continuous
 62
     7
370
    15
100
AcDbCircle
 10
-8.3173301975
 20
86.4197695311
 30
0.0
 40
0.6020664415162319
100
AcDbArc
 50
29.8865269404
 51
150.1134730596
  0
LINE
  5
244
330
1F
100
AcDbEntity
  8
0
  6
Continuous
 62
     7
370
    15
100
AcDbLine
 10
-8.8393243004
 20
86.7197728999
 30
0.0
 11
-14.4451262404
 21
76.9468016275
 31
0.0
  0
ARC
  5
245
330
1F
100
AcDbEntity
  8
0
  6
Continuous
 62
     7
370
    15
100
AcDbCircle
 10
-14.9653301975
 20
77.2457695311
 30
0.0
 40
0.5999999999999943
100
AcDbArc
 50
270.0
 51
330.1134730596
  0
LINE
  5
246
330
1F
100
AcDbEntity
  8
0
  6
Continuous
 62
     7
370
    15
100
AcDbLine
 10
-14.9653257777
 20
76.645768369
 30
0.0
 11
-26.2393357207
 21
76.6726426132
 31
0.0
  0
ARC
  5
247
330
1F
100
AcDbEntity
  8
0
  6
Continuous
 62
     7
370
    15
100
AcDbCircle
 10
-26.2393301975
 20
76.0757695311
 30
0.0
 40
0.5968718455414015
100
AcDbArc
 50
90.0
 51
210.1735200296
  0
LINE
  5
248
330
1F
100
AcDbEntity
  8
0
  6
Continuous
 62
     7
370
    15
100
AcDbLine
 10
-26.7553331305
 20
75.7757715233
 30
0.0
 11
-21.0913272549
 21
66.0317681082
 31
0.0
  0
ARC
  5
249
330
1F
100
AcDbEntity
  8
0
  6
Continuous
 62
     7
370
    15
100
AcDbCircle
 10
-21.6073301975
 20
65.7317695311
 30
0.0
 40
0.596871845541384
100
AcDbArc
 50
329.8264799704
 51
30.1735200296
  0
LINE
  5
24A
330
1F
100
AcDbEntity
  8
0
  6
Continuous
 62
     7
370
    15
100
AcDbLine
 10
-21.0913272549
 20
65.4317728527
 30
0.0
 11
-26.7553331305
 21
55.6877768882
 31
0.0
  0
ARC
  5
24B
330
1F
100
AcDbEntity
  8
0
  6
Continuous
 62
     7
370
    15
100
AcDbCircle
 10
-26.2392255624
 20
55.381769522
 30
0.0
 40
0.6000000000000235
100
AcDbArc
 50
149.3361692447
 51
269.9900080798
  0
LINE
  5
24C
330
1F
100
AcDbEntity
  8
0
  6
Continuous
 62
     7
370
    15
100
AcDbLine
 10
-26.2393357207
 20
54.7817713865
 30
0.0
 11
-14.9653257777
 21
54.8198289521
 31
0.0
  0
ARC
  5
24D
330
1F
100
AcDbEntity
  8
0
  6
Continuous
 62
     7
370
    15
100
AcDbCircle
 10
-14.9653301975
 20
54.2177695311
 30
0.0
 40
0.6020664415161932
100
AcDbArc
 50
29.8865269404
 51
90.0
  0
LINE
  5
24E
330
1F
100
AcDbEntity
  8
0
  6
Continuous
 62
     7
370
    15
100
AcDbLine
 10
-14.4433231999
 20
54.5177675136
 30
0.0
 11
-9.3613268782
 21
45.6437683948
 31
0.0
  0
ARC
  5
24F
330
1F
100
AcDbEntity
  8
0
  6
Continuous
 62
     7
370
    15
100
AcDbCircle
 10
-52.3153301975
 20
105.0797695311
 30
0.0
 40
0.6000000000000085
100
AcDbArc
 50
270.0
 51
30.3791260114
  0
LINE
  5
250
330
1F
100
AcDbEntity
  8
0
  6
Continuous
 62
     7
370
    15
100
AcDbLine
 10
-51.7977179934
 20
105.3832016238
 30
0.0
 11
-57.4573280264
 21
115.1237703212
 31
0.0
  0
ARC
  5
251
330
1F
100
AcDbEntity
  8
0
  6
Continuous
 62
     7
370
    15
100
AcDbCircle
 10
-56.9413301975
 20
115.4237695311
 30
0.0
 40
0.5968718455414157
100
AcDbArc
 50
149.3310733503
 51
210.1735200296
  0
LINE
  5
252
330
1F
100
AcDbEntity
  8
0
  6
Continuous
 62
     7
370
    15
100
AcDbLine
 10
-57.4547203232
 20
115.7282210239
 30
0.0
 11
-51.793337052
 21
125.4737667092
 31
0.0
  0
ARC
  5
253
330
1F
100
AcDbEntity
  8
0
  6
Continuous
 62
     7
370
    15
100
AcDbCircle
 10
-52.3093301975
 20
125.7737695311
 30
0.0
 40
0.596871845541412
100
AcDbArc
 50
329.8264799704
 51
90.5729386977
  0
LINE
  5
254
330
1F
100
AcDbEntity
  8
0
  6
Continuous
 62
     7
370
    15
100
AcDbLine
 10
-52.3152949263
 20
126.3706079968
 30
0.0
 11
-63.5899307181
 21
126.3437710055
 31
0.0
  0
ARC
  5
255
330
1F
100
AcDbEntity
  8
0
  6
Continuous
 62
     7
370
    15
100
AcDbCircle
 10
-63.592219908
 20
126.9437678621
 30
0.0
 40
0.600002699993973
100
AcDbArc
 50
209.8674371919
 51
270.2186507915
  0
LINE
  5
256
330
1F
100
AcDbEntity
  8
0
  6
Continuous
 62
     7
370
    15
100
AcDbLine
 10
-64.1125293423
 20
126.6449681767
 30
0.0
 11
-69.7153361489
 21
136.4177680858
 31
0.0
  0
ARC
  5
257
330
1F
100
AcDbEntity
  8
0
  6
Continuous
 62
     7
370
    15
100
AcDbCircle
 10
-70.2373301975
 20
136.1177695311
 30
0.0
 40
0.6020664415162633
100
AcDbArc
 50
29.8865269404
 51
149.8264799704
  0
LINE
  5
258
330
1F
100
AcDbEntity
  8
0
  6
Continuous
 62
     7
370
    15
100
AcDbLine
 10
-70.757821386
 20
136.4203795143
 30
0.0
 11
-76.3633253027
 21
126.6437686332
 31
0.0
  0
ARC
  5
259
330
1F
100
AcDbEntity
  8
0
  6
Continuous
 62
     7
370
    15
100
AcDbCircle
 10
-76.8853301975
 20
126.9437695311
 30
0.0
 40
0.6020664415162177
100
AcDbArc
 50
270.0
 51
330.1134730596
  0
LINE
  5
25A
330
1F
100
AcDbEntity
  8
0
  6
Continuous
 62
     7
370
    15
100
AcDbLine
 10
-76.8853278805
 20
126.3416997441
 30
0.0
 11
-88.1533326556
 21
126.373767043
 31
0.0
  0
ARC
  5
25B
330
1F
100
AcDbEntity
  8
0
  6
Continuous
 62
     7
370
    15
100
AcDbCircle
 10
-88.1533301975
 20
125.7737695311
 30
0.0
 40
0.6000000000000227
100
AcDbArc
 50
90.0
 51
209.8865269404
  0
LINE
  5
25C
330
1F
100
AcDbEntity
  8
0
  6
Continuous
 62
     7
370
    15
100
AcDbLine
 10
-88.6735321928
 20
125.4748023399
 30
0.0
 11
-83.0113293578
 21
115.7297707446
 31
0.0
  0
ARC
  5
25D
330
1F
100
AcDbEntity
  8
0
  6
Continuous
 62
     7
370
    15
100
AcDbCircle
 10
-83.5273301975
 20
115.4297695311
 30
0.0
 40
0.5968718455413973
100
AcDbArc
 50
329.3310733503
 51
30.1735200296
  0
LINE
  5
25E
330
1F
100
AcDbEntity
  8
0
  6
Continuous
 62
     7
370
    15
100
AcDbLine
 10
-83.013937061
 20
115.125320042
 30
0.0
 11
-88.6777343203
 21
105.3815699466
 31
0.0
  0
ARC
  5
25F
330
1F
100
AcDbEntity
  8
0
  6
Continuous
 62
     7
370
    15
100
AcDbCircle
 10
-88.1594184212
 20
105.0796180408
 30
0.0
 40
0.5998514816185726
100
AcDbArc
 50
149.7763212027
 51
270.1803570214
  0
LINE
  5
260
330
1F
100
AcDbEntity
  8
0
  6
Continuous
 62
     7
370
    15
100
AcDbLine
 10
-88.157534783
 20
104.4797665723
 30
0.0
 11
-76.8853278805
 21
104.5157677778
 31
0.0
  0
ARC
  5
261
330
1F
100
AcDbEntity
  8
0
  6
Continuous
 62
     7
370
    15
100
AcDbCircle
 10
-76.8853301975
 20
103.9157695311
 30
0.0
 40
0.6000000000000227
100
AcDbArc
 50
29.8865269404
 51
90.0
  0
LINE
  5
262
330
1F
100
AcDbEntity
  8
0
  6
Continuous
 62
     7
370
    15
100
AcDbLine
 10
-76.3651283432
 20
104.2147419699
 30
0.0
 11
-71.2753238131
 21
95.3417710312
 31
0.0
  0
ARC
  5
263
330
1F
100
AcDbEntity
  8
0
  6
Continuous
 62
     7
370
    15
100
AcDbCircle
 10
-70.2343301975
 20
95.7215392484
 30
0.0
 40
1.108109217607933
100
AcDbArc
 50
200.0425969612
 51
339.9574030411
  0
LINE
  5
264
330
1F
100
AcDbEntity
  8
0
  6
Continuous
 62
     7
370
    15
100
AcDbLine
 10
-69.1933335711
 20
95.3417710312
 30
0.0
 11
-64.1113372494
 21
104.21577015
 31
0.0
  0
ARC
  5
265
330
1F
100
AcDbEntity
  8
0
  6
Continuous
 62
     7
370
    15
100
AcDbCircle
 10
-63.5893301975
 20
103.9157695311
 30
0.0
 40
0.6020664415162349
100
AcDbArc
 50
89.4270613023
 51
150.1134730596
  0
LINE
  5
266
330
1F
100
AcDbEntity
  8
0
  6
Continuous
 62
     7
370
    15
100
AcDbLine
 10
-63.5833146025
 20
104.5178092368
 30
0.0
 11
-52.3153247286
 21
104.4797665723
 31
0.0
  0
ARC
  5
267
330
1F
100
AcDbEntity
  8
0
  6
Continuous
 62
     7
370
    15
100
AcDbCircle
 10
-57.3308869352
 20
208.3779168123
 30
0.0
 40
0.6000000000000424
100
AcDbArc
 50
270.0
 51
30.1735200296
  0
LINE
  5
268
330
1F
100
AcDbEntity
  8
0
  6
Continuous
 62
     7
370
    15
100
AcDbLine
 10
-56.8121822525
 20
208.6794889816
 30
0.0
 11
-62.4788852383
 21
218.4219165989
 31
0.0
  0
ARC
  5
269
330
1F
100
AcDbEntity
  8
0
  6
Continuous
 62
     7
370
    15
100
AcDbCircle
 10
-61.9628869352
 20
218.7219168123
 30
0.0
 40
0.5968718455414238
100
AcDbArc
 50
149.8264799704
 51
210.1735200296
  0
LINE
  5
26A
330
1F
100
AcDbEntity
  8
0
  6
Continuous
 62
     7
370
    15
100
AcDbLine
 10
-62.4788852383
 20
219.0219174423
 30
0.0
 11
-56.8148942639
 21
228.7659152695
 31
0.0
  0
ARC
  5
26B
330
1F
100
AcDbEntity
  8
0
  6
Continuous
 62
     7
370
    15
100
AcDbCircle
 10
-57.3308869352
 20
229.0659168123
 30
0.0
 40
0.5968718455414149
100
AcDbArc
 50
329.8264799704
 51
90.0
  0
LINE
  5
26C
330
1F
100
AcDbEntity
  8
0
  6
Continuous
 62
     7
370
    15
100
AcDbLine
 10
-57.3308916737
 20
229.6627900847
 30
0.0
 11
-68.6048867155
 21
229.6359158405
 31
0.0
  0
ARC
  5
26D
330
1F
100
AcDbEntity
  8
0
  6
Continuous
 62
     7
370
    15
100
AcDbCircle
 10
-68.6048869352
 20
230.2359168123
 30
0.0
 40
0.5999999999999901
100
AcDbArc
 50
209.8865269404
 51
270.0
  0
LINE
  5
26E
330
1F
100
AcDbEntity
  8
0
  6
Continuous
 62
     7
370
    15
100
AcDbLine
 10
-69.125101154
 20
229.9369453736
 30
0.0
 11
-74.7308881928
 21
239.7159180888
 31
0.0
  0
ARC
  5
26F
330
1F
100
AcDbEntity
  8
0
  6
Continuous
 62
     7
370
    15
100
AcDbCircle
 10
-75.2528869352
 20
239.4159168123
 30
0.0
 40
0.6020664415162272
100
AcDbArc
 50
29.8865269404
 51
150.1134730596
  0
LINE
  5
270
330
1F
100
AcDbEntity
  8
0
  6
Continuous
 62
     7
370
    15
100
AcDbLine
 10
-75.7748933483
 20
239.7159180888
 30
0.0
 11
-81.3788922478
 21
229.9359171935
 31
0.0
  0
ARC
  5
271
330
1F
100
AcDbEntity
  8
0
  6
Continuous
 62
     7
370
    15
100
AcDbCircle
 10
-81.9008869352
 20
230.2359168123
 30
0.0
 40
0.6020664415162353
100
AcDbArc
 50
270.0
 51
330.1134730596
  0
LINE
  5
272
330
1F
100
AcDbEntity
  8
0
  6
Continuous
 62
     7
370
    15
100
AcDbLine
 10
-81.9008799244
 20
229.6338520296
 30
0.0
 11
-93.1748898674
 21
229.6659156032
 31
0.0
  0
ARC
  5
273
330
1F
100
AcDbEntity
  8
0
  6
Continuous
 62
     7
370
    15
100
AcDbCircle
 10
-93.1748869352
 20
229.0659168123
 30
0.0
 40
0.600000000000024
100
AcDbArc
 50
90.0
 51
210.1735200296
  0
LINE
  5
274
330
1F
100
AcDbEntity
  8
0
  6
Continuous
 62
     7
370
    15
100
AcDbLine
 10
-93.6935843874
 20
228.7643431969
 30
0.0
 11
-88.0268814017
 21
219.0219174423
 31
0.0
  0
ARC
  5
275
330
1F
100
AcDbEntity
  8
0
  6
Continuous
 62
     7
370
    15
100
AcDbCircle
 10
-88.5428869352
 20
218.7219168123
 30
0.0
 40
0.5968718455414361
100
AcDbArc
 50
329.8264799704
 51
30.1735200296
  0
LINE
  5
276
330
1F
100
AcDbEntity
  8
0
  6
Continuous
 62
     7
370
    15
100
AcDbLine
 10
-88.0268814017
 20
218.4219165989
 30
0.0
 11
-93.6908872773
 21
208.6779169091
 31
0.0
  0
ARC
  5
277
330
1F
100
AcDbEntity
  8
0
  6
Continuous
 62
     7
370
    15
100
AcDbCircle
 10
-93.1748869352
 20
208.3779168123
 30
0.0
 40
0.5968718455414498
100
AcDbArc
 50
149.8264799704
 51
270.0
  0
LINE
  5
278
330
1F
100
AcDbEntity
  8
0
  6
Continuous
 62
     7
370
    15
100
AcDbLine
 10
-93.1748898674
 20
207.7810458191
 30
0.0
 11
-81.9008799244
 21
207.807916338
 31
0.0
  0
ARC
  5
279
330
1F
100
AcDbEntity
  8
0
  6
Continuous
 62
     7
370
    15
100
AcDbCircle
 10
-81.9008869352
 20
207.2079168123
 30
0.0
 40
0.6000000000000677
100
AcDbArc
 50
29.8865269404
 51
90.0
  0
LINE
  5
27A
330
1F
100
AcDbEntity
  8
0
  6
Continuous
 62
     7
370
    15
100
AcDbLine
 10
-81.3806803871
 20
207.5068868049
 30
0.0
 11
-76.2908907582
 21
198.6399163776
 31
0.0
  0
ARC
  5
27B
330
1F
100
AcDbEntity
  8
0
  6
Continuous
 62
     7
370
    15
100
AcDbCircle
 10
-75.2498869352
 20
199.1637941614
 30
0.0
 40
1.165387693799888
100
AcDbArc
 50
206.7135673114
 51
333.2864326907
  0
LINE
  5
27C
330
1F
100
AcDbEntity
  8
0
  6
Continuous
 62
     7
370
    15
100
AcDbLine
 10
-74.208885615
 20
198.6399163776
 30
0.0
 11
-69.1268892933
 21
207.5079168477
 31
0.0
  0
ARC
  5
27D
330
1F
100
AcDbEntity
  8
0
  6
Continuous
 62
     7
370
    15
100
AcDbCircle
 10
-68.6048869352
 20
207.2079168123
 30
0.0
 40
0.6020664415162287
100
AcDbArc
 50
90.0
 51
150.1134730596
  0
LINE
  5
27E
330
1F
100
AcDbEntity
  8
0
  6
Continuous
 62
     7
370
    15
100
AcDbLine
 10
-68.6048867155
 20
207.8099838742
 30
0.0
 11
-57.3308916737
 21
207.7779165753
 31
0.0
  0
LINE
  5
27F
330
1F
100
AcDbEntity
  8
0
  6
Continuous
 62
     7
370
    15
100
AcDbLine
 10
-32.1519823719
 20
88.6171675571
 30
0.0
 11
-33.2833232333
 21
86.6714558848
 31
0.0
  0
ARC
  5
280
330
1F
100
AcDbEntity
  8
0
  6
Continuous
 62
     7
370
    15
100
AcDbCircle
 10
150.2820590537
 20
205.4165852879
 30
0.0
 40
1.185205599489574
100
AcDbArc
 50
28.5586013952
 51
151.4413986048
  0
LINE
  5
281
330
1F
100
AcDbEntity
  8
0
  6
Continuous
 62
     7
370
    15
100
AcDbLine
 10
149.2410589035
 20
205.9831816055
 30
0.0
 11
144.1512674119
 21
197.1162111782
 31
0.0
  0
ARC
  5
282
330
1F
100
AcDbEntity
  8
0
  6
Continuous
 62
     7
370
    15
100
AcDbCircle
 10
143.6310590537
 20
197.4151815401
 30
0.0
 40
0.6000000000000147
100
AcDbArc
 50
270.0
 51
330.1134730596
  0
LINE
  5
283
330
1F
100
AcDbEntity
  8
0
  6
Continuous
 62
     7
370
    15
100
AcDbLine
 10
143.631059027
 20
196.8151816451
 30
0.0
 11
132.3630277093
 21
196.8420237586
 31
0.0
  0
ARC
  5
284
330
1F
100
AcDbEntity
  8
0
  6
Continuous
 62
     7
370
    15
100
AcDbCircle
 10
132.3570590537
 20
196.2451815401
 30
0.0
 40
0.5968718455414361
100
AcDbArc
 50
89.4270613023
 51
210.1735200296
  0
LINE
  5
285
330
1F
100
AcDbEntity
  8
0
  6
Continuous
 62
     7
370
    15
100
AcDbLine
 10
131.8410586591
 20
195.9451815397
 30
0.0
 11
137.5024456556
 21
186.1996316635
 31
0.0
  0
ARC
  5
286
330
1F
100
AcDbEntity
  8
0
  6
Continuous
 62
     7
370
    15
100
AcDbCircle
 10
136.9890590537
 20
185.8951815401
 30
0.0
 40
0.5968718455414784
100
AcDbArc
 50
329.8264799704
 51
30.6689266497
  0
LINE
  5
287
330
1F
100
AcDbEntity
  8
0
  6
Continuous
 62
     7
370
    15
100
AcDbLine
 10
137.5050589468
 20
185.5951814265
 30
0.0
 11
131.8454405318
 21
175.8546131947
 31
0.0
  0
ARC
  5
288
330
1F
100
AcDbEntity
  8
0
  6
Continuous
 62
     7
370
    15
100
AcDbCircle
 10
132.3630590537
 20
175.5511815401
 30
0.0
 40
0.5999999999999943
100
AcDbArc
 50
149.6208739886
 51
270.0
  0
LINE
  5
289
330
1F
100
AcDbEntity
  8
0
  6
Continuous
 62
     7
370
    15
100
AcDbLine
 10
132.3630593743
 20
174.9511818685
 30
0.0
 11
143.631059027
 21
174.9892478161
 31
0.0
  0
ARC
  5
28A
330
1F
100
AcDbEntity
  8
0
  6
Continuous
 62
     7
370
    15
100
AcDbCircle
 10
143.6310590537
 20
174.3871815401
 30
0.0
 40
0.6020664415162396
100
AcDbArc
 50
29.8865269404
 51
90.0
  0
LINE
  5
28B
330
1F
100
AcDbEntity
  8
0
  6
Continuous
 62
     7
370
    15
100
AcDbLine
 10
144.1530590437
 20
174.6871817209
 30
0.0
 11
149.7570591073
 21
164.9071808257
 31
0.0
  0
ARC
  5
28C
330
1F
100
AcDbEntity
  8
0
  6
Continuous
 62
     7
370
    15
100
AcDbCircle
 10
150.2790590537
 20
165.2071815401
 30
0.0
 40
0.6020664415162494
100
AcDbArc
 50
209.8865269404
 51
330.1134730596
  0
LINE
  5
28D
330
1F
100
AcDbEntity
  8
0
  6
Continuous
 62
     7
370
    15
100
AcDbLine
 10
150.8010586749
 20
164.9071808257
 30
0.0
 11
156.4068503703
 21
174.6861516782
 31
0.0
  0
ARC
  5
28E
330
1F
100
AcDbEntity
  8
0
  6
Continuous
 62
     7
370
    15
100
AcDbCircle
 10
156.9270590537
 20
174.3871815401
 30
0.0
 40
0.600000000000029
100
AcDbArc
 50
90.0
 51
150.1134730596
  0
LINE
  5
28F
330
1F
100
AcDbEntity
  8
0
  6
Continuous
 62
     7
370
    15
100
AcDbLine
 10
156.9270592208
 20
174.9871812113
 30
0.0
 11
168.2052591841
 21
174.9511818685
 31
0.0
  0
ARC
  5
290
330
1F
100
AcDbEntity
  8
0
  6
Continuous
 62
     7
370
    15
100
AcDbCircle
 10
168.2071472773
 20
175.5510300498
 30
0.0
 40
0.5998514816185909
100
AcDbArc
 50
269.8196429831
 51
30.2236787953
  0
LINE
  5
291
330
1F
100
AcDbEntity
  8
0
  6
Continuous
 62
     7
370
    15
100
AcDbLine
 10
168.7254587214
 20
175.8529815175
 30
0.0
 11
163.0556730579
 21
185.5967311472
 31
0.0
  0
ARC
  5
292
330
1F
100
AcDbEntity
  8
0
  6
Continuous
 62
     7
370
    15
100
AcDbCircle
 10
163.5690590537
 20
185.9011815401
 30
0.0
 40
0.5968718455414641
100
AcDbArc
 50
149.8264799704
 51
210.6689266497
  0
LINE
  5
293
330
1F
100
AcDbEntity
  8
0
  6
Continuous
 62
     7
370
    15
100
AcDbLine
 10
163.0530597668
 20
186.2011813842
 30
0.0
 11
168.7212677698
 21
195.9462111168
 31
0.0
  0
ARC
  5
294
330
1F
100
AcDbEntity
  8
0
  6
Continuous
 62
     7
370
    15
100
AcDbCircle
 10
168.2010590537
 20
196.2451815401
 30
0.0
 40
0.6000000000001416
100
AcDbArc
 50
330.1134730596
 51
90.0
  0
LINE
  5
295
330
1F
100
AcDbEntity
  8
0
  6
Continuous
 62
     7
370
    15
100
AcDbLine
 10
168.2010589193
 20
196.8451814078
 30
0.0
 11
156.9270592208
 21
196.8131150403
 31
0.0
  0
ARC
  5
296
330
1F
100
AcDbEntity
  8
0
  6
Continuous
 62
     7
370
    15
100
AcDbCircle
 10
156.9270590537
 20
197.4151815401
 30
0.0
 40
0.6020664415162003
100
AcDbArc
 50
209.8865269404
 51
270.0
  0
LINE
  5
297
330
1F
100
AcDbEntity
  8
0
  6
Continuous
 62
     7
370
    15
100
AcDbLine
 10
156.405059437
 20
197.1151816011
 30
0.0
 11
151.3230593901
 21
205.9831816055
 31
0.0
  0
ARC
  5
298
330
1F
100
AcDbEntity
  8
0
  6
Continuous
 62
     7
370
    15
100
AcDbCircle
 10
102.7336163232
 20
93.9302293346
 30
0.0
 40
0.1199999999999982
100
AcDbArc
 50
209.0546040991
 51
270.0
  0
LINE
  5
299
330
1F
100
AcDbEntity
  8
0
  6
Continuous
 62
     7
370
    15
100
AcDbLine
 10
102.6287188779
 20
93.8719502934
 30
0.0
 11
101.5036178778
 21
95.820232416
 31
0.0
  0
ARC
  5
29A
330
1F
100
AcDbEntity
  8
0
  6
Continuous
 62
     7
370
    15
100
AcDbCircle
 10
101.4016163232
 20
95.7602293346
 30
0.0
 40
0.1183384975398372
100
AcDbArc
 50
30.4655449194
 51
149.5344550805
  0
LINE
  5
29B
330
1F
100
AcDbEntity
  8
0
  6
Continuous
 62
     7
370
    15
100
AcDbLine
 10
101.2996172558
 20
95.820232416
 30
0.0
 11
100.1770159255
 21
93.8690296658
 31
0.0
  0
ARC
  5
29C
330
1F
100
AcDbEntity
  8
0
  6
Continuous
 62
     7
370
    15
100
AcDbCircle
 10
100.0726820814
 20
93.9285447611
 30
0.0
 40
0.1201154444691102
100
AcDbArc
 50
269.9686329474
 51
330.2982491441
  0
LINE
  5
29D
330
1F
100
AcDbEntity
  8
0
  6
Continuous
 62
     7
370
    15
100
AcDbLine
 10
100.0726146649
 20
93.8084266432
 30
0.0
 11
97.8196149718
 21
93.8162274011
 31
0.0
  0
ARC
  5
29E
330
1F
100
AcDbEntity
  8
0
  6
Continuous
 62
     7
370
    15
100
AcDbCircle
 10
97.8196163232
 20
93.6962293346
 30
0.0
 40
0.1200000000000106
100
AcDbArc
 50
90.0
 51
209.0546040991
  0
LINE
  5
29F
330
1F
100
AcDbEntity
  8
0
  6
Continuous
 62
     7
370
    15
100
AcDbLine
 10
97.7147182475
 20
93.6379499086
 30
0.0
 11
98.8456157993
 21
91.6862256177
 31
0.0
  0
ARC
  5
2A0
330
1F
100
AcDbEntity
  8
0
  6
Continuous
 62
     7
370
    15
100
AcDbCircle
 10
98.7436163232
 20
91.6262293346
 30
0.0
 40
0.1183384975399554
100
AcDbArc
 50
329.5344550806
 51
30.4655449195
  0
LINE
  5
2A1
330
1F
100
AcDbEntity
  8
0
  6
Continuous
 62
     7
370
    15
100
AcDbLine
 10
98.8456157993
 20
91.5662265666
 30
0.0
 11
97.7116150807
 21
89.6162308105
 31
0.0
  0
ARC
  5
2A2
330
1F
100
AcDbEntity
  8
0
  6
Continuous
 62
     7
370
    15
100
AcDbCircle
 10
97.8136163232
 20
89.5562293346
 30
0.0
 40
0.1183384975399251
100
AcDbArc
 50
149.5344550805
 51
272.8624052261
  0
LINE
  5
2A3
330
1F
100
AcDbEntity
  8
0
  6
Continuous
 62
     7
370
    15
100
AcDbLine
 10
97.8195255648
 20
89.4380352743
 30
0.0
 11
100.0696158062
 21
89.4422299512
 31
0.0
  0
ARC
  5
2A4
330
1F
100
AcDbEntity
  8
0
  6
Continuous
 62
     7
370
    15
100
AcDbCircle
 10
100.0696163232
 20
89.3222293346
 30
0.0
 40
0.1200000000000188
100
AcDbArc
 50
29.0546040991
 51
90.0
  0
LINE
  5
2A5
330
1F
100
AcDbEntity
  8
0
  6
Continuous
 62
     7
370
    15
100
AcDbLine
 10
100.1745162557
 20
89.3805093416
 30
0.0
 11
101.2996172558
 21
87.4262295016
 31
0.0
  0
ARC
  5
2A6
330
1F
100
AcDbEntity
  8
0
  6
Continuous
 62
     7
370
    15
100
AcDbCircle
 10
101.4016163232
 20
87.4862293346
 30
0.0
 40
0.1183384975398516
100
AcDbArc
 50
210.4655449195
 51
329.5344550805
  0
LINE
  5
2A7
330
1F
100
AcDbEntity
  8
0
  6
Continuous
 62
     7
370
    15
100
AcDbLine
 10
101.5036178778
 20
87.4262295016
 30
0.0
 11
102.6256157111
 21
89.3822304257
 31
0.0
  0
ARC
  5
2A8
330
1F
100
AcDbEntity
  8
0
  6
Continuous
 62
     7
370
    15
100
AcDbCircle
 10
102.7276163232
 20
89.3222293346
 30
0.0
 40
0.1183384975399417
100
AcDbArc
 50
87.1375947738
 51
149.5344550805
  0
LINE
  5
2A9
330
1F
100
AcDbEntity
  8
0
  6
Continuous
 62
     7
370
    15
100
AcDbLine
 10
102.7335261952
 20
89.4404194601
 30
0.0
 11
104.9836164366
 21
89.4362322338
 31
0.0
  0
ARC
  5
2AA
330
1F
100
AcDbEntity
  8
0
  6
Continuous
 62
     7
370
    15
100
AcDbCircle
 10
104.9836163232
 20
89.5562293346
 30
0.0
 40
0.1199999999999982
100
AcDbArc
 50
270.0
 51
29.0546040991
  0
LINE
  5
2AB
330
1F
100
AcDbEntity
  8
0
  6
Continuous
 62
     7
370
    15
100
AcDbLine
 10
105.0885168861
 20
89.6145097264
 30
0.0
 11
103.957615609
 21
91.5662265666
 31
0.0
  0
ARC
  5
2AC
330
1F
100
AcDbEntity
  8
0
  6
Continuous
 62
     7
370
    15
100
AcDbCircle
 10
104.0596163232
 20
91.6262293346
 30
0.0
 40
0.1183384975398804
100
AcDbArc
 50
149.5344550805
 51
210.4655449195
  0
LINE
  5
2AD
330
1F
100
AcDbEntity
  8
0
  6
Continuous
 62
     7
370
    15
100
AcDbLine
 10
103.957615609
 20
91.6862256177
 30
0.0
 11
105.0916163276
 21
93.6362288245
 31
0.0
  0
ARC
  5
2AE
330
1F
100
AcDbEntity
  8
0
  6
Continuous
 62
     7
370
    15
100
AcDbCircle
 10
104.9896163232
 20
93.6962293346
 30
0.0
 40
0.1183384975399425
100
AcDbArc
 50
329.5344550806
 51
92.8624052261
  0
LINE
  5
2AF
330
1F
100
AcDbEntity
  8
0
  6
Continuous
 62
     7
370
    15
100
AcDbLine
 10
104.9837058436
 20
93.81441691
 30
0.0
 11
102.7336156021
 21
93.8102296837
 31
0.0
  0
ARC
  5
2B0
330
1F
100
AcDbEntity
  8
0
  6
Continuous
 62
     7
370
    15
100
AcDbCircle
 10
156.2717067807
 20
112.8997534046
 30
0.0
 40
0.1200000000000059
100
AcDbArc
 50
207.897271031
 51
270.0
  0
LINE
  5
2B1
330
1F
100
AcDbEntity
  8
0
  6
Continuous
 62
     7
370
    15
100
AcDbLine
 10
156.1656517934
 20
112.8436095365
 30
0.0
 11
155.0477070759
 21
114.7957510598
 31
0.0
  0
ARC
  5
2B2
330
1F
100
AcDbEntity
  8
0
  6
Continuous
 62
     7
370
    15
100
AcDbCircle
 10
154.9457067807
 20
114.7357534046
 30
0.0
 40
0.1183384975398545
100
AcDbArc
 50
30.4655449194
 51
150.9453959009
  0
LINE
  5
2B3
330
1F
100
AcDbEntity
  8
0
  6
Continuous
 62
     7
370
    15
100
AcDbLine
 10
154.84226011
 20
114.793225313
 30
0.0
 11
153.7211069863
 21
112.8445557602
 31
0.0
  0
ARC
  5
2B4
330
1F
100
AcDbEntity
  8
0
  6
Continuous
 62
     7
370
    15
100
AcDbCircle
 10
153.6167725389
 20
112.9040688311
 30
0.0
 40
0.1201154444690786
100
AcDbArc
 50
269.9686329474
 51
330.2982491442
  0
LINE
  5
2B5
330
1F
100
AcDbEntity
  8
0
  6
Continuous
 62
     7
370
    15
100
AcDbLine
 10
153.616706657
 20
112.7839527376
 30
0.0
 11
151.3577064525
 21
112.7917534955
 31
0.0
  0
ARC
  5
2B6
330
1F
100
AcDbEntity
  8
0
  6
Continuous
 62
     7
370
    15
100
AcDbCircle
 10
151.3577067807
 20
112.6717534046
 30
0.0
 40
0.1200000000000292
100
AcDbArc
 50
90.0
 51
210.4655449194
  0
LINE
  5
2B7
330
1F
100
AcDbEntity
  8
0
  6
Continuous
 62
     7
370
    15
100
AcDbLine
 10
151.2542746987
 20
112.6109130033
 30
0.0
 11
152.3897068601
 21
110.6617517122
 31
0.0
  0
ARC
  5
2B8
330
1F
100
AcDbEntity
  8
0
  6
Continuous
 62
     7
370
    15
100
AcDbCircle
 10
152.2877067807
 20
110.6017534046
 30
0.0
 40
0.1183384975398242
100
AcDbArc
 50
329.5344550805
 51
30.4655449195
  0
LINE
  5
2B9
330
1F
100
AcDbEntity
  8
0
  6
Continuous
 62
     7
370
    15
100
AcDbLine
 10
152.3897068601
 20
110.5417526611
 30
0.0
 11
151.2557070728
 21
108.5917569049
 31
0.0
  0
ARC
  5
2BA
330
1F
100
AcDbEntity
  8
0
  6
Continuous
 62
     7
370
    15
100
AcDbCircle
 10
151.3577067807
 20
108.5317534046
 30
0.0
 40
0.1183384975399377
100
AcDbArc
 50
149.5344550805
 51
270.0
  0
LINE
  5
2BB
330
1F
100
AcDbEntity
  8
0
  6
Continuous
 62
     7
370
    15
100
AcDbLine
 10
151.3577064525
 20
108.4134123572
 30
0.0
 11
153.613706867
 21
108.4177560457
 31
0.0
  0
ARC
  5
2BC
330
1F
100
AcDbEntity
  8
0
  6
Continuous
 62
     7
370
    15
100
AcDbCircle
 10
153.6137067807
 20
108.2977534046
 30
0.0
 40
0.120000000000033
100
AcDbArc
 50
29.0546040991
 51
90.0
  0
LINE
  5
2BD
330
1F
100
AcDbEntity
  8
0
  6
Continuous
 62
     7
370
    15
100
AcDbLine
 10
153.7186054538
 20
108.3560279854
 30
0.0
 11
154.8377068739
 21
106.401755596
 31
0.0
  0
ARC
  5
2BE
330
1F
100
AcDbEntity
  8
0
  6
Continuous
 62
     7
370
    15
100
AcDbCircle
 10
154.9397067807
 20
106.4617534046
 30
0.0
 40
0.1183384975399537
100
AcDbArc
 50
210.4655449195
 51
330.9453959009
  0
LINE
  5
2BF
330
1F
100
AcDbEntity
  8
0
  6
Continuous
 62
     7
370
    15
100
AcDbLine
 10
155.0431529086
 20
106.4042813428
 30
0.0
 11
156.1697067718
 21
108.3577565201
 31
0.0
  0
ARC
  5
2C0
330
1F
100
AcDbEntity
  8
0
  6
Continuous
 62
     7
370
    15
100
AcDbCircle
 10
156.2717067807
 20
108.2977534046
 30
0.0
 40
0.1183384975398804
100
AcDbArc
 50
90.0
 51
149.5344550805
  0
LINE
  5
2C1
330
1F
100
AcDbEntity
  8
0
  6
Continuous
 62
     7
370
    15
100
AcDbLine
 10
156.2717070829
 20
108.4160945662
 30
0.0
 11
158.5277074974
 21
108.4117508777
 31
0.0
  0
ARC
  5
2C2
330
1F
100
AcDbEntity
  8
0
  6
Continuous
 62
     7
370
    15
100
AcDbCircle
 10
158.5277067807
 20
108.5317534046
 30
0.0
 40
0.1200000000000393
100
AcDbArc
 50
270.0
 51
30.4655449194
  0
LINE
  5
2C3
330
1F
100
AcDbEntity
  8
0
  6
Continuous
 62
     7
370
    15
100
AcDbLine
 10
158.6311383198
 20
108.5925988205
 30
0.0
 11
157.5017066698
 21
110.5417526611
 31
0.0
  0
ARC
  5
2C4
330
1F
100
AcDbEntity
  8
0
  6
Continuous
 62
     7
370
    15
100
AcDbCircle
 10
157.6037067807
 20
110.6017534046
 30
0.0
 40
0.1183384975398487
100
AcDbArc
 50
149.5344550805
 51
210.4655449195
  0
LINE
  5
2C5
330
1F
100
AcDbEntity
  8
0
  6
Continuous
 62
     7
370
    15
100
AcDbLine
 10
157.5017066698
 20
110.6617517122
 30
0.0
 11
158.6297059457
 21
112.6117549189
 31
0.0
  0
ARC
  5
2C6
330
1F
100
AcDbEntity
  8
0
  6
Continuous
 62
     7
370
    15
100
AcDbCircle
 10
158.5277067807
 20
112.6717534046
 30
0.0
 40
0.1183384975400231
100
AcDbArc
 50
329.5344550806
 51
89.9999999999
  0
LINE
  5
2C7
330
1F
100
AcDbEntity
  8
0
  6
Continuous
 62
     7
370
    15
100
AcDbLine
 10
158.5277074974
 20
112.7900920161
 30
0.0
 11
156.2717070829
 21
112.7797506102
 31
0.0
  0
ARC
  5
2C8
330
1F
100
AcDbEntity
  8
0
  6
Continuous
 62
     7
370
    15
100
AcDbCircle
 10
100.9937067807
 20
140.1457534046
 30
0.0
 40
0.1200000000001182
100
AcDbArc
 50
29.054604099
 51
90.0
  0
LINE
  5
2C9
330
1F
100
AcDbEntity
  8
0
  6
Continuous
 62
     7
370
    15
100
AcDbLine
 10
101.0986043166
 20
140.2040302106
 30
0.0
 11
102.2237053167
 21
138.2497540959
 31
0.0
  0
ARC
  5
2CA
330
1F
100
AcDbEntity
  8
0
  6
Continuous
 62
     7
370
    15
100
AcDbCircle
 10
102.3257067807
 20
138.3097534046
 30
0.0
 40
0.1183384975399338
100
AcDbArc
 50
210.4655449195
 51
329.5344550805
  0
LINE
  5
2CB
330
1F
100
AcDbEntity
  8
0
  6
Continuous
 62
     7
370
    15
100
AcDbLine
 10
102.4277059387
 20
138.2497540959
 30
0.0
 11
103.5497074972
 21
140.20575502
 31
0.0
  0
ARC
  5
2CC
330
1F
100
AcDbEntity
  8
0
  6
Continuous
 62
     7
370
    15
100
AcDbCircle
 10
103.6517067807
 20
140.1457534046
 30
0.0
 40
0.1183384975399582
100
AcDbArc
 50
87.1375947739
 51
149.5344550805
  0
LINE
  5
2CD
330
1F
100
AcDbEntity
  8
0
  6
Continuous
 62
     7
370
    15
100
AcDbLine
 10
103.6576179813
 20
140.2639440544
 30
0.0
 11
105.9077082227
 21
140.2597531029
 31
0.0
  0
ARC
  5
2CE
330
1F
100
AcDbEntity
  8
0
  6
Continuous
 62
     7
370
    15
100
AcDbCircle
 10
105.9077067807
 20
140.3797534046
 30
0.0
 40
0.1200000000000045
100
AcDbArc
 50
270.0
 51
29.0546040991
  0
LINE
  5
2CF
330
1F
100
AcDbEntity
  8
0
  6
Continuous
 62
     7
370
    15
100
AcDbLine
 10
106.012604947
 20
140.4380305954
 30
0.0
 11
104.8817073952
 21
142.3897548862
 31
0.0
  0
ARC
  5
2D0
330
1F
100
AcDbEntity
  8
0
  6
Continuous
 62
     7
370
    15
100
AcDbCircle
 10
104.9837067807
 20
142.4497534046
 30
0.0
 40
0.1183384975398682
100
AcDbArc
 50
149.5344550805
 51
210.4655449195
  0
LINE
  5
2D1
330
1F
100
AcDbEntity
  8
0
  6
Continuous
 62
     7
370
    15
100
AcDbLine
 10
104.8817073952
 20
142.5097539373
 30
0.0
 11
106.0157081138
 21
144.4597534188
 31
0.0
  0
ARC
  5
2D2
330
1F
100
AcDbEntity
  8
0
  6
Continuous
 62
     7
370
    15
100
AcDbCircle
 10
105.9137067807
 20
144.5197534046
 30
0.0
 40
0.118338497539915
100
AcDbArc
 50
329.5344550805
 51
92.8624052261
  0
LINE
  5
2D3
330
1F
100
AcDbEntity
  8
0
  6
Continuous
 62
     7
370
    15
100
AcDbLine
 10
105.9077976297
 20
144.6379452296
 30
0.0
 11
103.6577073883
 21
144.633754278
 31
0.0
  0
ARC
  5
2D4
330
1F
100
AcDbEntity
  8
0
  6
Continuous
 62
     7
370
    15
100
AcDbCircle
 10
103.6577067807
 20
144.7537534046
 30
0.0
 40
0.1200000000000051
100
AcDbArc
 50
209.0546040991
 51
270.0
  0
LINE
  5
2D5
330
1F
100
AcDbEntity
  8
0
  6
Continuous
 62
     7
370
    15
100
AcDbLine
 10
103.5528069388
 20
144.6954748877
 30
0.0
 11
102.4277059387
 21
146.6497547277
 31
0.0
  0
ARC
  5
2D6
330
1F
100
AcDbEntity
  8
0
  6
Continuous
 62
     7
370
    15
100
AcDbCircle
 10
102.3257067807
 20
146.5897534046
 30
0.0
 40
0.1183384975399482
100
AcDbArc
 50
30.4655449195
 51
149.5344550805
  0
LINE
  5
2D7
330
1F
100
AcDbEntity
  8
0
  6
Continuous
 62
     7
370
    15
100
AcDbLine
 10
102.2237053167
 20
146.6497547277
 30
0.0
 11
101.1011077117
 21
144.6925542601
 31
0.0
  0
ARC
  5
2D8
330
1F
100
AcDbEntity
  8
0
  6
Continuous
 62
     7
370
    15
100
AcDbCircle
 10
100.9967725389
 20
144.7520688311
 30
0.0
 40
0.1201154444691641
100
AcDbArc
 50
269.9686329475
 51
330.2982491442
  0
LINE
  5
2D9
330
1F
100
AcDbEntity
  8
0
  6
Continuous
 62
     7
370
    15
100
AcDbLine
 10
100.9967064511
 20
144.6319549628
 30
0.0
 11
98.7437067579
 21
144.6397519954
 31
0.0
  0
ARC
  5
2DA
330
1F
100
AcDbEntity
  8
0
  6
Continuous
 62
     7
370
    15
100
AcDbCircle
 10
98.7437067807
 20
144.5197534046
 30
0.0
 40
0.1200000000000045
100
AcDbArc
 50
90.0
 51
209.0546040991
  0
LINE
  5
2DB
330
1F
100
AcDbEntity
  8
0
  6
Continuous
 62
     7
370
    15
100
AcDbLine
 10
98.6388063084
 20
144.4614745029
 30
0.0
 11
99.7697075854
 21
142.5097539373
 31
0.0
  0
ARC
  5
2DC
330
1F
100
AcDbEntity
  8
0
  6
Continuous
 62
     7
370
    15
100
AcDbCircle
 10
99.6677067807
 20
142.4497534046
 30
0.0
 40
0.1183384975399705
100
AcDbArc
 50
329.5344550805
 51
30.4655449194
  0
LINE
  5
2DD
330
1F
100
AcDbEntity
  8
0
  6
Continuous
 62
     7
370
    15
100
AcDbLine
 10
99.7697075854
 20
142.3897548862
 30
0.0
 11
98.6357068669
 21
140.4397516795
 31
0.0
  0
ARC
  5
2DE
330
1F
100
AcDbEntity
  8
0
  6
Continuous
 62
     7
370
    15
100
AcDbCircle
 10
98.7377067807
 20
140.3797534046
 30
0.0
 40
0.1183384975399432
100
AcDbArc
 50
149.5344550806
 51
272.8624052261
  0
LINE
  5
2DF
330
1F
100
AcDbEntity
  8
0
  6
Continuous
 62
     7
370
    15
100
AcDbLine
 10
98.7436173509
 20
140.2615635939
 30
0.0
 11
100.9937075924
 21
140.2657545455
 31
0.0
  0
ARC
  5
2E0
330
1F
100
AcDbEntity
  8
0
  6
Continuous
 62
     7
370
    15
100
AcDbCircle
 10
193.3217067807
 20
220.1437534046
 30
0.0
 40
0.1183384975399453
100
AcDbArc
 50
149.5344550806
 51
210.4655449195
  0
LINE
  5
2E1
330
1F
100
AcDbEntity
  8
0
  6
Continuous
 62
     7
370
    15
100
AcDbLine
 10
193.2197062324
 20
220.2037527509
 30
0.0
 11
194.353706951
 21
222.1537522324
 31
0.0
  0
ARC
  5
2E2
330
1F
100
AcDbEntity
  8
0
  6
Continuous
 62
     7
370
    15
100
AcDbCircle
 10
194.2517067807
 20
222.2137534046
 30
0.0
 40
0.1183384975398761
100
AcDbArc
 50
329.5344550805
 51
90.0
  0
LINE
  5
2E3
330
1F
100
AcDbEntity
  8
0
  6
Continuous
 62
     7
370
    15
100
AcDbLine
 10
194.2517085026
 20
222.3320930548
 30
0.0
 11
191.9957062255
 21
222.3277530916
 31
0.0
  0
ARC
  5
2E4
330
1F
100
AcDbEntity
  8
0
  6
Continuous
 62
     7
370
    15
100
AcDbCircle
 10
191.9957067807
 20
222.4477534046
 30
0.0
 40
0.120000000000033
100
AcDbArc
 50
210.4655449194
 51
270.0
  0
LINE
  5
2E5
330
1F
100
AcDbEntity
  8
0
  6
Continuous
 62
     7
370
    15
100
AcDbLine
 10
191.8922735404
 20
222.3869107016
 30
0.0
 11
190.7717062186
 21
224.3437535413
 31
0.0
  0
ARC
  5
2E6
330
1F
100
AcDbEntity
  8
0
  6
Continuous
 62
     7
370
    15
100
AcDbCircle
 10
190.6697067807
 20
224.2837534046
 30
0.0
 40
0.118338497539922
100
AcDbArc
 50
30.4655449194
 51
150.9453959009
  0
LINE
  5
2E7
330
1F
100
AcDbEntity
  8
0
  6
Continuous
 62
     7
370
    15
100
AcDbLine
 10
190.5662601839
 20
224.3412240692
 30
0.0
 11
189.4391065489
 21
222.3865530737
 31
0.0
  0
ARC
  5
2E8
330
1F
100
AcDbEntity
  8
0
  6
Continuous
 62
     7
370
    15
100
AcDbCircle
 10
189.3347725389
 20
222.4460688311
 30
0.0
 40
0.1201154444691174
100
AcDbArc
 50
269.9686329475
 51
330.2982491442
  0
LINE
  5
2E9
330
1F
100
AcDbEntity
  8
0
  6
Continuous
 62
     7
370
    15
100
AcDbLine
 10
189.3347052883
 20
222.3259537764
 30
0.0
 11
187.0817055951
 21
222.3337545343
 31
0.0
  0
ARC
  5
2EA
330
1F
100
AcDbEntity
  8
0
  6
Continuous
 62
     7
370
    15
100
AcDbCircle
 10
187.0817067807
 20
222.2137534046
 30
0.0
 40
0.1200000000000494
100
AcDbArc
 50
90.0
 51
210.4655449195
  0
LINE
  5
2EB
330
1F
100
AcDbEntity
  8
0
  6
Continuous
 62
     7
370
    15
100
AcDbLine
 10
186.97827291
 20
222.1529103168
 30
0.0
 11
188.1137078654
 21
220.2037527509
 31
0.0
  0
ARC
  5
2EC
330
1F
100
AcDbEntity
  8
0
  6
Continuous
 62
     7
370
    15
100
AcDbCircle
 10
188.0117067807
 20
220.1437534046
 30
0.0
 40
0.1183384975399554
100
AcDbArc
 50
329.5344550805
 51
30.4655449194
  0
LINE
  5
2ED
330
1F
100
AcDbEntity
  8
0
  6
Continuous
 62
     7
370
    15
100
AcDbLine
 10
188.1137078654
 20
220.0837536999
 30
0.0
 11
186.9797071468
 21
218.1337542184
 31
0.0
  0
ARC
  5
2EE
330
1F
100
AcDbEntity
  8
0
  6
Continuous
 62
     7
370
    15
100
AcDbCircle
 10
187.0817067807
 20
218.0737534046
 30
0.0
 40
0.1183384975398516
100
AcDbArc
 50
149.5344550805
 51
270.0
  0
LINE
  5
2EF
330
1F
100
AcDbEntity
  8
0
  6
Continuous
 62
     7
370
    15
100
AcDbLine
 10
187.0817055951
 20
217.9554152586
 30
0.0
 11
189.3377078723
 21
217.9597533592
 31
0.0
  0
ARC
  5
2F0
330
1F
100
AcDbEntity
  8
0
  6
Continuous
 62
     7
370
    15
100
AcDbCircle
 10
189.3377067807
 20
217.8397534046
 30
0.0
 40
0.1200000000000494
100
AcDbArc
 50
30.4655449195
 51
90.0
  0
LINE
  5
2F1
330
1F
100
AcDbEntity
  8
0
  6
Continuous
 62
     7
370
    15
100
AcDbLine
 10
189.4411405574
 20
217.9005957492
 30
0.0
 11
190.5617078792
 21
215.9437529095
 31
0.0
  0
ARC
  5
2F2
330
1F
100
AcDbEntity
  8
0
  6
Continuous
 62
     7
370
    15
100
AcDbCircle
 10
190.6637067807
 20
216.0037534046
 30
0.0
 40
0.1183384975398557
100
AcDbArc
 50
210.4655449194
 51
330.9453959009
  0
LINE
  5
2F3
330
1F
100
AcDbEntity
  8
0
  6
Continuous
 62
     7
370
    15
100
AcDbLine
 10
190.7671539138
 20
215.9462823816
 30
0.0
 11
191.8937077771
 21
217.8997538336
 31
0.0
  0
ARC
  5
2F4
330
1F
100
AcDbEntity
  8
0
  6
Continuous
 62
     7
370
    15
100
AcDbCircle
 10
191.9957067807
 20
217.8397534046
 30
0.0
 40
0.118338497539952
100
AcDbArc
 50
90.0
 51
149.5344550806
  0
LINE
  5
2F5
330
1F
100
AcDbEntity
  8
0
  6
Continuous
 62
     7
370
    15
100
AcDbLine
 10
191.9957062255
 20
217.9580918797
 30
0.0
 11
194.2517085026
 21
217.9537537791
 31
0.0
  0
ARC
  5
2F6
330
1F
100
AcDbEntity
  8
0
  6
Continuous
 62
     7
370
    15
100
AcDbCircle
 10
194.2517067807
 20
218.0737534046
 30
0.0
 40
0.1200000000000941
100
AcDbArc
 50
270.0
 51
30.4655449194
  0
LINE
  5
2F7
330
1F
100
AcDbEntity
  8
0
  6
Continuous
 62
     7
370
    15
100
AcDbLine
 10
194.3551374625
 20
218.134596134
 30
0.0
 11
193.2197062324
 21
220.0837536999
 31
0.0
  0
ARC
  5
2F8
330
1F
100
AcDbEntity
  8
0
  6
Continuous
 62
     7
370
    15
100
AcDbCircle
 10
96.7697067807
 20
213.3877534046
 30
0.0
 40
0.1183384975398559
100
AcDbArc
 50
329.5344550805
 51
30.4655449195
  0
LINE
  5
2F9
330
1F
100
AcDbEntity
  8
0
  6
Continuous
 62
     7
370
    15
100
AcDbLine
 10
96.8717074047
 20
213.3277534791
 30
0.0
 11
95.7437081288
 21
211.3777539976
 31
0.0
  0
ARC
  5
2FA
330
1F
100
AcDbEntity
  8
0
  6
Continuous
 62
     7
370
    15
100
AcDbCircle
 10
95.8457067807
 20
211.3177534046
 30
0.0
 40
0.118338497539952
100
AcDbArc
 50
149.5344550806
 51
270.0
  0
LINE
  5
2FB
330
1F
100
AcDbEntity
  8
0
  6
Continuous
 62
     7
370
    15
100
AcDbLine
 10
95.8457065772
 20
211.1994150378
 30
0.0
 11
98.101705129
 21
211.2037531384
 31
0.0
  0
ARC
  5
2FC
330
1F
100
AcDbEntity
  8
0
  6
Continuous
 62
     7
370
    15
100
AcDbCircle
 10
98.1017067807
 20
211.0837534046
 30
0.0
 40
0.1200000000000614
100
AcDbArc
 50
30.4655449195
 51
90.0
  0
LINE
  5
2FD
330
1F
100
AcDbEntity
  8
0
  6
Continuous
 62
     7
370
    15
100
AcDbLine
 10
98.2051378142
 20
211.1445955284
 30
0.0
 11
99.3257051359
 21
209.1877526887
 31
0.0
  0
ARC
  5
2FE
330
1F
100
AcDbEntity
  8
0
  6
Continuous
 62
     7
370
    15
100
AcDbCircle
 10
99.4277067807
 20
209.2477534046
 30
0.0
 40
0.1183384975398884
100
AcDbArc
 50
210.4655449195
 51
330.9453959009
  0
LINE
  5
2FF
330
1F
100
AcDbEntity
  8
0
  6
Continuous
 62
     7
370
    15
100
AcDbLine
 10
99.5311548959
 20
209.1902840235
 30
0.0
 11
100.6577050339
 21
211.1437536128
 31
0.0
  0
ARC
  5
300
330
1F
100
AcDbEntity
  8
0
  6
Continuous
 62
     7
370
    15
100
AcDbCircle
 10
100.7597067807
 20
211.0837534046
 30
0.0
 40
0.118338497539952
100
AcDbArc
 50
90.0
 51
149.5344550805
  0
LINE
  5
301
330
1F
100
AcDbEntity
  8
0
  6
Continuous
 62
     7
370
    15
100
AcDbLine
 10
100.7597072076
 20
211.2020916589
 30
0.0
 11
103.0157057594
 21
211.1977535584
 31
0.0
  0
ARC
  5
302
330
1F
100
AcDbEntity
  8
0
  6
Continuous
 62
     7
370
    15
100
AcDbCircle
 10
103.0157067807
 20
211.3177534046
 30
0.0
 40
0.1200000000000249
100
AcDbArc
 50
270.0
 51
30.4655449195
  0
LINE
  5
303
330
1F
100
AcDbEntity
  8
0
  6
Continuous
 62
     7
370
    15
100
AcDbLine
 10
103.1191384445
 20
211.3785959132
 30
0.0
 11
101.9837072145
 21
213.3277534791
 31
0.0
  0
ARC
  5
304
330
1F
100
AcDbEntity
  8
0
  6
Continuous
 62
     7
370
    15
100
AcDbCircle
 10
102.0857067807
 20
213.3877534046
 30
0.0
 40
0.1183384975398437
100
AcDbArc
 50
149.5344550805
 51
210.4655449195
  0
LINE
  5
305
330
1F
100
AcDbEntity
  8
0
  6
Continuous
 62
     7
370
    15
100
AcDbLine
 10
101.9837072145
 20
213.4477525302
 30
0.0
 11
103.1177079331
 21
215.3977538743
 31
0.0
  0
ARC
  5
306
330
1F
100
AcDbEntity
  8
0
  6
Continuous
 62
     7
370
    15
100
AcDbCircle
 10
103.0157067807
 20
215.4577534046
 30
0.0
 40
0.1183384975398951
100
AcDbArc
 50
329.5344550805
 51
90.0
  0
LINE
  5
307
330
1F
100
AcDbEntity
  8
0
  6
Continuous
 62
     7
370
    15
100
AcDbLine
 10
103.0157057594
 20
215.5760909714
 30
0.0
 11
100.7597072076
 21
215.5717528709
 31
0.0
  0
ARC
  5
308
330
1F
100
AcDbEntity
  8
0
  6
Continuous
 62
     7
370
    15
100
AcDbCircle
 10
100.7597067807
 20
215.6917534046
 30
0.0
 40
0.1199999999999738
100
AcDbArc
 50
210.4655449195
 51
270.0
  0
LINE
  5
309
330
1F
100
AcDbEntity
  8
0
  6
Continuous
 62
     7
370
    15
100
AcDbLine
 10
100.6562745224
 20
215.6309104808
 30
0.0
 11
99.5357072006
 21
217.5877533205
 31
0.0
  0
ARC
  5
30A
330
1F
100
AcDbEntity
  8
0
  6
Continuous
 62
     7
370
    15
100
AcDbCircle
 10
99.4337067807
 20
217.5277534046
 30
0.0
 40
0.1183384975398739
100
AcDbArc
 50
30.4655449195
 51
150.9453959009
  0
LINE
  5
30B
330
1F
100
AcDbEntity
  8
0
  6
Continuous
 62
     7
370
    15
100
AcDbLine
 10
99.330261166
 20
217.5852238484
 30
0.0
 11
98.2031075309
 21
215.6305528529
 31
0.0
  0
ARC
  5
30C
330
1F
100
AcDbEntity
  8
0
  6
Continuous
 62
     7
370
    15
100
AcDbCircle
 10
98.0987725389
 20
215.6900688311
 30
0.0
 40
0.1201154444691358
100
AcDbArc
 50
269.9686329474
 51
330.2982491442
  0
LINE
  5
30D
330
1F
100
AcDbEntity
  8
0
  6
Continuous
 62
     7
370
    15
100
AcDbLine
 10
98.0987062703
 20
215.5699535557
 30
0.0
 11
95.8457065772
 21
215.5777543135
 31
0.0
  0
ARC
  5
30E
330
1F
100
AcDbEntity
  8
0
  6
Continuous
 62
     7
370
    15
100
AcDbCircle
 10
95.8457067807
 20
215.4577534046
 30
0.0
 40
0.1199999999999882
100
AcDbArc
 50
90.0
 51
210.4655449195
  0
LINE
  5
30F
330
1F
100
AcDbEntity
  8
0
  6
Continuous
 62
     7
370
    15
100
AcDbLine
 10
95.742273892
 20
215.396910096
 30
0.0
 11
96.8717074047
 21
213.4477525302
 31
0.0
  0
ARC
  5
310
330
1F
100
AcDbEntity
  8
0
  6
Continuous
 62
     7
370
    15
100
AcDbCircle
 10
130.5617067807
 20
270.3337534046
 30
0.0
 40
0.1183384975399741
100
AcDbArc
 50
329.5344550806
 51
30.4655449195
  0
LINE
  5
311
330
1F
100
AcDbEntity
  8
0
  6
Continuous
 62
     7
370
    15
100
AcDbLine
 10
130.6637067373
 20
270.2737517007
 30
0.0
 11
129.5357065301
 21
268.3237559446
 31
0.0
  0
ARC
  5
312
330
1F
100
AcDbEntity
  8
0
  6
Continuous
 62
     7
370
    15
100
AcDbCircle
 10
129.6377067807
 20
268.2637534046
 30
0.0
 40
0.1183384975399251
100
AcDbArc
 50
149.5344550805
 51
270.0
  0
LINE
  5
313
330
1F
100
AcDbEntity
  8
0
  6
Continuous
 62
     7
370
    15
100
AcDbLine
 10
129.6377068411
 20
268.1454113968
 30
0.0
 11
131.8937063243
 21
268.1497550853
 31
0.0
  0
ARC
  5
314
330
1F
100
AcDbEntity
  8
0
  6
Continuous
 62
     7
370
    15
100
AcDbCircle
 10
131.8937067807
 20
268.0297534046
 30
0.0
 40
0.1200000000000509
100
AcDbArc
 50
30.4655449194
 51
90.0
  0
LINE
  5
315
330
1F
100
AcDbEntity
  8
0
  6
Continuous
 62
     7
370
    15
100
AcDbLine
 10
131.9971390094
 20
268.0905974754
 30
0.0
 11
133.1177063312
 21
266.1337546356
 31
0.0
  0
ARC
  5
316
330
1F
100
AcDbEntity
  8
0
  6
Continuous
 62
     7
370
    15
100
AcDbCircle
 10
133.2197067807
 20
266.1937534046
 30
0.0
 40
0.1183384975399784
100
AcDbArc
 50
210.4655449195
 51
330.9453959009
  0
LINE
  5
317
330
1F
100
AcDbEntity
  8
0
  6
Continuous
 62
     7
370
    15
100
AcDbLine
 10
133.3231532972
 20
266.1362803825
 30
0.0
 11
134.4437066491
 21
268.0897555598
 31
0.0
  0
ARC
  5
318
330
1F
100
AcDbEntity
  8
0
  6
Continuous
 62
     7
370
    15
100
AcDbCircle
 10
134.5457067807
 20
268.0297534046
 30
0.0
 40
0.1183384975399338
100
AcDbArc
 50
87.1375947739
 51
149.5344550805
  0
LINE
  5
319
330
1F
100
AcDbEntity
  8
0
  6
Continuous
 62
     7
370
    15
100
AcDbLine
 10
134.5516162019
 20
268.1479445942
 30
0.0
 11
136.8077069547
 21
268.1437499173
 31
0.0
  0
ARC
  5
31A
330
1F
100
AcDbEntity
  8
0
  6
Continuous
 62
     7
370
    15
100
AcDbCircle
 10
136.8077067807
 20
268.2637534046
 30
0.0
 40
0.1200000000000177
100
AcDbArc
 50
270.0
 51
30.4655449194
  0
LINE
  5
31B
330
1F
100
AcDbEntity
  8
0
  6
Continuous
 62
     7
370
    15
100
AcDbLine
 10
136.9111387085
 20
268.3245978602
 30
0.0
 11
135.7757070127
 21
270.2737517007
 31
0.0
  0
ARC
  5
31C
330
1F
100
AcDbEntity
  8
0
  6
Continuous
 62
     7
370
    15
100
AcDbCircle
 10
135.8777067807
 20
270.3337534046
 30
0.0
 40
0.1183384975398314
100
AcDbArc
 50
149.5344550805
 51
210.4655449195
  0
LINE
  5
31D
330
1F
100
AcDbEntity
  8
0
  6
Continuous
 62
     7
370
    15
100
AcDbLine
 10
135.7757070127
 20
270.3937507518
 30
0.0
 11
136.9097068
 21
272.3437539585
 31
0.0
  0
ARC
  5
31E
330
1F
100
AcDbEntity
  8
0
  6
Continuous
 62
     7
370
    15
100
AcDbCircle
 10
136.8077067807
 20
272.4037534046
 30
0.0
 40
0.1183384975399235
100
AcDbArc
 50
329.5344550806
 51
90.0
  0
LINE
  5
31F
330
1F
100
AcDbEntity
  8
0
  6
Continuous
 62
     7
370
    15
100
AcDbLine
 10
136.8077069547
 20
272.5220910557
 30
0.0
 11
134.5517070058
 21
272.5177548178
 31
0.0
  0
ARC
  5
320
330
1F
100
AcDbEntity
  8
0
  6
Continuous
 62
     7
370
    15
100
AcDbCircle
 10
134.5517067807
 20
272.6377534046
 30
0.0
 40
0.1200000000001182
100
AcDbArc
 50
209.0546040991
 51
270.0
  0
LINE
  5
321
330
1F
100
AcDbEntity
  8
0
  6
Continuous
 62
     7
370
    15
100
AcDbLine
 10
134.4468079533
 20
272.5794754275
 30
0.0
 11
133.3277065332
 21
274.5337552675
 31
0.0
  0
ARC
  5
322
330
1F
100
AcDbEntity
  8
0
  6
Continuous
 62
     7
370
    15
100
AcDbCircle
 10
133.2257067807
 20
274.4737534046
 30
0.0
 40
0.118338497539933
100
AcDbArc
 50
30.4655449195
 51
150.9453959009
  0
LINE
  5
323
330
1F
100
AcDbEntity
  8
0
  6
Continuous
 62
     7
370
    15
100
AcDbLine
 10
133.1222604986
 20
274.5312220701
 30
0.0
 11
131.9951068636
 21
272.5765547999
 31
0.0
  0
ARC
  5
324
330
1F
100
AcDbEntity
  8
0
  6
Continuous
 62
     7
370
    15
100
AcDbCircle
 10
131.8907725389
 20
272.6360688311
 30
0.0
 40
0.1201154444691174
100
AcDbArc
 50
269.9686329475
 51
330.2982491442
  0
LINE
  5
325
330
1F
100
AcDbEntity
  8
0
  6
Continuous
 62
     7
370
    15
100
AcDbLine
 10
131.8907065343
 20
272.5159517773
 30
0.0
 11
129.6377068411
 21
272.5237525352
 31
0.0
  0
ARC
  5
326
330
1F
100
AcDbEntity
  8
0
  6
Continuous
 62
     7
370
    15
100
AcDbCircle
 10
129.6377067807
 20
272.4037534046
 30
0.0
 40
0.1200000000000955
100
AcDbArc
 50
90.0
 51
210.4655449194
  0
LINE
  5
327
330
1F
100
AcDbEntity
  8
0
  6
Continuous
 62
     7
370
    15
100
AcDbLine
 10
129.5342750873
 20
272.3429120429
 30
0.0
 11
130.6637067373
 21
270.3937507518
 31
0.0
  0
ARC
  5
328
330
1F
100
AcDbEntity
  8
0
  6
Continuous
 62
     7
370
    15
100
AcDbCircle
 10
164.8397067807
 20
293.9797534046
 30
0.0
 40
0.1183384975400678
100
AcDbArc
 50
329.5344550806
 51
30.4655449194
  0
LINE
  5
329
330
1F
100
AcDbEntity
  8
0
  6
Continuous
 62
     7
370
    15
100
AcDbLine
 10
164.9417074423
 20
293.9197561987
 30
0.0
 11
163.8077067237
 21
291.969752992
 31
0.0
  0
ARC
  5
32A
330
1F
100
AcDbEntity
  8
0
  6
Continuous
 62
     7
370
    15
100
AcDbCircle
 10
163.9097067807
 20
291.9097534046
 30
0.0
 40
0.1183384975399804
100
AcDbArc
 50
149.5344550805
 51
270.0
  0
LINE
  5
32B
330
1F
100
AcDbEntity
  8
0
  6
Continuous
 62
     7
370
    15
100
AcDbLine
 10
163.9097070347
 20
291.7914158948
 30
0.0
 11
166.1657074492
 21
291.7957521327
 31
0.0
  0
ARC
  5
32C
330
1F
100
AcDbEntity
  8
0
  6
Continuous
 62
     7
370
    15
100
AcDbCircle
 10
166.1657067807
 20
291.6757534046
 30
0.0
 40
0.120000000000022
100
AcDbArc
 50
30.4655449194
 51
90.0
  0
LINE
  5
32D
330
1F
100
AcDbEntity
  8
0
  6
Continuous
 62
     7
370
    15
100
AcDbLine
 10
166.2691382717
 20
291.7365945228
 30
0.0
 11
167.3897074561
 21
289.7797516831
 31
0.0
  0
ARC
  5
32E
330
1F
100
AcDbEntity
  8
0
  6
Continuous
 62
     7
370
    15
100
AcDbCircle
 10
167.4917067807
 20
289.8397534046
 30
0.0
 40
0.1183384975399606
100
AcDbArc
 50
210.4655449195
 51
330.9453959009
  0
LINE
  5
32F
330
1F
100
AcDbEntity
  8
0
  6
Continuous
 62
     7
370
    15
100
AcDbLine
 10
167.5951534908
 20
289.7822848805
 30
0.0
 11
168.7217073541
 21
291.7357526072
 31
0.0
  0
ARC
  5
330
330
1F
100
AcDbEntity
  8
0
  6
Continuous
 62
     7
370
    15
100
AcDbCircle
 10
168.8237067807
 20
291.6757534046
 30
0.0
 40
0.1183384975399804
100
AcDbArc
 50
90.0
 51
149.5344550806
  0
LINE
  5
331
330
1F
100
AcDbEntity
  8
0
  6
Continuous
 62
     7
370
    15
100
AcDbLine
 10
168.8237076651
 20
291.7940906533
 30
0.0
 11
171.0797062169
 21
291.7897544153
 31
0.0
  0
ARC
  5
332
330
1F
100
AcDbEntity
  8
0
  6
Continuous
 62
     7
370
    15
100
AcDbCircle
 10
171.0797067807
 20
291.9097534046
 30
0.0
 40
0.1199999999999477
100
AcDbArc
 50
270.0
 51
30.4655449195
  0
LINE
  5
333
330
1F
100
AcDbEntity
  8
0
  6
Continuous
 62
     7
370
    15
100
AcDbLine
 10
171.1831389021
 20
291.9705949076
 30
0.0
 11
170.047707672
 21
293.9197561987
 31
0.0
  0
ARC
  5
334
330
1F
100
AcDbEntity
  8
0
  6
Continuous
 62
     7
370
    15
100
AcDbCircle
 10
170.1497067807
 20
293.9797534046
 30
0.0
 40
0.1183384975398559
100
AcDbArc
 50
149.5344550805
 51
210.4655449195
  0
LINE
  5
335
330
1F
100
AcDbEntity
  8
0
  6
Continuous
 62
     7
370
    15
100
AcDbLine
 10
170.047707672
 20
294.0397552498
 30
0.0
 11
171.1817065279
 21
295.989751006
 31
0.0
  0
ARC
  5
336
330
1F
100
AcDbEntity
  8
0
  6
Continuous
 62
     7
370
    15
100
AcDbCircle
 10
171.0797067807
 20
296.0497534046
 30
0.0
 40
0.1183384975398761
100
AcDbArc
 50
329.5344550805
 51
90.0
  0
LINE
  5
337
330
1F
100
AcDbEntity
  8
0
  6
Continuous
 62
     7
370
    15
100
AcDbLine
 10
171.0797062169
 20
296.1680955537
 30
0.0
 11
168.8237076651
 21
296.1637518652
 31
0.0
  0
ARC
  5
338
330
1F
100
AcDbEntity
  8
0
  6
Continuous
 62
     7
370
    15
100
AcDbCircle
 10
168.8237067807
 20
296.2837534046
 30
0.0
 40
0.1200000000000595
100
AcDbArc
 50
210.4655449195
 51
270.0
  0
LINE
  5
339
330
1F
100
AcDbEntity
  8
0
  6
Continuous
 62
     7
370
    15
100
AcDbLine
 10
168.7202749799
 20
296.2229094752
 30
0.0
 11
167.5997076582
 21
298.1797523149
 31
0.0
  0
ARC
  5
33A
330
1F
100
AcDbEntity
  8
0
  6
Continuous
 62
     7
370
    15
100
AcDbCircle
 10
167.4977067807
 20
298.1197534046
 30
0.0
 40
0.118338497540013
100
AcDbArc
 50
30.4655449195
 51
150.9453959009
  0
LINE
  5
33B
330
1F
100
AcDbEntity
  8
0
  6
Continuous
 62
     7
370
    15
100
AcDbLine
 10
167.3942597608
 20
298.1772265681
 30
0.0
 11
166.2671061258
 21
296.2225518473
 31
0.0
  0
ARC
  5
33C
330
1F
100
AcDbEntity
  8
0
  6
Continuous
 62
     7
370
    15
100
AcDbCircle
 10
166.1627725389
 20
296.2820688311
 30
0.0
 40
0.1201154444691174
100
AcDbArc
 50
269.9686329475
 51
330.2982491442
  0
LINE
  5
33D
330
1F
100
AcDbEntity
  8
0
  6
Continuous
 62
     7
370
    15
100
AcDbLine
 10
166.1627067279
 20
296.1619562753
 30
0.0
 11
163.9097070347
 21
296.1697570332
 31
0.0
  0
ARC
  5
33E
330
1F
100
AcDbEntity
  8
0
  6
Continuous
 62
     7
370
    15
100
AcDbCircle
 10
163.9097067807
 20
296.0497534046
 30
0.0
 40
0.1200000000000614
100
AcDbArc
 50
90.0
 51
210.4655449194
  0
LINE
  5
33F
330
1F
100
AcDbEntity
  8
0
  6
Continuous
 62
     7
370
    15
100
AcDbLine
 10
163.8062743496
 20
295.9889090904
 30
0.0
 11
164.9417074423
 21
294.0397552498
 31
0.0
  0
ARC
  5
340
330
1F
100
AcDbEntity
  8
0
  6
Continuous
 62
     7
370
    15
100
AcDbCircle
 10
20.4977067807
 20
282.8797534046
 30
0.0
 40
0.1183384975398559
100
AcDbArc
 50
329.5344550805
 51
30.4655449195
  0
LINE
  5
341
330
1F
100
AcDbEntity
  8
0
  6
Continuous
 62
     7
370
    15
100
AcDbLine
 10
20.5997077774
 20
282.8197545656
 30
0.0
 11
19.4717047762
 21
280.8697513588
 31
0.0
  0
ARC
  5
342
330
1F
100
AcDbEntity
  8
0
  6
Continuous
 62
     7
370
    15
100
AcDbCircle
 10
19.5737067807
 20
280.8097534046
 30
0.0
 40
0.1183384975399618
100
AcDbArc
 50
149.5344550806
 51
270.0
  0
LINE
  5
343
330
1F
100
AcDbEntity
  8
0
  6
Continuous
 62
     7
370
    15
100
AcDbLine
 10
19.5737032245
 20
280.6914142617
 30
0.0
 11
21.829709227
 21
280.6957504996
 31
0.0
  0
ARC
  5
344
330
1F
100
AcDbEntity
  8
0
  6
Continuous
 62
     7
370
    15
100
AcDbCircle
 10
21.8297067807
 20
280.5757534046
 30
0.0
 40
0.1200000000000761
100
AcDbArc
 50
30.4655449195
 51
90.0
  0
LINE
  5
345
330
1F
100
AcDbEntity
  8
0
  6
Continuous
 62
     7
370
    15
100
AcDbLine
 10
21.9331381868
 20
280.6365928896
 30
0.0
 11
23.0537055086
 21
278.6797500499
 31
0.0
  0
ARC
  5
346
330
1F
100
AcDbEntity
  8
0
  6
Continuous
 62
     7
370
    15
100
AcDbCircle
 10
23.1557067807
 20
278.7397534046
 30
0.0
 40
0.118338497539865
100
AcDbArc
 50
210.4655449194
 51
330.9453959009
  0
LINE
  5
347
330
1F
100
AcDbEntity
  8
0
  6
Continuous
 62
     7
370
    15
100
AcDbLine
 10
23.2591552685
 20
278.6822832473
 30
0.0
 11
24.3797076892
 21
280.635750974
 31
0.0
  0
ARC
  5
348
330
1F
100
AcDbEntity
  8
0
  6
Continuous
 62
     7
370
    15
100
AcDbCircle
 10
24.4817067807
 20
280.5757534046
 30
0.0
 40
0.1183384975399858
100
AcDbArc
 50
87.1375947739
 51
149.5344550805
  0
LINE
  5
349
330
1F
100
AcDbEntity
  8
0
  6
Continuous
 62
     7
370
    15
100
AcDbLine
 10
24.4876144479
 20
280.6939474591
 30
0.0
 11
26.7437098573
 21
280.6897527822
 31
0.0
  0
ARC
  5
34A
330
1F
100
AcDbEntity
  8
0
  6
Continuous
 62
     7
370
    15
100
AcDbCircle
 10
26.7437067807
 20
280.8097534046
 30
0.0
 40
0.1200000000000614
100
AcDbArc
 50
270.0
 51
30.4655449195
  0
LINE
  5
34B
330
1F
100
AcDbEntity
  8
0
  6
Continuous
 62
     7
370
    15
100
AcDbLine
 10
26.8471388172
 20
280.8705932744
 30
0.0
 11
25.7117075871
 21
282.8197545656
 31
0.0
  0
ARC
  5
34C
330
1F
100
AcDbEntity
  8
0
  6
Continuous
 62
     7
370
    15
100
AcDbCircle
 10
25.8137067807
 20
282.8797534046
 30
0.0
 40
0.1183384975399256
100
AcDbArc
 50
149.5344550806
 51
210.4655449195
  0
LINE
  5
34D
330
1F
100
AcDbEntity
  8
0
  6
Continuous
 62
     7
370
    15
100
AcDbLine
 10
25.7117075871
 20
282.9397536166
 30
0.0
 11
26.8457083057
 21
284.8897568234
 31
0.0
  0
ARC
  5
34E
330
1F
100
AcDbEntity
  8
0
  6
Continuous
 62
     7
370
    15
100
AcDbCircle
 10
26.7437067807
 20
284.9497534046
 30
0.0
 40
0.1183384975399804
100
AcDbArc
 50
329.5344550805
 51
90.0
  0
LINE
  5
34F
330
1F
100
AcDbEntity
  8
0
  6
Continuous
 62
     7
370
    15
100
AcDbLine
 10
26.7437098573
 20
285.0680939205
 30
0.0
 11
24.4877038549
 21
285.0637502321
 31
0.0
  0
ARC
  5
350
330
1F
100
AcDbEntity
  8
0
  6
Continuous
 62
     7
370
    15
100
AcDbCircle
 10
24.4877067807
 20
285.1837534046
 30
0.0
 40
0.1200000000000392
100
AcDbArc
 50
209.0546040991
 51
270.0
  0
LINE
  5
351
330
1F
100
AcDbEntity
  8
0
  6
Continuous
 62
     7
370
    15
100
AcDbLine
 10
24.3828071307
 20
285.1254782923
 30
0.0
 11
23.2637075733
 21
287.0797506817
 31
0.0
  0
ARC
  5
352
330
1F
100
AcDbEntity
  8
0
  6
Continuous
 62
     7
370
    15
100
AcDbCircle
 10
23.1617067807
 20
287.0197534046
 30
0.0
 40
0.1183384975398595
100
AcDbArc
 50
30.4655449194
 51
150.945395901
  0
LINE
  5
353
330
1F
100
AcDbEntity
  8
0
  6
Continuous
 62
     7
370
    15
100
AcDbLine
 10
23.0582578133
 20
287.0772249349
 30
0.0
 11
21.9311041783
 21
285.1225502141
 31
0.0
  0
ARC
  5
354
330
1F
100
AcDbEntity
  8
0
  6
Continuous
 62
     7
370
    15
100
AcDbCircle
 10
21.8267725389
 20
285.1820688311
 30
0.0
 40
0.1201154444691733
100
AcDbArc
 50
269.9686329475
 51
330.2982491442
  0
LINE
  5
355
330
1F
100
AcDbEntity
  8
0
  6
Continuous
 62
     7
370
    15
100
AcDbLine
 10
21.826706643
 20
285.0619546421
 30
0.0
 11
19.5737032245
 21
285.0697554
 31
0.0
  0
ARC
  5
356
330
1F
100
AcDbEntity
  8
0
  6
Continuous
 62
     7
370
    15
100
AcDbCircle
 10
19.5737067807
 20
284.9497534046
 30
0.0
 40
0.1200000000000356
100
AcDbArc
 50
90.0
 51
210.4655449194
  0
LINE
  5
357
330
1F
100
AcDbEntity
  8
0
  6
Continuous
 62
     7
370
    15
100
AcDbLine
 10
19.4702742647
 20
284.8889074572
 30
0.0
 11
20.5997077774
 21
282.9397536166
 31
0.0
  0
ARC
  5
358
330
1F
100
AcDbEntity
  8
0
  6
Continuous
 62
     7
370
    15
100
AcDbCircle
 10
166.8227067807
 20
273.8935403224
 30
0.0
 40
1.257941937246815
100
AcDbArc
 50
34.1529189659
 51
145.8470810341
  0
LINE
  5
359
330
1F
100
AcDbEntity
  8
0
  6
Continuous
 62
     7
370
    15
100
AcDbLine
 10
165.7817063879
 20
274.5997525104
 30
0.0
 11
160.6919148962
 21
265.7327867397
 31
0.0
  0
ARC
  5
35A
330
1F
100
AcDbEntity
  8
0
  6
Continuous
 62
     7
370
    15
100
AcDbCircle
 10
160.1717067807
 20
266.0317534046
 30
0.0
 40
0.6000000000000467
100
AcDbArc
 50
270.0
 51
330.1134730596
  0
LINE
  5
35B
330
1F
100
AcDbEntity
  8
0
  6
Continuous
 62
     7
370
    15
100
AcDbLine
 10
160.1717060457
 20
265.4317534812
 30
0.0
 11
148.9036751937
 21
265.4585979231
 31
0.0
  0
ARC
  5
35C
330
1F
100
AcDbEntity
  8
0
  6
Continuous
 62
     7
370
    15
100
AcDbCircle
 10
148.8977067807
 20
264.8617534046
 30
0.0
 40
0.5968718455415241
100
AcDbArc
 50
89.4270613023
 51
210.1735200296
  0
LINE
  5
35D
330
1F
100
AcDbEntity
  8
0
  6
Continuous
 62
     7
370
    15
100
AcDbLine
 10
148.3817066092
 20
264.5617566355
 30
0.0
 11
154.0457064311
 21
254.8177532204
 31
0.0
  0
ARC
  5
35E
330
1F
100
AcDbEntity
  8
0
  6
Continuous
 62
     7
370
    15
100
AcDbCircle
 10
153.5297067807
 20
254.5177534046
 30
0.0
 40
0.5968718455414812
100
AcDbArc
 50
329.8264799704
 51
30.1735200296
  0
LINE
  5
35F
330
1F
100
AcDbEntity
  8
0
  6
Continuous
 62
     7
370
    15
100
AcDbLine
 10
154.0457064311
 20
254.2177505143
 30
0.0
 11
148.3834984738
 21
244.4727226444
 31
0.0
  0
ARC
  5
360
330
1F
100
AcDbEntity
  8
0
  6
Continuous
 62
     7
370
    15
100
AcDbCircle
 10
148.9037067807
 20
244.1737534046
 30
0.0
 40
0.6000000000000042
100
AcDbArc
 50
150.1134730596
 51
270.0
  0
LINE
  5
361
330
1F
100
AcDbEntity
  8
0
  6
Continuous
 62
     7
370
    15
100
AcDbLine
 10
148.9037068586
 20
243.573754216
 30
0.0
 11
160.1717060457
 21
243.6058215149
 31
0.0
  0
ARC
  5
362
330
1F
100
AcDbEntity
  8
0
  6
Continuous
 62
     7
370
    15
100
AcDbCircle
 10
160.1717067807
 20
243.0037534046
 30
0.0
 40
0.6020664415162571
100
AcDbArc
 50
29.8865269404
 51
90.0
  0
LINE
  5
363
330
1F
100
AcDbEntity
  8
0
  6
Continuous
 62
     7
370
    15
100
AcDbLine
 10
160.6937067609
 20
243.3037526258
 30
0.0
 11
166.297707523
 21
233.5237517305
 31
0.0
  0
ARC
  5
364
330
1F
100
AcDbEntity
  8
0
  6
Continuous
 62
     7
370
    15
100
AcDbCircle
 10
166.8197067807
 20
233.8237534046
 30
0.0
 40
0.6020664415162107
100
AcDbArc
 50
209.8865269404
 51
330.1134730596
  0
LINE
  5
365
330
1F
100
AcDbEntity
  8
0
  6
Continuous
 62
     7
370
    15
100
AcDbLine
 10
167.3417070906
 20
233.5237517305
 30
0.0
 11
172.9474978547
 21
243.3027244457
 31
0.0
  0
ARC
  5
366
330
1F
100
AcDbEntity
  8
0
  6
Continuous
 62
     7
370
    15
100
AcDbCircle
 10
173.4677067807
 20
243.0037534046
 30
0.0
 40
0.6000000000000394
100
AcDbArc
 50
90.0
 51
150.1134730596
  0
LINE
  5
367
330
1F
100
AcDbEntity
  8
0
  6
Continuous
 62
     7
370
    15
100
AcDbLine
 10
173.4677067052
 20
243.6037539788
 30
0.0
 11
184.7417054723
 21
243.5768797346
 31
0.0
  0
ARC
  5
368
330
1F
100
AcDbEntity
  8
0
  6
Continuous
 62
     7
370
    15
100
AcDbCircle
 10
184.7417067807
 20
244.1737534046
 30
0.0
 40
0.5968718455414717
100
AcDbArc
 50
270.0
 51
30.1735200296
  0
LINE
  5
369
330
1F
100
AcDbEntity
  8
0
  6
Continuous
 62
     7
370
    15
100
AcDbLine
 10
185.2577066075
 20
244.4737545498
 30
0.0
 11
179.5937081824
 21
254.2177505143
 31
0.0
  0
ARC
  5
36A
330
1F
100
AcDbEntity
  8
0
  6
Continuous
 62
     7
370
    15
100
AcDbCircle
 10
180.1097067807
 20
254.5177534046
 30
0.0
 40
0.596871845541367
100
AcDbArc
 50
149.8264799704
 51
210.1735200297
  0
LINE
  5
36B
330
1F
100
AcDbEntity
  8
0
  6
Continuous
 62
     7
370
    15
100
AcDbLine
 10
179.5937081824
 20
254.8177532204
 30
0.0
 11
185.2604111682
 21
264.560184563
 31
0.0
  0
ARC
  5
36C
330
1F
100
AcDbEntity
  8
0
  6
Continuous
 62
     7
370
    15
100
AcDbCircle
 10
184.7417067807
 20
264.8617534046
 30
0.0
 40
0.6000000000000227
100
AcDbArc
 50
329.8264799704
 51
90.0
  0
LINE
  5
36D
330
1F
100
AcDbEntity
  8
0
  6
Continuous
 62
     7
370
    15
100
AcDbLine
 10
184.7417054723
 20
265.4617569693
 30
0.0
 11
173.4677067052
 21
265.4296896704
 31
0.0
  0
ARC
  5
36E
330
1F
100
AcDbEntity
  8
0
  6
Continuous
 62
     7
370
    15
100
AcDbCircle
 10
173.4677067807
 20
266.0317534046
 30
0.0
 40
0.6020664415162925
100
AcDbArc
 50
209.8865269404
 51
270.0
  0
LINE
  5
36F
330
1F
100
AcDbEntity
  8
0
  6
Continuous
 62
     7
370
    15
100
AcDbLine
 10
172.9457059901
 20
265.731751109
 30
0.0
 11
167.8637059431
 21
274.5997525104
 31
0.0
  0
CIRCLE
  5
370
330
1F
100
AcDbEntity
  8
0
  6
Continuous
 62
     7
370
    15
100
AcDbCircle
 10
119.1012326103
 20
28.5228459967
 30
0.0
 40
1.0
  0
CIRCLE
  5
371
330
1F
100
AcDbEntity
  8
0
  6
Continuous
 62
     7
370
    15
100
AcDbCircle
 10
224.6657067807
 20
231.5497534046
 30
0.0
 40
1.0
  0
CIRCLE
  5
372
330
1F
100
AcDbEntity
  8
0
  6
Continuous
 62
     7
370
    15
100
AcDbCircle
 10
186.0737067807
 20
117.4657534046
 30
0.0
 40
1.0
  0
CIRCLE
  5
373
330
1F
100
AcDbEntity
  8
0
  6
Continuous
 62
     7
370
    15
100
AcDbCircle
 10
29.9073996653
 20
175.3973596222
 30
0.0
 40
1.0
  0
CIRCLE
  5
374
330
1F
100
AcDbEntity
  8
0
  6
Continuous
 62
     7
370
    15
100
AcDbCircle
 10
13.5343751615
 20
231.550639333
 30
0.0
 40
1.000000000000002
  0
LINE
  5
375
330
1F
100
AcDbEntity
  8
0
  6
Continuous
 62
     7
370
    15
100
AcDbLine
 10
139.7237068068
 20
328.4677482494
 30
0.0
 11
123.5987076561
 21
328.4677482494
 31
0.0
  0
LINE
  5
376
330
1F
100
AcDbEntity
  8
0
  6
Continuous
 62
     7
370
    15
100
AcDbLine
 10
139.7237068068
 20
325.4677570709
 30
0.0
 11
139.7237068068
 21
328.4677482494
 31
0.0
  0
LINE
  5
377
330
1F
100
AcDbEntity
  8
0
  6
Continuous
 62
     7
370
    15
100
AcDbLine
 10
143.4731068348
 20
325.4677570709
 30
0.0
 11
139.7237068068
 21
325.4677570709
 31
0.0
  0
LINE
  5
378
330
1F
100
AcDbEntity
  8
0
  6
Continuous
 62
     7
370
    15
100
AcDbLine
 10
142.0277067864
 20
309.8377502807
 30
0.0
 11
143.4731068348
 21
325.4677570709
 31
0.0
  0
ARC
  5
379
330
1F
100
AcDbEntity
  8
0
  6
Continuous
 62
     7
370
    15
100
AcDbCircle
 10
145.7598800389
 20
309.4916164804
 30
0.0
 40
3.74818996316889
100
AcDbArc
 50
174.701313882
 51
275.9697856743
  0
ARC
  5
37A
330
1F
100
AcDbEntity
  8
0
  6
Continuous
 62
     7
370
    15
100
AcDbCircle
 10
162.6737067806
 20
130.4797534046
 30
0.0
 40
176.0611349276155
100
AcDbArc
 50
62.5887651268
 51
95.385350492
  0
ARC
  5
37B
330
1F
100
AcDbEntity
  8
0
  6
Continuous
 62
     7
370
    15
100
AcDbCircle
 10
241.8735601182
 20
283.5156993412
 30
0.0
 40
3.748583732558225
100
AcDbArc
 50
290.2363100568
 51
60.3558826269
  0
ARC
  5
37C
330
1F
100
AcDbEntity
  8
0
  6
Continuous
 62
     7
370
    15
100
AcDbCircle
 10
282.1736982576
 20
174.4755875525
 30
0.0
 40
112.5004911989275
100
AcDbArc
 50
110.2853926015
 51
137.1576602931
  0
ARC
  5
37D
330
1F
100
AcDbEntity
  8
0
  6
Continuous
 62
     7
370
    15
100
AcDbCircle
 10
202.4315524422
 20
248.422232719
 30
0.0
 40
3.748867028850258
100
AcDbArc
 50
137.1024944145
 51
263.4504535245
  0
ARC
  5
37E
330
1F
100
AcDbEntity
  8
0
  6
Continuous
 62
     7
370
    15
100
AcDbCircle
 10
196.2197794204
 20
194.8431553947
 30
0.0
 40
50.18909658481616
100
AcDbArc
 50
52.2250250183
 51
83.3820987709
  0
ARC
  5
37F
330
1F
100
AcDbEntity
  8
0
  6
Continuous
 62
     7
370
    15
100
AcDbCircle
 10
224.6657067807
 20
231.5497534046
 30
0.0
 40
3.750479969288115
100
AcDbArc
 50
290.4058881479
 51
52.2134480979
  0
ARC
  5
380
330
1F
100
AcDbEntity
  8
0
  6
Continuous
 62
     7
370
    15
100
AcDbCircle
 10
252.7104218416
 20
156.1370176838
 30
0.0
 40
76.70812277718726
100
AcDbArc
 50
110.3989910549
 51
150.508572011
  0
ARC
  5
381
330
1F
100
AcDbEntity
  8
0
  6
Continuous
 62
     7
370
    15
100
AcDbCircle
 10
189.2053561259
 20
192.0518032385
 30
0.0
 40
3.750839905941126
100
AcDbArc
 50
150.4805072946
 51
261.9141876131
  0
ARC
  5
382
330
1F
100
AcDbEntity
  8
0
  6
Continuous
 62
     7
370
    15
100
AcDbCircle
 10
182.7356011525
 20
146.2177126694
 30
0.0
 40
42.53762235952186
100
AcDbArc
 50
48.7838469588
 51
81.9699610205
  0
ARC
  5
383
330
1F
100
AcDbEntity
  8
0
  6
Continuous
 62
     7
370
    15
100
AcDbCircle
 10
208.2917067807
 20
175.3957534046
 30
0.0
 40
3.750091198891066
100
AcDbArc
 50
290.6096929375
 51
48.7623327236
  0
ARC
  5
384
330
1F
100
AcDbEntity
  8
0
  6
Continuous
 62
     7
370
    15
100
AcDbCircle
 10
239.7556435136
 20
91.6176322274
 30
0.0
 40
85.74154512253689
100
AcDbArc
 50
110.5831947026
 51
152.4307150195
  0
ARC
  5
385
330
1F
100
AcDbEntity
  8
0
  6
Continuous
 62
     7
370
    15
100
AcDbCircle
 10
167.0723386556
 20
129.5636301706
 30
0.0
 40
3.749097491397154
100
AcDbArc
 50
152.3993337926
 51
272.3751017016
  0
ARC
  5
386
330
1F
100
AcDbEntity
  8
0
  6
Continuous
 62
     7
370
    15
100
AcDbCircle
 10
168.7842614081
 20
87.5256131969
 30
0.0
 40
38.32376369825913
100
AcDbArc
 50
59.9903950571
 51
92.3277606577
  0
ARC
  5
387
330
1F
100
AcDbEntity
  8
0
  6
Continuous
 62
     7
370
    15
100
AcDbCircle
 10
186.0737067807
 20
117.4657534046
 30
0.0
 40
3.750119998080131
100
AcDbArc
 50
306.0273733851
 51
59.9481190519
  0
ARC
  5
388
330
1F
100
AcDbEntity
  8
0
  6
Continuous
 62
     7
370
    15
100
AcDbCircle
 10
313.108467776
 20
-47.8812229915
 30
0.0
 40
204.7636786639662
100
AcDbArc
 50
127.5623890578
 51
158.5411488141
  0
ARC
  5
389
330
1F
100
AcDbEntity
  8
0
  6
Continuous
 62
     7
370
    15
100
AcDbCircle
 10
119.1012326103
 20
28.5228459967
 30
0.0
 40
3.748583732558264
100
AcDbArc
 50
203.4693038818
 51
336.4995057024
  0
ARC
  5
38A
330
1F
100
AcDbEntity
  8
0
  6
Continuous
 62
     7
370
    15
100
AcDbCircle
 10
-74.9000300538
 20
-47.8942316828
 30
0.0
 40
204.7628076873336
100
AcDbArc
 50
21.4634209163
 51
52.470283586
  0
ARC
  5
38B
330
1F
100
AcDbEntity
  8
0
  6
Continuous
 62
     7
370
    15
100
AcDbCircle
 10
52.1200299611
 20
117.4640124128
 30
0.0
 40
3.749648863541771
100
AcDbArc
 50
120.0229179972
 51
232.4714587168
  0
ARC
  5
38C
330
1F
100
AcDbEntity
  8
0
  6
Continuous
 62
     7
370
    15
100
AcDbCircle
 10
69.4157067807
 20
87.5317534046
 30
0.0
 40
38.31958617574048
100
AcDbArc
 50
87.4971197959
 51
120.0207323198
  0
ARC
  5
38D
330
1F
100
AcDbEntity
  8
0
  6
Continuous
 62
     7
370
    15
100
AcDbCircle
 10
-1.5588848562
 20
91.6262293346
 30
0.0
 40
85.73591830732319
100
AcDbArc
 50
27.5639861392
 51
69.4106219674
  0
ARC
  5
38E
330
1F
100
AcDbEntity
  8
0
  6
Continuous
 62
     7
370
    15
100
AcDbCircle
 10
29.9073996653
 20
175.3973596222
 30
0.0
 40
3.750000000017559
100
AcDbArc
 50
131.2732947289
 51
249.460541819
  0
ARC
  5
38F
330
1F
100
AcDbEntity
  8
0
  6
Continuous
 62
     7
370
    15
100
AcDbCircle
 10
55.4657067807
 20
146.2237534046
 30
0.0
 40
42.53564491106251
100
AcDbArc
 50
98.0363698163
 51
131.2254604638
  0
ARC
  5
390
330
1F
100
AcDbEntity
  8
0
  6
Continuous
 62
     7
370
    15
100
AcDbCircle
 10
48.995610392
 20
192.055461026
 30
0.0
 40
3.75050396613583
100
AcDbArc
 50
278.0242673007
 51
29.4524503177
  0
ARC
  5
391
330
1F
100
AcDbEntity
  8
0
  6
Continuous
 62
     7
370
    15
100
AcDbCircle
 10
-14.5067819365
 20
156.1359351001
 30
0.0
 40
76.70779308518902
100
AcDbArc
 50
29.4922149461
 51
69.6056500187
  0
ARC
  5
392
330
1F
100
AcDbEntity
  8
0
  6
Continuous
 62
     7
370
    15
100
AcDbCircle
 10
13.5343751615
 20
231.550639333
 30
0.0
 40
3.75141573276017
100
AcDbArc
 50
127.8270507775
 51
249.5606270696
  0
ARC
  5
393
330
1F
100
AcDbEntity
  8
0
  6
Continuous
 62
     7
370
    15
100
AcDbCircle
 10
41.9777067807
 20
194.8477534046
 30
0.0
 40
50.18550679230014
100
AcDbArc
 50
96.6185888216
 51
127.7782561485
  0
ARC
  5
394
330
1F
100
AcDbEntity
  8
0
  6
Continuous
 62
     7
370
    15
100
AcDbCircle
 10
35.7591271079
 20
248.4245362031
 30
0.0
 40
3.750959877151474
100
AcDbArc
 50
276.6477029309
 51
42.8017424554
  0
ARC
  5
395
330
1F
100
AcDbEntity
  8
0
  6
Continuous
 62
     7
370
    15
100
AcDbCircle
 10
-43.9813493317
 20
174.4781267814
 30
0.0
 40
112.5012006335935
100
AcDbArc
 50
42.8396379328
 51
69.711740269
  0
ARC
  5
396
330
1F
100
AcDbEntity
  8
0
  6
Continuous
 62
     7
370
    15
100
AcDbCircle
 10
-3.6693818892
 20
283.5154157982
 30
0.0
 40
3.74932793977805
100
AcDbArc
 50
119.6520589169
 51
249.6651961834
  0
ARC
  5
397
330
1F
100
AcDbEntity
  8
0
  6
Continuous
 62
     7
370
    15
100
AcDbCircle
 10
75.5297067807
 20
130.4797534046
 30
0.0
 40
176.0612545451155
100
AcDbArc
 50
84.6165934824
 51
117.4112348732
  0
ARC
  5
398
330
1F
100
AcDbEntity
  8
0
  6
Continuous
 62
     7
370
    15
100
AcDbCircle
 10
92.4376433438
 20
309.4964463523
 30
0.0
 40
3.752322480811177
100
AcDbArc
 50
264.0361100637
 51
5.2253284473
  0
LINE
  5
399
330
1F
100
AcDbEntity
  8
0
  6
Continuous
 62
     7
370
    15
100
AcDbLine
 10
94.7237050186
 20
325.4677570709
 30
0.0
 11
96.1743703138
 21
309.8381824144
 31
0.0
  0
LINE
  5
39A
330
1F
100
AcDbEntity
  8
0
  6
Continuous
 62
     7
370
    15
100
AcDbLine
 10
98.4737051676
 20
325.4677570709
 30
0.0
 11
94.7237050186
 21
325.4677570709
 31
0.0
  0
LINE
  5
39B
330
1F
100
AcDbEntity
  8
0
  6
Continuous
 62
     7
370
    15
100
AcDbLine
 10
98.4737051676
 20
328.4677482494
 30
0.0
 11
98.4737051676
 21
325.4677570709
 31
0.0
  0
LINE
  5
39C
330
1F
100
AcDbEntity
  8
0
  6
Continuous
 62
     7
370
    15
100
AcDbLine
 10
114.5987061809
 20
328.4677482494
 30
0.0
 11
98.4737051676
 21
328.4677482494
 31
0.0
  0
ARC
  5
39D
330
1F
100
AcDbEntity
  8
0
  6
Continuous
 62
     7
370
    15
100
AcDbCircle
 10
114.5987067807
 20
325.4677534046
 30
0.0
 40
3.0
100
AcDbArc
 50
0.0
 51
90.0
  0
LINE
  5
39E
330
1F
100
AcDbEntity
  8
0
  6
Continuous
 62
     7
370
    15
100
AcDbLine
 10
117.5987066727
 20
176.2573506035
 30
0.0
 11
117.5987066727
 21
325.4677570709
 31
0.0
  0
LINE
  5
39F
330
1F
100
AcDbEntity
  8
0
  6
Continuous
 62
     7
370
    15
100
AcDbLine
 10
120.5987071644
 20
176.2573506035
 30
0.0
 11
117.5987066727
 21
176.2573506035
 31
0.0
  0
LINE
  5
3A0
330
1F
100
AcDbEntity
  8
0
  6
Continuous
 62
     7
370
    15
100
AcDbLine
 10
120.5987071644
 20
325.4677570709
 30
0.0
 11
120.5987071644
 21
176.2573506035
 31
0.0
  0
ARC
  5
3A1
330
1F
100
AcDbEntity
  8
0
  6
Continuous
 62
     7
370
    15
100
AcDbCircle
 10
123.5987067807
 20
325.4677534046
 30
0.0
 40
3.0
100
AcDbArc
 50
90.0
 51
180.0
  0
CIRCLE
  5
3A2
330
1F
100
AcDbEntity
  8
0
  6
Continuous
 62
     7
370
    15
100
AcDbCircle
 10
-3.6693818892
 20
283.5154157982
 30
0.0
 40
1.000000000000001
  0
CIRCLE
  5
3A3
330
1F
100
AcDbEntity
  8
0
  6
Continuous
 62
     7
370
    15
100
AcDbCircle
 10
52.1200299611
 20
117.4640124128
 30
0.0
 40
1.0
  0
CIRCLE
  5
3A4
330
1F
100
AcDbEntity
  8
0
  6
Continuous
 62
     7
370
    15
100
AcDbCircle
 10
208.2917067807
 20
175.3957534046
 30
0.0
 40
1.0
  0
CIRCLE
  5
3A5
330
1F
100
AcDbEntity
  8
0
  6
Continuous
 62
     7
370
    15
100
AcDbCircle
 10
241.8735601182
 20
283.5156993412
 30
0.0
 40
1.000000000000028
  0
ARC
  5
3A6
330
1F
100
AcDbEntity
  8
0
  6
Continuous
 62
     7
370
    15
100
AcDbCircle
 10
58.5977067807
 20
183.5557534046
 30
0.0
 40
0.6000000000000104
100
AcDbArc
 50
90.0
 51
209.8865269404
  0
LINE
  5
3A7
330
1F
100
AcDbEntity
  8
0
  6
Continuous
 62
     7
370
    15
100
AcDbLine
 10
58.0774990867
 20
183.2567831785
 30
0.0
 11
63.7397093724
 21
173.5117539116
 31
0.0
  0
ARC
  5
3A8
330
1F
100
AcDbEntity
  8
0
  6
Continuous
 62
     7
370
    15
100
AcDbCircle
 10
63.2237067807
 20
173.2117534046
 30
0.0
 40
0.5968718455414157
100
AcDbArc
 50
329.8264799704
 51
30.1735200296
  0
LINE
  5
3A9
330
1F
100
AcDbEntity
  8
0
  6
Continuous
 62
     7
370
    15
100
AcDbLine
 10
63.7397093724
 20
172.9117530682
 30
0.0
 11
58.0733044099
 21
163.1629533418
 31
0.0
  0
ARC
  5
3AA
330
1F
100
AcDbEntity
  8
0
  6
Continuous
 62
     7
370
    15
100
AcDbCircle
 10
58.5914428945
 20
162.8612996834
 30
0.0
 40
0.5995498311233664
100
AcDbArc
 50
149.7924590106
 51
270.1972349761
  0
LINE
  5
3AB
330
1F
100
AcDbEntity
  8
0
  6
Continuous
 62
     7
370
    15
100
AcDbLine
 10
58.5935039471
 20
162.2617534645
 30
0.0
 11
69.8657033991
 21
162.2977528073
 31
0.0
  0
ARC
  5
3AC
330
1F
100
AcDbEntity
  8
0
  6
Continuous
 62
     7
370
    15
100
AcDbCircle
 10
69.8657067807
 20
161.6977534046
 30
0.0
 40
0.5999999999999901
100
AcDbArc
 50
29.8865269404
 51
90.0
  0
LINE
  5
3AD
330
1F
100
AcDbEntity
  8
0
  6
Continuous
 62
     7
370
    15
100
AcDbLine
 10
70.3859178375
 20
161.9967232742
 30
0.0
 11
75.9977100443
 21
152.2177524217
 31
0.0
  0
ARC
  5
3AE
330
1F
100
AcDbEntity
  8
0
  6
Continuous
 62
     7
370
    15
100
AcDbCircle
 10
76.5197067807
 20
152.5177534046
 30
0.0
 40
0.6020664415162272
100
AcDbArc
 50
209.8865269404
 51
329.8264799704
  0
LINE
  5
3AF
330
1F
100
AcDbEntity
  8
0
  6
Continuous
 62
     7
370
    15
100
AcDbLine
 10
77.0401952814
 20
152.2151409932
 30
0.0
 11
82.6457066487
 21
161.997753317
 31
0.0
  0
ARC
  5
3B0
330
1F
100
AcDbEntity
  8
0
  6
Continuous
 62
     7
370
    15
100
AcDbCircle
 10
83.1677067807
 20
161.6977534046
 30
0.0
 40
0.6020664415162371
100
AcDbArc
 50
90.0
 51
150.1134730596
  0
LINE
  5
3B1
330
1F
100
AcDbEntity
  8
0
  6
Continuous
 62
     7
370
    15
100
AcDbLine
 10
83.1677055012
 20
162.2998203435
 30
0.0
 11
94.4357065509
 21
162.2617534645
 31
0.0
  0
ARC
  5
3B2
330
1F
100
AcDbEntity
  8
0
  6
Continuous
 62
     7
370
    15
100
AcDbCircle
 10
94.4357067807
 20
162.8617534046
 30
0.0
 40
0.5999999999999954
100
AcDbArc
 50
270.0
 51
30.3791260114
  0
LINE
  5
3B3
330
1F
100
AcDbEntity
  8
0
  6
Continuous
 62
     7
370
    15
100
AcDbLine
 10
94.953324462
 20
163.1651847907
 30
0.0
 11
89.2937069784
 21
172.9117530682
 31
0.0
  0
ARC
  5
3B4
330
1F
100
AcDbEntity
  8
0
  6
Continuous
 62
     7
370
    15
100
AcDbCircle
 10
89.8097067807
 20
173.2117534046
 30
0.0
 40
0.5968718455413584
100
AcDbArc
 50
149.8264799704
 51
210.1735200296
  0
LINE
  5
3B5
330
1F
100
AcDbEntity
  8
0
  6
Continuous
 62
     7
370
    15
100
AcDbLine
 10
89.2937069784
 20
173.5117539116
 30
0.0
 11
94.9577054034
 21
183.2557536014
 31
0.0
  0
ARC
  5
3B6
330
1F
100
AcDbEntity
  8
0
  6
Continuous
 62
     7
370
    15
100
AcDbCircle
 10
94.4417067807
 20
183.5557534046
 30
0.0
 40
0.5968718455414056
100
AcDbArc
 50
329.8264799704
 51
90.5729386977
  0
LINE
  5
3B7
330
1F
100
AcDbEntity
  8
0
  6
Continuous
 62
     7
370
    15
100
AcDbLine
 10
94.4357400786
 20
184.1525953547
 30
0.0
 11
83.1677055012
 21
184.1257532411
 31
0.0
  0
ARC
  5
3B8
330
1F
100
AcDbEntity
  8
0
  6
Continuous
 62
     7
370
    15
100
AcDbCircle
 10
83.1677067807
 20
184.7257534046
 30
0.0
 40
0.6000000000000271
100
AcDbArc
 50
209.8865269404
 51
270.0
  0
LINE
  5
3B9
330
1F
100
AcDbEntity
  8
0
  6
Continuous
 62
     7
370
    15
100
AcDbLine
 10
82.6474985133
 20
184.4267832399
 30
0.0
 11
77.5577051591
 21
193.2937534344
 31
0.0
  0
ARC
  5
3BA
330
1F
100
AcDbEntity
  8
0
  6
Continuous
 62
     7
370
    15
100
AcDbCircle
 10
76.5167067807
 20
192.7066629269
 30
0.0
 40
1.195138581504209
100
AcDbArc
 50
29.4215984858
 51
150.5784015145
  0
LINE
  5
3BB
330
1F
100
AcDbEntity
  8
0
  6
Continuous
 62
     7
370
    15
100
AcDbLine
 10
75.4757074665
 20
193.2937534344
 30
0.0
 11
70.3877059768
 21
184.4257531971
 31
0.0
  0
ARC
  5
3BC
330
1F
100
AcDbEntity
  8
0
  6
Continuous
 62
     7
370
    15
100
AcDbCircle
 10
69.8657067807
 20
184.7257534046
 30
0.0
 40
0.6020664415162512
100
AcDbArc
 50
270.0
 51
330.1134730596
  0
LINE
  5
3BD
330
1F
100
AcDbEntity
  8
0
  6
Continuous
 62
     7
370
    15
100
AcDbLine
 10
69.8657033991
 20
184.1236871019
 30
0.0
 11
58.5977060746
 21
184.1557534695
 31
0.0
  0
ARC
  5
3BE
330
1F
100
AcDbEntity
  8
0
  6
Continuous
 62
     7
370
    15
100
AcDbCircle
 10
66.9467067807
 20
289.489717599
 30
0.0
 40
1.230473070918201
100
AcDbArc
 50
32.2190359356
 51
147.7809640644
  0
LINE
  5
3BF
330
1F
100
AcDbEntity
  8
0
  6
Continuous
 62
     7
370
    15
100
AcDbLine
 10
65.9057049106
 20
290.1457540043
 30
0.0
 11
60.8244908999
 21
281.2773130186
 31
0.0
  0
ARC
  5
3C0
330
1F
100
AcDbEntity
  8
0
  6
Continuous
 62
     7
370
    15
100
AcDbCircle
 10
60.3017067807
 20
281.5717534046
 30
0.0
 40
0.5999999999999834
100
AcDbArc
 50
270.0
 51
330.6109885337
  0
LINE
  5
3C1
330
1F
100
AcDbEntity
  8
0
  6
Continuous
 62
     7
370
    15
100
AcDbLine
 10
60.3017060112
 20
280.9717498072
 30
0.0
 11
49.0276737164
 21
281.0045919665
 31
0.0
  0
ARC
  5
3C2
330
1F
100
AcDbEntity
  8
0
  6
Continuous
 62
     7
370
    15
100
AcDbCircle
 10
49.0217067807
 20
280.4077534046
 30
0.0
 40
0.5968718455414338
100
AcDbArc
 50
89.4270613023
 51
210.1735200296
  0
LINE
  5
3C3
330
1F
100
AcDbEntity
  8
0
  6
Continuous
 62
     7
370
    15
100
AcDbLine
 10
48.5057083915
 20
280.1077506789
 30
0.0
 11
54.1670916628
 21
270.3622049936
 31
0.0
  0
ARC
  5
3C4
330
1F
100
AcDbEntity
  8
0
  6
Continuous
 62
     7
370
    15
100
AcDbCircle
 10
53.6537067807
 20
270.0577534046
 30
0.0
 40
0.596871845541424
100
AcDbArc
 50
329.8264799704
 51
30.6689266497
  0
LINE
  5
3C5
330
1F
100
AcDbEntity
  8
0
  6
Continuous
 62
     7
370
    15
100
AcDbLine
 10
54.1697068165
 20
269.7577542909
 30
0.0
 11
48.5074965309
 21
260.0127226957
 31
0.0
  0
ARC
  5
3C6
330
1F
100
AcDbEntity
  8
0
  6
Continuous
 62
     7
370
    15
100
AcDbCircle
 10
49.0277067807
 20
259.7137534046
 30
0.0
 40
0.6000000000000492
100
AcDbArc
 50
150.1134730596
 51
270.0
  0
LINE
  5
3C7
330
1F
100
AcDbEntity
  8
0
  6
Continuous
 62
     7
370
    15
100
AcDbLine
 10
49.0277035187
 20
259.113750542
 30
0.0
 11
60.3017060112
 21
259.1518230089
 31
0.0
  0
ARC
  5
3C8
330
1F
100
AcDbEntity
  8
0
  6
Continuous
 62
     7
370
    15
100
AcDbCircle
 10
60.3017067807
 20
258.5497534046
 30
0.0
 40
0.6020664415162333
100
AcDbArc
 50
29.8865269404
 51
90.0
  0
LINE
  5
3C9
330
1F
100
AcDbEntity
  8
0
  6
Continuous
 62
     7
370
    15
100
AcDbLine
 10
60.823708589
 20
258.8497541197
 30
0.0
 11
66.4232147883
 21
249.0671417959
 31
0.0
  0
ARC
  5
3CA
330
1F
100
AcDbEntity
  8
0
  6
Continuous
 62
     7
370
    15
100
AcDbCircle
 10
66.9437067807
 20
249.3697534046
 30
0.0
 40
0.6020664415162756
100
AcDbArc
 50
210.1735200296
 51
330.1134730596
  0
LINE
  5
3CB
330
1F
100
AcDbEntity
  8
0
  6
Continuous
 62
     7
370
    15
100
AcDbLine
 10
67.465707476
 20
249.0697532244
 30
0.0
 11
73.0774996828
 21
258.8487259396
 31
0.0
  0
ARC
  5
3CC
330
1F
100
AcDbEntity
  8
0
  6
Continuous
 62
     7
370
    15
100
AcDbCircle
 10
73.5977067807
 20
258.5497534046
 30
0.0
 40
0.6000000000000227
100
AcDbArc
 50
90.0
 51
150.1134730596
  0
LINE
  5
3CD
330
1F
100
AcDbEntity
  8
0
  6
Continuous
 62
     7
370
    15
100
AcDbLine
 10
73.5977066706
 20
259.1497517474
 30
0.0
 11
84.8657375227
 21
259.1169095882
 31
0.0
  0
ARC
  5
3CE
330
1F
100
AcDbEntity
  8
0
  6
Continuous
 62
     7
370
    15
100
AcDbCircle
 10
84.8717067807
 20
259.7137534046
 30
0.0
 40
0.596871845541475
100
AcDbArc
 50
269.4270613023
 51
30.1735200296
  0
LINE
  5
3CF
330
1F
100
AcDbEntity
  8
0
  6
Continuous
 62
     7
370
    15
100
AcDbLine
 10
85.3877065729
 20
260.0137508758
 30
0.0
 11
79.7263233017
 21
269.7593040117
 31
0.0
  0
ARC
  5
3D0
330
1F
100
AcDbEntity
  8
0
  6
Continuous
 62
     7
370
    15
100
AcDbCircle
 10
80.2397067807
 20
270.0637534046
 30
0.0
 40
0.5968718455414578
100
AcDbArc
 50
149.8264799703
 51
210.6689266497
  0
LINE
  5
3D1
330
1F
100
AcDbEntity
  8
0
  6
Continuous
 62
     7
370
    15
100
AcDbLine
 10
79.7237081479
 20
270.3637547143
 30
0.0
 11
85.3859147082
 21
280.1087863096
 31
0.0
  0
ARC
  5
3D2
330
1F
100
AcDbEntity
  8
0
  6
Continuous
 62
     7
370
    15
100
AcDbCircle
 10
84.8657067807
 20
280.4077534046
 30
0.0
 40
0.6000000000000227
100
AcDbArc
 50
330.1134730596
 51
90.0
  0
LINE
  5
3D3
330
1F
100
AcDbEntity
  8
0
  6
Continuous
 62
     7
370
    15
100
AcDbLine
 10
84.8657077204
 20
281.0077510126
 30
0.0
 11
73.5977066706
 21
280.9756837138
 31
0.0
  0
ARC
  5
3D4
330
1F
100
AcDbEntity
  8
0
  6
Continuous
 62
     7
370
    15
100
AcDbCircle
 10
73.5977067807
 20
281.5777534046
 30
0.0
 40
0.6020664415162149
100
AcDbArc
 50
209.8865269404
 51
270.0
  0
LINE
  5
3D5
330
1F
100
AcDbEntity
  8
0
  6
Continuous
 62
     7
370
    15
100
AcDbLine
 10
73.0757040929
 20
281.2777526029
 30
0.0
 11
67.9877100538
 21
290.1457540043
 31
0.0
  0
ARC
  5
3D6
330
1F
100
AcDbEntity
  8
0
  6
Continuous
 62
     7
370
    15
100
AcDbCircle
 10
95.2030452564
 20
291.4560468415
 30
0.0
 40
0.1198934526986435
100
AcDbArc
 50
270.0294017616
 51
330.0294017615
  0
LINE
  5
3D7
330
1F
100
AcDbEntity
  8
0
  6
Continuous
 62
     7
370
    15
100
AcDbLine
 10
95.2031051766
 20
291.336155618
 30
0.0
 11
92.9477063965
 21
291.3397542485
 31
0.0
  0
ARC
  5
3D8
330
1F
100
AcDbEntity
  8
0
  6
Continuous
 62
     7
370
    15
100
AcDbCircle
 10
92.9477067807
 20
291.2197534046
 30
0.0
 40
0.1200000000001182
100
AcDbArc
 50
90.0
 51
210.4655449194
  0
LINE
  5
3D9
330
1F
100
AcDbEntity
  8
0
  6
Continuous
 62
     7
370
    15
100
AcDbLine
 10
92.8442737113
 20
291.1589137562
 30
0.0
 11
93.9797049414
 21
289.2157501825
 31
0.0
  0
ARC
  5
3DA
330
1F
100
AcDbEntity
  8
0
  6
Continuous
 62
     7
370
    15
100
AcDbCircle
 10
93.8777067807
 20
289.1557534046
 30
0.0
 40
0.1183384975398682
100
AcDbArc
 50
329.5344550805
 51
30.4655449195
  0
LINE
  5
3DB
330
1F
100
AcDbEntity
  8
0
  6
Continuous
 62
     7
370
    15
100
AcDbLine
 10
93.9797049414
 20
289.0957511314
 30
0.0
 11
92.8457079481
 21
287.1457553752
 31
0.0
  0
ARC
  5
3DC
330
1F
100
AcDbEntity
  8
0
  6
Continuous
 62
     7
370
    15
100
AcDbCircle
 10
92.9477067807
 20
287.0857534046
 30
0.0
 40
0.118338497539982
100
AcDbArc
 50
149.5344550806
 51
270.0
  0
LINE
  5
3DD
330
1F
100
AcDbEntity
  8
0
  6
Continuous
 62
     7
370
    15
100
AcDbLine
 10
92.9477063965
 20
286.9674182781
 30
0.0
 11
95.2037049483
 21
286.971754516
 31
0.0
  0
ARC
  5
3DE
330
1F
100
AcDbEntity
  8
0
  6
Continuous
 62
     7
370
    15
100
AcDbCircle
 10
95.2037067807
 20
286.8517534046
 30
0.0
 40
0.1200000000000631
100
AcDbArc
 50
30.4655449194
 51
90.0
  0
LINE
  5
3DF
330
1F
100
AcDbEntity
  8
0
  6
Continuous
 62
     7
370
    15
100
AcDbLine
 10
95.3071376334
 20
286.912596906
 30
0.0
 11
96.4277049552
 21
284.9557540663
 31
0.0
  0
ARC
  5
3E0
330
1F
100
AcDbEntity
  8
0
  6
Continuous
 62
     7
370
    15
100
AcDbCircle
 10
96.5297067807
 20
285.0157534046
 30
0.0
 40
0.1183384975399634
100
AcDbArc
 50
210.4655449195
 51
330.9453959008
  0
LINE
  5
3E1
330
1F
100
AcDbEntity
  8
0
  6
Continuous
 62
     7
370
    15
100
AcDbLine
 10
96.6331547152
 20
284.9582798131
 30
0.0
 11
97.7597085785
 21
286.9117549904
 31
0.0
  0
ARC
  5
3E2
330
1F
100
AcDbEntity
  8
0
  6
Continuous
 62
     7
370
    15
100
AcDbCircle
 10
97.8617067807
 20
286.8517534046
 30
0.0
 40
0.1183384975399235
100
AcDbArc
 50
90.0
 51
149.5344550806
  0
LINE
  5
3E3
330
1F
100
AcDbEntity
  8
0
  6
Continuous
 62
     7
370
    15
100
AcDbLine
 10
97.8617070268
 20
286.9700930365
 30
0.0
 11
100.1177055787
 21
286.9657567986
 31
0.0
  0
ARC
  5
3E4
330
1F
100
AcDbEntity
  8
0
  6
Continuous
 62
     7
370
    15
100
AcDbCircle
 10
100.1177067807
 20
287.0857534046
 30
0.0
 40
0.1200000000000472
100
AcDbArc
 50
270.0
 51
30.4655449195
  0
LINE
  5
3E5
330
1F
100
AcDbEntity
  8
0
  6
Continuous
 62
     7
370
    15
100
AcDbLine
 10
100.2211382638
 20
287.1465972908
 30
0.0
 11
99.0857070337
 21
289.0957511314
 31
0.0
  0
ARC
  5
3E6
330
1F
100
AcDbEntity
  8
0
  6
Continuous
 62
     7
370
    15
100
AcDbCircle
 10
99.1877067807
 20
289.1557534046
 30
0.0
 40
0.1183384975399705
100
AcDbArc
 50
149.5344550805
 51
210.4655449194
  0
LINE
  5
3E7
330
1F
100
AcDbEntity
  8
0
  6
Continuous
 62
     7
370
    15
100
AcDbLine
 10
99.0857070337
 20
289.2157501825
 30
0.0
 11
100.2197077523
 21
291.1597556718
 31
0.0
  0
ARC
  5
3E8
330
1F
100
AcDbEntity
  8
0
  6
Continuous
 62
     7
370
    15
100
AcDbCircle
 10
100.1177067807
 20
291.2197534046
 30
0.0
 40
0.1183384975399804
100
AcDbArc
 50
329.5344550805
 51
90.0
  0
LINE
  5
3E9
330
1F
100
AcDbEntity
  8
0
  6
Continuous
 62
     7
370
    15
100
AcDbLine
 10
100.1177055787
 20
291.338092769
 30
0.0
 11
97.8617070268
 21
291.3337565311
 31
0.0
  0
ARC
  5
3EA
330
1F
100
AcDbEntity
  8
0
  6
Continuous
 62
     7
370
    15
100
AcDbCircle
 10
97.8617067807
 20
291.4537534046
 30
0.0
 40
0.1200000000000105
100
AcDbArc
 50
210.4655449195
 51
270.0
  0
LINE
  5
3EB
330
1F
100
AcDbEntity
  8
0
  6
Continuous
 62
     7
370
    15
100
AcDbLine
 10
97.7582743417
 20
291.392914141
 30
0.0
 11
96.6377070199
 21
293.3497569807
 31
0.0
  0
ARC
  5
3EC
330
1F
100
AcDbEntity
  8
0
  6
Continuous
 62
     7
370
    15
100
AcDbCircle
 10
96.5357067807
 20
293.2897534046
 30
0.0
 40
0.1183384975399417
100
AcDbArc
 50
30.4655449195
 51
150.9453959009
  0
LINE
  5
3ED
330
1F
100
AcDbEntity
  8
0
  6
Continuous
 62
     7
370
    15
100
AcDbLine
 10
96.4322609852
 20
293.3472237833
 30
0.0
 11
95.3069066654
 21
291.3961551436
 31
0.0
  0
ARC
  5
3EE
330
1F
100
AcDbEntity
  8
0
  6
Continuous
 62
     7
370
    15
100
AcDbCircle
 10
207.6797067807
 20
271.8877534046
 30
0.0
 40
0.1200000000000045
100
AcDbArc
 50
29.0546040991
 51
90.0
  0
LINE
  5
3EF
330
1F
100
AcDbEntity
  8
0
  6
Continuous
 62
     7
370
    15
100
AcDbLine
 10
207.7846078228
 20
271.9460270651
 30
0.0
 11
208.9097050975
 21
269.9977523931
 31
0.0
  0
ARC
  5
3F0
330
1F
100
AcDbEntity
  8
0
  6
Continuous
 62
     7
370
    15
100
AcDbCircle
 10
209.0117067807
 20
270.0577534046
 30
0.0
 40
0.1183384975399006
100
AcDbArc
 50
210.4655449195
 51
329.5344550806
  0
LINE
  5
3F1
330
1F
100
AcDbEntity
  8
0
  6
Continuous
 62
     7
370
    15
100
AcDbLine
 10
209.1137094449
 20
269.9977523931
 30
0.0
 11
210.2357072781
 21
271.9477555998
 31
0.0
  0
ARC
  5
3F2
330
1F
100
AcDbEntity
  8
0
  6
Continuous
 62
     7
370
    15
100
AcDbCircle
 10
210.3377067807
 20
271.8877534046
 30
0.0
 40
0.1183384975398314
100
AcDbArc
 50
87.1375947739
 51
149.5344550805
  0
LINE
  5
3F3
330
1F
100
AcDbEntity
  8
0
  6
Continuous
 62
     7
370
    15
100
AcDbLine
 10
210.3436140369
 20
272.0059446343
 30
0.0
 11
212.5937042783
 21
272.0017499574
 31
0.0
  0
ARC
  5
3F4
330
1F
100
AcDbEntity
  8
0
  6
Continuous
 62
     7
370
    15
100
AcDbCircle
 10
212.5937067807
 20
272.1217534046
 30
0.0
 40
0.1200000000000614
100
AcDbArc
 50
270.0
 51
29.0546040991
  0
LINE
  5
3F5
330
1F
100
AcDbEntity
  8
0
  6
Continuous
 62
     7
370
    15
100
AcDbLine
 10
212.6986084531
 20
272.1800274499
 30
0.0
 11
211.5677071761
 21
274.1317517408
 31
0.0
  0
ARC
  5
3F6
330
1F
100
AcDbEntity
  8
0
  6
Continuous
 62
     7
370
    15
100
AcDbCircle
 10
211.6697067807
 20
274.1917534046
 30
0.0
 40
0.1183384975398559
100
AcDbArc
 50
149.5344550805
 51
210.4655449195
  0
LINE
  5
3F7
330
1F
100
AcDbEntity
  8
0
  6
Continuous
 62
     7
370
    15
100
AcDbLine
 10
211.5677071761
 20
274.2517507919
 30
0.0
 11
212.7017078947
 21
276.2017539986
 31
0.0
  0
ARC
  5
3F8
330
1F
100
AcDbEntity
  8
0
  6
Continuous
 62
     7
370
    15
100
AcDbCircle
 10
212.5997067807
 20
276.2617534046
 30
0.0
 40
0.1183384975399496
100
AcDbArc
 50
329.5344550806
 51
92.8624052261
  0
LINE
  5
3F9
330
1F
100
AcDbEntity
  8
0
  6
Continuous
 62
     7
370
    15
100
AcDbLine
 10
212.5937936853
 20
276.3799420841
 30
0.0
 11
210.3377057265
 21
276.3757548579
 31
0.0
  0
ARC
  5
3FA
330
1F
100
AcDbEntity
  8
0
  6
Continuous
 62
     7
370
    15
100
AcDbCircle
 10
210.3377067807
 20
276.4957534046
 30
0.0
 40
0.1200000000000638
100
AcDbArc
 50
210.4655449195
 51
270.0
  0
LINE
  5
3FB
330
1F
100
AcDbEntity
  8
0
  6
Continuous
 62
     7
370
    15
100
AcDbLine
 10
210.2342767667
 20
276.4349124678
 30
0.0
 11
209.1137094449
 21
278.3917553075
 31
0.0
  0
ARC
  5
3FC
330
1F
100
AcDbEntity
  8
0
  6
Continuous
 62
     7
370
    15
100
AcDbCircle
 10
209.0117067807
 20
278.3317534046
 30
0.0
 40
0.1183384975400649
100
AcDbArc
 50
30.4655449195
 51
149.5344550805
  0
LINE
  5
3FD
330
1F
100
AcDbEntity
  8
0
  6
Continuous
 62
     7
370
    15
100
AcDbLine
 10
208.9097050975
 20
278.3917553075
 30
0.0
 11
207.7871037673
 21
276.4345548399
 31
0.0
  0
ARC
  5
3FE
330
1F
100
AcDbEntity
  8
0
  6
Continuous
 62
     7
370
    15
100
AcDbCircle
 10
207.6827725389
 20
276.4940688311
 30
0.0
 40
0.1201154444690504
100
AcDbArc
 50
269.9686329475
 51
330.2982491442
  0
LINE
  5
3FF
330
1F
100
AcDbEntity
  8
0
  6
Continuous
 62
     7
370
    15
100
AcDbLine
 10
207.6827062319
 20
276.3739518173
 30
0.0
 11
205.4297102641
 21
276.3817525752
 31
0.0
  0
ARC
  5
400
330
1F
100
AcDbEntity
  8
0
  6
Continuous
 62
     7
370
    15
100
AcDbCircle
 10
205.4297067807
 20
276.2617534046
 30
0.0
 40
0.1200000000000045
100
AcDbArc
 50
90.0
 51
209.0546040991
  0
LINE
  5
401
330
1F
100
AcDbEntity
  8
0
  6
Continuous
 62
     7
370
    15
100
AcDbLine
 10
205.3248060893
 20
276.2034750827
 30
0.0
 11
206.4557073663
 21
274.2517507919
 31
0.0
  0
ARC
  5
402
330
1F
100
AcDbEntity
  8
0
  6
Continuous
 62
     7
370
    15
100
AcDbCircle
 10
206.3537067807
 20
274.1917534046
 30
0.0
 40
0.1183384975399943
100
AcDbArc
 50
329.5344550805
 51
30.4655449194
  0
LINE
  5
403
330
1F
100
AcDbEntity
  8
0
  6
Continuous
 62
     7
370
    15
100
AcDbLine
 10
206.4557073663
 20
274.1317517408
 30
0.0
 11
205.3217066477
 21
272.1817559846
 31
0.0
  0
ARC
  5
404
330
1F
100
AcDbEntity
  8
0
  6
Continuous
 62
     7
370
    15
100
AcDbCircle
 10
205.4237067807
 20
272.1217534046
 30
0.0
 40
0.1183384975401057
100
AcDbArc
 50
149.5344550806
 51
272.862405226
  0
LINE
  5
405
330
1F
100
AcDbEntity
  8
0
  6
Continuous
 62
     7
370
    15
100
AcDbLine
 10
205.4296134065
 20
272.0035604485
 30
0.0
 11
207.679703648
 21
272.0077551254
 31
0.0
  0
ARC
  5
406
330
1F
100
AcDbEntity
  8
0
  6
Continuous
 62
     7
370
    15
100
AcDbCircle
 10
57.1877067807
 20
230.7637534046
 30
0.0
 40
0.1183384975398743
100
AcDbArc
 50
329.5344550805
 51
30.4655449195
  0
LINE
  5
407
330
1F
100
AcDbEntity
  8
0
  6
Continuous
 62
     7
370
    15
100
AcDbLine
 10
57.2897044967
 20
230.7037516781
 30
0.0
 11
56.1557037781
 21
228.7537521966
 31
0.0
  0
ARC
  5
408
330
1F
100
AcDbEntity
  8
0
  6
Continuous
 62
     7
370
    15
100
AcDbCircle
 10
56.2577067807
 20
228.6937534046
 30
0.0
 40
0.1183384975398884
100
AcDbArc
 50
149.5344550805
 51
272.8624052261
  0
LINE
  5
409
330
1F
100
AcDbEntity
  8
0
  6
Continuous
 62
     7
370
    15
100
AcDbLine
 10
56.2636179875
 20
228.5755641111
 30
0.0
 11
58.5137082289
 21
228.5797550627
 31
0.0
  0
ARC
  5
40A
330
1F
100
AcDbEntity
  8
0
  6
Continuous
 62
     7
370
    15
100
AcDbCircle
 10
58.5137067807
 20
228.4597534046
 30
0.0
 40
0.1200000000000189
100
AcDbArc
 50
29.0546040991
 51
90.0
  0
LINE
  5
40B
330
1F
100
AcDbEntity
  8
0
  6
Continuous
 62
     7
370
    15
100
AcDbLine
 10
58.6186049532
 20
228.5180307277
 30
0.0
 11
59.7437096785
 21
226.563754613
 31
0.0
  0
ARC
  5
40C
330
1F
100
AcDbEntity
  8
0
  6
Continuous
 62
     7
370
    15
100
AcDbCircle
 10
59.8457067807
 20
226.6237534046
 30
0.0
 40
0.1183384975399539
100
AcDbArc
 50
210.4655449195
 51
329.5344550805
  0
LINE
  5
40D
330
1F
100
AcDbEntity
  8
0
  6
Continuous
 62
     7
370
    15
100
AcDbLine
 10
59.9477065753
 20
226.563754613
 30
0.0
 11
61.0697044085
 21
228.5197518118
 31
0.0
  0
LINE
  5
40E
330
1F
100
AcDbEntity
  8
0
  6
Continuous
 62
     7
370
    15
100
AcDbLine
 10
61.1776186179
 20
228.5779445716
 30
0.0
 11
63.4277088593
 21
228.57375362
 31
0.0
  0
ARC
  5
40F
330
1F
100
AcDbEntity
  8
0
  6
Continuous
 62
     7
370
    15
100
AcDbCircle
 10
63.4277067807
 20
228.6937534046
 30
0.0
 40
0.1200000000000189
100
AcDbArc
 50
270.0
 51
29.0546040991
  0
LINE
  5
410
330
1F
100
AcDbEntity
  8
0
  6
Continuous
 62
     7
370
    15
100
AcDbLine
 10
63.5326055835
 20
228.7520311125
 30
0.0
 11
62.4017043065
 21
230.7037516781
 31
0.0
  0
ARC
  5
411
330
1F
100
AcDbEntity
  8
0
  6
Continuous
 62
     7
370
    15
100
AcDbCircle
 10
62.5037067807
 20
230.7637534046
 30
0.0
 40
0.1183384975399705
100
AcDbArc
 50
149.5344550806
 51
210.4655449195
  0
LINE
  5
412
330
1F
100
AcDbEntity
  8
0
  6
Continuous
 62
     7
370
    15
100
AcDbLine
 10
62.4017043065
 20
230.8237544544
 30
0.0
 11
63.5387076091
 21
232.7731541642
 31
0.0
  0
ARC
  5
413
330
1F
100
AcDbEntity
  8
0
  6
Continuous
 62
     7
370
    15
100
AcDbCircle
 10
63.435698641
 20
232.8340789589
 30
0.0
 40
0.1196770654720778
100
AcDbArc
 50
329.3972347856
 51
90.3791084763
  0
LINE
  5
414
330
1F
100
AcDbEntity
  8
0
  6
Continuous
 62
     7
370
    15
100
AcDbLine
 10
63.4349061202
 20
232.9537525125
 30
0.0
 11
61.1777080249
 21
232.9417533525
 31
0.0
  0
ARC
  5
415
330
1F
100
AcDbEntity
  8
0
  6
Continuous
 62
     7
370
    15
100
AcDbCircle
 10
61.1777067807
 20
233.0617534046
 30
0.0
 40
0.1200000000000686
100
AcDbArc
 50
209.0546040991
 51
270.0
  0
LINE
  5
416
330
1F
100
AcDbEntity
  8
0
  6
Continuous
 62
     7
370
    15
100
AcDbLine
 10
61.0728113006
 20
233.0034776874
 30
0.0
 11
59.9477065753
 21
234.9577538021
 31
0.0
  0
ARC
  5
417
330
1F
100
AcDbEntity
  8
0
  6
Continuous
 62
     7
370
    15
100
AcDbCircle
 10
59.8457067807
 20
234.8977534046
 30
0.0
 40
0.1183384975399042
100
AcDbArc
 50
30.4655449195
 51
149.5344550806
  0
LINE
  5
418
330
1F
100
AcDbEntity
  8
0
  6
Continuous
 62
     7
370
    15
100
AcDbLine
 10
59.7437096785
 20
234.9577538021
 30
0.0
 11
58.6241034816
 21
233.0065547772
 31
0.0
  0
ARC
  5
419
330
1F
100
AcDbEntity
  8
0
  6
Continuous
 62
     7
370
    15
100
AcDbCircle
 10
58.5200753532
 20
233.0655471509
 30
0.0
 40
0.119594314246149
100
AcDbArc
 50
269.8234223333
 51
330.4434597583
  0
LINE
  5
41A
330
1F
100
AcDbEntity
  8
0
  6
Continuous
 62
     7
370
    15
100
AcDbLine
 10
58.5197059463
 20
232.9459517546
 30
0.0
 11
56.2565101336
 21
232.9537525125
 31
0.0
  0
ARC
  5
41B
330
1F
100
AcDbEntity
  8
0
  6
Continuous
 62
     7
370
    15
100
AcDbCircle
 10
56.2562835958
 20
232.8337521122
 30
0.0
 40
0.1200014999906276
100
AcDbArc
 50
89.893438343
 51
210.3302183623
  0
LINE
  5
41C
330
1F
100
AcDbEntity
  8
0
  6
Continuous
 62
     7
370
    15
100
AcDbLine
 10
56.1527086447
 20
232.7731541642
 30
0.0
 11
57.2897044967
 21
230.8237544544
 31
0.0
  0
ARC
  5
41D
330
1F
100
AcDbEntity
  8
0
  6
Continuous
 62
     7
370
    15
100
AcDbCircle
 10
149.3897067807
 20
218.6977534046
 30
0.0
 40
0.1183384975399582
100
AcDbArc
 50
329.5344550806
 51
30.4655449195
  0
LINE
  5
41E
330
1F
100
AcDbEntity
  8
0
  6
Continuous
 62
     7
370
    15
100
AcDbLine
 10
149.4917066793
 20
218.6377543308
 30
0.0
 11
148.3577068921
 21
216.6877529867
 31
0.0
  0
ARC
  5
41F
330
1F
100
AcDbEntity
  8
0
  6
Continuous
 62
     7
370
    15
100
AcDbCircle
 10
148.4597067807
 20
216.6277534046
 30
0.0
 40
0.1183384975399741
100
AcDbArc
 50
149.5344550806
 51
272.8624052261
  0
LINE
  5
420
330
1F
100
AcDbEntity
  8
0
  6
Continuous
 62
     7
370
    15
100
AcDbLine
 10
148.4656164448
 20
216.5095630385
 30
0.0
 11
150.7157066863
 21
216.5137539901
 31
0.0
  0
ARC
  5
421
330
1F
100
AcDbEntity
  8
0
  6
Continuous
 62
     7
370
    15
100
AcDbCircle
 10
150.7157067807
 20
216.3937534046
 30
0.0
 40
0.1200000000000614
100
AcDbArc
 50
29.0546040991
 51
90.0
  0
LINE
  5
422
330
1F
100
AcDbEntity
  8
0
  6
Continuous
 62
     7
370
    15
100
AcDbLine
 10
150.8206052731
 20
216.4520296552
 30
0.0
 11
151.9457072045
 21
214.4977535405
 31
0.0
  0
ARC
  5
423
330
1F
100
AcDbEntity
  8
0
  6
Continuous
 62
     7
370
    15
100
AcDbCircle
 10
152.0477067807
 20
214.5577534046
 30
0.0
 40
0.1183384975399453
100
AcDbArc
 50
210.4655449195
 51
329.5344550806
  0
LINE
  5
424
330
1F
100
AcDbEntity
  8
0
  6
Continuous
 62
     7
370
    15
100
AcDbLine
 10
152.1497068952
 20
214.4977535405
 30
0.0
 11
153.2717065911
 21
216.4537526019
 31
0.0
  0
ARC
  5
425
330
1F
100
AcDbEntity
  8
0
  6
Continuous
 62
     7
370
    15
100
AcDbCircle
 10
153.3737067807
 20
216.3937534046
 30
0.0
 40
0.1183384975399751
100
AcDbArc
 50
87.1375947739
 51
149.5344550806
  0
LINE
  5
426
330
1F
100
AcDbEntity
  8
0
  6
Continuous
 62
     7
370
    15
100
AcDbLine
 10
153.3796161439
 20
216.511943499
 30
0.0
 11
155.6297063853
 21
216.5077525475
 31
0.0
  0
ARC
  5
427
330
1F
100
AcDbEntity
  8
0
  6
Continuous
 62
     7
370
    15
100
AcDbCircle
 10
155.6297067807
 20
216.6277534046
 30
0.0
 40
0.1200000000000614
100
AcDbArc
 50
270.0
 51
29.0546040991
  0
LINE
  5
428
330
1F
100
AcDbEntity
  8
0
  6
Continuous
 62
     7
370
    15
100
AcDbLine
 10
155.7346059035
 20
216.68603004
 30
0.0
 11
154.6037064891
 21
218.6377543308
 31
0.0
  0
ARC
  5
429
330
1F
100
AcDbEntity
  8
0
  6
Continuous
 62
     7
370
    15
100
AcDbCircle
 10
154.7057067807
 20
218.6977534046
 30
0.0
 40
0.1183384975398559
100
AcDbArc
 50
149.5344550805
 51
210.4655449195
  0
LINE
  5
42A
330
1F
100
AcDbEntity
  8
0
  6
Continuous
 62
     7
370
    15
100
AcDbLine
 10
154.6037064891
 20
218.7577533819
 30
0.0
 11
155.7377072077
 21
220.7077528634
 31
0.0
  0
ARC
  5
42B
330
1F
100
AcDbEntity
  8
0
  6
Continuous
 62
     7
370
    15
100
AcDbCircle
 10
155.6357067807
 20
220.7677534046
 30
0.0
 40
0.118338497539863
100
AcDbArc
 50
329.5344550805
 51
92.8624052261
  0
LINE
  5
42C
330
1F
100
AcDbEntity
  8
0
  6
Continuous
 62
     7
370
    15
100
AcDbLine
 10
155.6297976549
 20
220.8859446742
 30
0.0
 11
153.3797064822
 21
220.8817537226
 31
0.0
  0
ARC
  5
42D
330
1F
100
AcDbEntity
  8
0
  6
Continuous
 62
     7
370
    15
100
AcDbCircle
 10
153.3797067807
 20
221.0017534046
 30
0.0
 40
0.120000000000033
100
AcDbArc
 50
209.0546040991
 51
270.0
  0
LINE
  5
42E
330
1F
100
AcDbEntity
  8
0
  6
Continuous
 62
     7
370
    15
100
AcDbLine
 10
153.2748078953
 20
220.9434761949
 30
0.0
 11
152.1497068952
 21
222.8977523096
 31
0.0
  0
ARC
  5
42F
330
1F
100
AcDbEntity
  8
0
  6
Continuous
 62
     7
370
    15
100
AcDbCircle
 10
152.0477067807
 20
222.8377534046
 30
0.0
 40
0.1183384975399395
100
AcDbArc
 50
30.4655449195
 51
149.5344550805
  0
LINE
  5
430
330
1F
100
AcDbEntity
  8
0
  6
Continuous
 62
     7
370
    15
100
AcDbLine
 10
151.9457072045
 20
222.8977523096
 30
0.0
 11
150.8231068056
 21
220.9405537047
 31
0.0
  0
ARC
  5
431
330
1F
100
AcDbEntity
  8
0
  6
Continuous
 62
     7
370
    15
100
AcDbCircle
 10
150.7187725389
 20
221.0000688311
 30
0.0
 40
0.1201154444690221
100
AcDbArc
 50
269.9686329474
 51
330.2982491442
  0
LINE
  5
432
330
1F
100
AcDbEntity
  8
0
  6
Continuous
 62
     7
370
    15
100
AcDbLine
 10
150.7187064763
 20
220.8799525448
 30
0.0
 11
148.4657067831
 21
220.8877533026
 31
0.0
  0
ARC
  5
433
330
1F
100
AcDbEntity
  8
0
  6
Continuous
 62
     7
370
    15
100
AcDbCircle
 10
148.4657067807
 20
220.7677534046
 30
0.0
 40
0.1200000000000175
100
AcDbArc
 50
90.0
 51
209.0546040991
  0
LINE
  5
434
330
1F
100
AcDbEntity
  8
0
  6
Continuous
 62
     7
370
    15
100
AcDbLine
 10
148.3608077306
 20
220.7094758101
 30
0.0
 11
149.4917066793
 21
218.7577533819
 31
0.0
  0
ARC
  5
435
330
1F
100
AcDbEntity
  8
0
  6
Continuous
 62
     7
370
    15
100
AcDbCircle
 10
180.6467725389
 20
171.7760688311
 30
0.0
 40
0.1201154444691421
100
AcDbArc
 50
269.9686329475
 51
330.2982491442
  0
LINE
  5
436
330
1F
100
AcDbEntity
  8
0
  6
Continuous
 62
     7
370
    15
100
AcDbLine
 10
180.6467061888
 20
171.6559539833
 30
0.0
 11
178.3937064956
 21
171.6637528785
 31
0.0
  0
ARC
  5
437
330
1F
100
AcDbEntity
  8
0
  6
Continuous
 62
     7
370
    15
100
AcDbCircle
 10
178.3937067807
 20
171.5437534046
 30
0.0
 40
0.1200000000000045
100
AcDbArc
 50
90.0
 51
210.4655449195
  0
LINE
  5
438
330
1F
100
AcDbEntity
  8
0
  6
Continuous
 62
     7
370
    15
100
AcDbLine
 10
178.2902738105
 20
171.4829105236
 30
0.0
 11
179.4197073232
 21
169.5337529578
 31
0.0
  0
ARC
  5
439
330
1F
100
AcDbEntity
  8
0
  6
Continuous
 62
     7
370
    15
100
AcDbCircle
 10
179.3177067807
 20
169.4737534046
 30
0.0
 40
0.1183384975400087
100
AcDbArc
 50
329.5344550806
 51
30.4655449194
  0
LINE
  5
43A
330
1F
100
AcDbEntity
  8
0
  6
Continuous
 62
     7
370
    15
100
AcDbLine
 10
179.4197073232
 20
169.4137539067
 30
0.0
 11
178.2917080473
 21
167.4637525626
 31
0.0
  0
ARC
  5
43B
330
1F
100
AcDbEntity
  8
0
  6
Continuous
 62
     7
370
    15
100
AcDbCircle
 10
178.3937067807
 20
167.4037534046
 30
0.0
 40
0.1183384975398951
100
AcDbArc
 50
149.5344550805
 51
270.0
  0
LINE
  5
43C
330
1F
100
AcDbEntity
  8
0
  6
Continuous
 62
     7
370
    15
100
AcDbLine
 10
178.3937064956
 20
167.2854154654
 30
0.0
 11
180.6497050475
 21
167.289753566
 31
0.0
  0
ARC
  5
43D
330
1F
100
AcDbEntity
  8
0
  6
Continuous
 62
     7
370
    15
100
AcDbCircle
 10
180.6497067807
 20
167.1697534046
 30
0.0
 40
0.1200000000000045
100
AcDbArc
 50
30.4655449195
 51
90.0
  0
LINE
  5
43E
330
1F
100
AcDbEntity
  8
0
  6
Continuous
 62
     7
370
    15
100
AcDbLine
 10
180.7531377326
 20
167.230595956
 30
0.0
 11
181.8737050544
 21
165.2737531163
 31
0.0
  0
ARC
  5
43F
330
1F
100
AcDbEntity
  8
0
  6
Continuous
 62
     7
370
    15
100
AcDbCircle
 10
181.9757067807
 20
165.3337534046
 30
0.0
 40
0.1183384975399006
100
AcDbArc
 50
210.4655449195
 51
330.9453959009
  0
LINE
  5
440
330
1F
100
AcDbEntity
  8
0
  6
Continuous
 62
     7
370
    15
100
AcDbLine
 10
182.0791548144
 20
165.2762825884
 30
0.0
 11
183.2057049524
 21
167.2297540404
 31
0.0
  0
ARC
  5
441
330
1F
100
AcDbEntity
  8
0
  6
Continuous
 62
     7
370
    15
100
AcDbCircle
 10
183.3077067807
 20
167.1697534046
 30
0.0
 40
0.1183384975399928
100
AcDbArc
 50
90.0
 51
149.5344550805
  0
LINE
  5
442
330
1F
100
AcDbEntity
  8
0
  6
Continuous
 62
     7
370
    15
100
AcDbLine
 10
183.307707126
 20
167.2880920865
 30
0.0
 11
185.5637056779
 21
167.283753986
 31
0.0
  0
ARC
  5
443
330
1F
100
AcDbEntity
  8
0
  6
Continuous
 62
     7
370
    15
100
AcDbCircle
 10
185.5637067807
 20
167.4037534046
 30
0.0
 40
0.1200000000000614
100
AcDbArc
 50
270.0
 51
30.4655449195
  0
LINE
  5
444
330
1F
100
AcDbEntity
  8
0
  6
Continuous
 62
     7
370
    15
100
AcDbLine
 10
185.667138363
 20
167.4645963409
 30
0.0
 11
184.5317071329
 21
169.4137539067
 31
0.0
  0
ARC
  5
445
330
1F
100
AcDbEntity
  8
0
  6
Continuous
 62
     7
370
    15
100
AcDbCircle
 10
184.6337067807
 20
169.4737534046
 30
0.0
 40
0.1183384975399438
100
AcDbArc
 50
149.5344550806
 51
210.4655449195
  0
LINE
  5
446
330
1F
100
AcDbEntity
  8
0
  6
Continuous
 62
     7
370
    15
100
AcDbLine
 10
184.5317071329
 20
169.5337529578
 30
0.0
 11
185.6657078515
 21
171.4837543019
 31
0.0
  0
ARC
  5
447
330
1F
100
AcDbEntity
  8
0
  6
Continuous
 62
     7
370
    15
100
AcDbCircle
 10
185.5637067807
 20
171.5437534046
 30
0.0
 40
0.1183384975399804
100
AcDbArc
 50
329.5344550806
 51
90.0
  0
LINE
  5
448
330
1F
100
AcDbEntity
  8
0
  6
Continuous
 62
     7
370
    15
100
AcDbLine
 10
185.5637056779
 20
171.662091399
 30
0.0
 11
183.307707126
 21
171.6577532985
 31
0.0
  0
ARC
  5
449
330
1F
100
AcDbEntity
  8
0
  6
Continuous
 62
     7
370
    15
100
AcDbCircle
 10
183.3077067807
 20
171.7777534046
 30
0.0
 40
0.1200000000000365
100
AcDbArc
 50
210.4655449194
 51
270.0
  0
LINE
  5
44A
330
1F
100
AcDbEntity
  8
0
  6
Continuous
 62
     7
370
    15
100
AcDbLine
 10
183.2042744409
 20
171.7169109084
 30
0.0
 11
182.0837071191
 21
173.6737537481
 31
0.0
  0
ARC
  5
44B
330
1F
100
AcDbEntity
  8
0
  6
Continuous
 62
     7
370
    15
100
AcDbCircle
 10
181.9817067807
 20
173.6137534046
 30
0.0
 40
0.1183384975399784
100
AcDbArc
 50
30.4655449195
 51
150.9453959009
  0
LINE
  5
44C
330
1F
100
AcDbEntity
  8
0
  6
Continuous
 62
     7
370
    15
100
AcDbLine
 10
181.8782610844
 20
173.671224276
 30
0.0
 11
180.7511074494
 21
171.7165532805
 31
0.0
  0
ARC
  5
44D
330
1F
100
AcDbEntity
  8
0
  6
Continuous
 62
     7
370
    15
100
AcDbCircle
 10
138.4157067807
 20
133.1737534046
 30
0.0
 40
0.1200000000000045
100
AcDbArc
 50
209.0546040991
 51
270.0
  0
LINE
  5
44E
330
1F
100
AcDbEntity
  8
0
  6
Continuous
 62
     7
370
    15
100
AcDbLine
 10
138.310808039
 20
133.1154770501
 30
0.0
 11
137.1857065733
 21
135.0637517222
 31
0.0
  0
ARC
  5
44F
330
1F
100
AcDbEntity
  8
0
  6
Continuous
 62
     7
370
    15
100
AcDbCircle
 10
137.0837067807
 20
135.0037534046
 30
0.0
 40
0.1183384975398617
100
AcDbArc
 50
30.4655449194
 51
149.5344550805
  0
LINE
  5
450
330
1F
100
AcDbEntity
  8
0
  6
Continuous
 62
     7
370
    15
100
AcDbLine
 10
136.9817068826
 20
135.0637517222
 30
0.0
 11
135.8591069493
 21
133.1125526973
 31
0.0
  0
ARC
  5
451
330
1F
100
AcDbEntity
  8
0
  6
Continuous
 62
     7
370
    15
100
AcDbCircle
 10
135.7547725389
 20
133.1720688311
 30
0.0
 40
0.1201154444691172
100
AcDbArc
 50
269.9686329474
 51
330.2982491441
  0
LINE
  5
452
330
1F
100
AcDbEntity
  8
0
  6
Continuous
 62
     7
370
    15
100
AcDbLine
 10
135.75470662
 20
133.0519534
 30
0.0
 11
133.5017064612
 21
133.0597541579
 31
0.0
  0
ARC
  5
453
330
1F
100
AcDbEntity
  8
0
  6
Continuous
 62
     7
370
    15
100
AcDbCircle
 10
133.5017067807
 20
132.9397534046
 30
0.0
 40
0.1200000000000175
100
AcDbArc
 50
90.0
 51
209.0546040991
  0
LINE
  5
454
330
1F
100
AcDbEntity
  8
0
  6
Continuous
 62
     7
370
    15
100
AcDbLine
 10
133.3968078743
 20
132.8814766653
 30
0.0
 11
134.5277068231
 21
130.9297523745
 31
0.0
  0
ARC
  5
455
330
1F
100
AcDbEntity
  8
0
  6
Continuous
 62
     7
370
    15
100
AcDbCircle
 10
134.4257067807
 20
130.8697534046
 30
0.0
 40
0.1183384975399554
100
AcDbArc
 50
329.5344550806
 51
30.4655449195
  0
LINE
  5
456
330
1F
100
AcDbEntity
  8
0
  6
Continuous
 62
     7
370
    15
100
AcDbLine
 10
134.5277068231
 20
130.8097533234
 30
0.0
 11
133.3937065701
 21
128.859753842
 31
0.0
  0
ARC
  5
457
330
1F
100
AcDbEntity
  8
0
  6
Continuous
 62
     7
370
    15
100
AcDbCircle
 10
133.4957067807
 20
128.7997534046
 30
0.0
 40
0.1183384975399352
100
AcDbArc
 50
149.5344550806
 51
272.8624052261
  0
LINE
  5
458
330
1F
100
AcDbEntity
  8
0
  6
Continuous
 62
     7
370
    15
100
AcDbLine
 10
133.5016161229
 20
128.6815620311
 30
0.0
 11
135.75170683
 21
128.6857529827
 31
0.0
  0
ARC
  5
459
330
1F
100
AcDbEntity
  8
0
  6
Continuous
 62
     7
370
    15
100
AcDbCircle
 10
135.7517067807
 20
128.5657534046
 30
0.0
 40
0.1200000000000045
100
AcDbArc
 50
29.0546040991
 51
90.0
  0
LINE
  5
45A
330
1F
100
AcDbEntity
  8
0
  6
Continuous
 62
     7
370
    15
100
AcDbLine
 10
135.8566058825
 20
128.624032373
 30
0.0
 11
136.9817068826
 21
126.6697562583
 31
0.0
  0
ARC
  5
45B
330
1F
100
AcDbEntity
  8
0
  6
Continuous
 62
     7
370
    15
100
AcDbCircle
 10
137.0837067807
 20
126.7297534046
 30
0.0
 40
0.1183384975398588
100
AcDbArc
 50
210.4655449195
 51
329.5344550805
  0
LINE
  5
45C
330
1F
100
AcDbEntity
  8
0
  6
Continuous
 62
     7
370
    15
100
AcDbLine
 10
137.1857065733
 20
126.6697562583
 30
0.0
 11
138.3077067349
 21
128.6257534571
 31
0.0
  0
ARC
  5
45D
330
1F
100
AcDbEntity
  8
0
  6
Continuous
 62
     7
370
    15
100
AcDbCircle
 10
138.4097067807
 20
128.5657534046
 30
0.0
 40
0.1183384975399283
100
AcDbArc
 50
87.1375947738
 51
149.5344550805
  0
LINE
  5
45E
330
1F
100
AcDbEntity
  8
0
  6
Continuous
 62
     7
370
    15
100
AcDbLine
 10
138.4156162876
 20
128.6839424916
 30
0.0
 11
140.6657067619
 21
128.6797552653
 31
0.0
  0
ARC
  5
45F
330
1F
100
AcDbEntity
  8
0
  6
Continuous
 62
     7
370
    15
100
AcDbCircle
 10
140.6657067807
 20
128.7997534046
 30
0.0
 40
0.1200000000000424
100
AcDbArc
 50
270.0
 51
29.0546040991
  0
LINE
  5
460
330
1F
100
AcDbEntity
  8
0
  6
Continuous
 62
     7
370
    15
100
AcDbLine
 10
140.770605698
 20
128.8580290325
 30
0.0
 11
139.6397068656
 21
130.8097533234
 31
0.0
  0
ARC
  5
461
330
1F
100
AcDbEntity
  8
0
  6
Continuous
 62
     7
370
    15
100
AcDbCircle
 10
139.7417067807
 20
130.8697534046
 30
0.0
 40
0.1183384975398559
100
AcDbArc
 50
149.5344550805
 51
210.4655449195
  0
LINE
  5
462
330
1F
100
AcDbEntity
  8
0
  6
Continuous
 62
     7
370
    15
100
AcDbLine
 10
139.6397068656
 20
130.9297523745
 30
0.0
 11
140.7737067693
 21
132.8797518559
 31
0.0
  0
ARC
  5
463
330
1F
100
AcDbEntity
  8
0
  6
Continuous
 62
     7
370
    15
100
AcDbCircle
 10
140.6717067807
 20
132.9397534046
 30
0.0
 40
0.1183384975399251
100
AcDbArc
 50
329.5344550805
 51
92.8624052261
  0
LINE
  5
464
330
1F
100
AcDbEntity
  8
0
  6
Continuous
 62
     7
370
    15
100
AcDbLine
 10
140.6657972166
 20
133.0579436668
 30
0.0
 11
138.4157068587
 21
133.0537527152
 31
0.0
  0
ARC
  5
465
330
1F
100
AcDbEntity
  8
0
  6
Continuous
 62
     7
370
    15
100
AcDbCircle
 10
73.4777067807
 20
105.3997534046
 30
0.0
 40
0.1200000000000493
100
AcDbArc
 50
29.0546040991
 51
90.0
  0
LINE
  5
466
330
1F
100
AcDbEntity
  8
0
  6
Continuous
 62
     7
370
    15
100
AcDbLine
 10
73.5826043438
 20
105.4580278047
 30
0.0
 11
74.7077090691
 21
103.5037554153
 31
0.0
  0
ARC
  5
467
330
1F
100
AcDbEntity
  8
0
  6
Continuous
 62
     7
370
    15
100
AcDbCircle
 10
74.8097067807
 20
103.5637534046
 30
0.0
 40
0.1183384975398984
100
AcDbArc
 50
210.4655449194
 51
329.5344550805
  0
LINE
  5
468
330
1F
100
AcDbEntity
  8
0
  6
Continuous
 62
     7
370
    15
100
AcDbLine
 10
74.9117059659
 20
103.5037554153
 30
0.0
 11
76.0337037991
 21
105.4597563394
 31
0.0
  0
ARC
  5
469
330
1F
100
AcDbEntity
  8
0
  6
Continuous
 62
     7
370
    15
100
AcDbCircle
 10
76.1357067807
 20
105.3997534046
 30
0.0
 40
0.1183384975399446
100
AcDbArc
 50
87.1375947739
 51
149.5344550806
  0
LINE
  5
46A
330
1F
100
AcDbEntity
  8
0
  6
Continuous
 62
     7
370
    15
100
AcDbLine
 10
76.1416180085
 20
105.5179453738
 30
0.0
 11
78.3917082499
 21
105.513750697
 31
0.0
  0
ARC
  5
46B
330
1F
100
AcDbEntity
  8
0
  6
Continuous
 62
     7
370
    15
100
AcDbCircle
 10
78.3917067807
 20
105.6337534046
 30
0.0
 40
0.1199999999999903
100
AcDbArc
 50
270.0
 51
29.0546040991
  0
LINE
  5
46C
330
1F
100
AcDbEntity
  8
0
  6
Continuous
 62
     7
370
    15
100
AcDbLine
 10
78.4966049741
 20
105.6920281895
 30
0.0
 11
77.3657036971
 21
107.6437524803
 31
0.0
  0
ARC
  5
46D
330
1F
100
AcDbEntity
  8
0
  6
Continuous
 62
     7
370
    15
100
AcDbCircle
 10
77.4677067807
 20
107.7037534046
 30
0.0
 40
0.1183384975399431
100
AcDbArc
 50
149.5344550806
 51
210.4655449194
  0
LINE
  5
46E
330
1F
100
AcDbEntity
  8
0
  6
Continuous
 62
     7
370
    15
100
AcDbLine
 10
77.3657036971
 20
107.7637515314
 30
0.0
 11
78.4997044157
 21
109.7137547382
 31
0.0
  0
ARC
  5
46F
330
1F
100
AcDbEntity
  8
0
  6
Continuous
 62
     7
370
    15
100
AcDbCircle
 10
78.3977067807
 20
109.7737534046
 30
0.0
 40
0.1183384975399251
100
AcDbArc
 50
329.5344550805
 51
92.8624052261
  0
LINE
  5
470
330
1F
100
AcDbEntity
  8
0
  6
Continuous
 62
     7
370
    15
100
AcDbLine
 10
78.3917976569
 20
109.8919428237
 30
0.0
 11
76.1417074155
 21
109.8877555974
 31
0.0
  0
ARC
  5
471
330
1F
100
AcDbEntity
  8
0
  6
Continuous
 62
     7
370
    15
100
AcDbCircle
 10
76.1417067807
 20
110.0077534046
 30
0.0
 40
0.1200000000000106
100
AcDbArc
 50
209.0546040991
 51
270.0
  0
LINE
  5
472
330
1F
100
AcDbEntity
  8
0
  6
Continuous
 62
     7
370
    15
100
AcDbLine
 10
76.0368106912
 20
109.9494762071
 30
0.0
 11
74.9117059659
 21
111.9037560471
 31
0.0
  0
ARC
  5
473
330
1F
100
AcDbEntity
  8
0
  6
Continuous
 62
     7
370
    15
100
AcDbCircle
 10
74.8097067807
 20
111.8437534046
 30
0.0
 40
0.1183384975399006
100
AcDbArc
 50
30.4655449195
 51
149.5344550805
  0
LINE
  5
474
330
1F
100
AcDbEntity
  8
0
  6
Continuous
 62
     7
370
    15
100
AcDbLine
 10
74.7077090691
 20
111.9037560471
 30
0.0
 11
73.5851077388
 21
109.9465555795
 31
0.0
  0
ARC
  5
475
330
1F
100
AcDbEntity
  8
0
  6
Continuous
 62
     7
370
    15
100
AcDbCircle
 10
73.4807725389
 20
110.0060688311
 30
0.0
 40
0.120115444469091
100
AcDbArc
 50
269.9686329475
 51
330.2982491442
  0
LINE
  5
476
330
1F
100
AcDbEntity
  8
0
  6
Continuous
 62
     7
370
    15
100
AcDbLine
 10
73.4807102035
 20
109.8859525569
 30
0.0
 11
71.2277067851
 21
109.8937533148
 31
0.0
  0
ARC
  5
477
330
1F
100
AcDbEntity
  8
0
  6
Continuous
 62
     7
370
    15
100
AcDbCircle
 10
71.2277067807
 20
109.7737534046
 30
0.0
 40
0.120000000000041
100
AcDbArc
 50
90.0
 51
209.0546040991
  0
LINE
  5
478
330
1F
100
AcDbEntity
  8
0
  6
Continuous
 62
     7
370
    15
100
AcDbLine
 10
71.1228100609
 20
109.7154758223
 30
0.0
 11
72.2537038873
 21
107.7637515314
 31
0.0
  0
ARC
  5
479
330
1F
100
AcDbEntity
  8
0
  6
Continuous
 62
     7
370
    15
100
AcDbCircle
 10
72.1517067807
 20
107.7037534046
 30
0.0
 40
0.1183384975398999
100
AcDbArc
 50
329.5344550805
 51
30.4655449195
  0
LINE
  5
47A
330
1F
100
AcDbEntity
  8
0
  6
Continuous
 62
     7
370
    15
100
AcDbLine
 10
72.2537038873
 20
107.6437524803
 30
0.0
 11
71.1197031687
 21
105.6937567242
 31
0.0
  0
ARC
  5
47B
330
1F
100
AcDbEntity
  8
0
  6
Continuous
 62
     7
370
    15
100
AcDbCircle
 10
71.2217067807
 20
105.6337534046
 30
0.0
 40
0.1183384975399201
100
AcDbArc
 50
149.5344550805
 51
272.8624052261
  0
LINE
  5
47C
330
1F
100
AcDbEntity
  8
0
  6
Continuous
 62
     7
370
    15
100
AcDbLine
 10
71.2276173781
 20
105.5155611881
 30
0.0
 11
73.4777076195
 21
105.5197558649
 31
0.0
  0
ARC
  5
47D
330
1F
100
AcDbEntity
  8
0
  6
Continuous
 62
     7
370
    15
100
AcDbCircle
 10
138.4157067807
 20
83.9164558524
 30
0.0
 40
0.1199999999999903
100
AcDbArc
 50
209.0546040991
 51
270.0
  0
LINE
  5
47E
330
1F
100
AcDbEntity
  8
0
  6
Continuous
 62
     7
370
    15
100
AcDbLine
 10
138.310808039
 20
83.858176256
 30
0.0
 11
137.1857065733
 21
85.8064583786
 31
0.0
  0
ARC
  5
47F
330
1F
100
AcDbEntity
  8
0
  6
Continuous
 62
     7
370
    15
100
AcDbCircle
 10
137.0837067807
 20
85.7464558524
 30
0.0
 40
0.1183384975398617
100
AcDbArc
 50
30.4655449194
 51
149.5344550805
  0
LINE
  5
480
330
1F
100
AcDbEntity
  8
0
  6
Continuous
 62
     7
370
    15
100
AcDbLine
 10
136.9817068826
 20
85.8064583786
 30
0.0
 11
135.8591069493
 21
83.8552556284
 31
0.0
  0
ARC
  5
481
330
1F
100
AcDbEntity
  8
0
  6
Continuous
 62
     7
370
    15
100
AcDbCircle
 10
135.7547725389
 20
83.9147712789
 30
0.0
 40
0.1201154444691074
100
AcDbArc
 50
269.9686329474
 51
330.2982491441
  0
LINE
  5
482
330
1F
100
AcDbEntity
  8
0
  6
Continuous
 62
     7
370
    15
100
AcDbLine
 10
135.75470662
 20
83.7946526058
 30
0.0
 11
133.5017064612
 21
83.8024533637
 31
0.0
  0
ARC
  5
483
330
1F
100
AcDbEntity
  8
0
  6
Continuous
 62
     7
370
    15
100
AcDbCircle
 10
133.5017067807
 20
83.6824558524
 30
0.0
 40
0.1200000000000188
100
AcDbArc
 50
90.0
 51
209.0546040991
  0
LINE
  5
484
330
1F
100
AcDbEntity
  8
0
  6
Continuous
 62
     7
370
    15
100
AcDbLine
 10
133.3968078743
 20
83.6241758712
 30
0.0
 11
134.5277068231
 21
81.6724590309
 31
0.0
  0
ARC
  5
485
330
1F
100
AcDbEntity
  8
0
  6
Continuous
 62
     7
370
    15
100
AcDbCircle
 10
134.4257067807
 20
81.6124558524
 30
0.0
 40
0.1183384975399698
100
AcDbArc
 50
329.5344550806
 51
30.4655449195
  0
LINE
  5
486
330
1F
100
AcDbEntity
  8
0
  6
Continuous
 62
     7
370
    15
100
AcDbLine
 10
134.5277068231
 20
81.5524525293
 30
0.0
 11
133.3937065701
 21
79.6024567731
 31
0.0
  0
ARC
  5
487
330
1F
100
AcDbEntity
  8
0
  6
Continuous
 62
     7
370
    15
100
AcDbCircle
 10
133.4957067807
 20
79.5424558524
 30
0.0
 40
0.1183384975399496
100
AcDbArc
 50
149.5344550806
 51
272.8624052261
  0
LINE
  5
488
330
1F
100
AcDbEntity
  8
0
  6
Continuous
 62
     7
370
    15
100
AcDbLine
 10
133.5016161229
 20
79.4242686876
 30
0.0
 11
135.75170683
 21
79.4284559139
 31
0.0
  0
ARC
  5
489
330
1F
100
AcDbEntity
  8
0
  6
Continuous
 62
     7
370
    15
100
AcDbCircle
 10
135.7517067807
 20
79.3084558524
 30
0.0
 40
0.1200000000000045
100
AcDbArc
 50
29.0546040991
 51
90.0
  0
LINE
  5
48A
330
1F
100
AcDbEntity
  8
0
  6
Continuous
 62
     7
370
    15
100
AcDbLine
 10
135.8566058825
 20
79.3667353042
 30
0.0
 11
136.9817068826
 21
77.4124554642
 31
0.0
  0
ARC
  5
48B
330
1F
100
AcDbEntity
  8
0
  6
Continuous
 62
     7
370
    15
100
AcDbCircle
 10
137.0837067807
 20
77.4724558524
 30
0.0
 40
0.1183384975398516
100
AcDbArc
 50
210.4655449195
 51
329.5344550805
  0
LINE
  5
48C
330
1F
100
AcDbEntity
  8
0
  6
Continuous
 62
     7
370
    15
100
AcDbLine
 10
137.1857065733
 20
77.4124554642
 30
0.0
 11
138.3077067349
 21
79.3684563883
 31
0.0
  0
ARC
  5
48D
330
1F
100
AcDbEntity
  8
0
  6
Continuous
 62
     7
370
    15
100
AcDbCircle
 10
138.4097067807
 20
79.3084558524
 30
0.0
 40
0.1183384975399425
100
AcDbArc
 50
87.1375947738
 51
149.5344550805
  0
LINE
  5
48E
330
1F
100
AcDbEntity
  8
0
  6
Continuous
 62
     7
370
    15
100
AcDbLine
 10
138.4156162876
 20
79.4266454228
 30
0.0
 11
140.6657067619
 21
79.4224581965
 31
0.0
  0
ARC
  5
48F
330
1F
100
AcDbEntity
  8
0
  6
Continuous
 62
     7
370
    15
100
AcDbCircle
 10
140.6657067807
 20
79.5424558524
 30
0.0
 40
0.1200000000000285
100
AcDbArc
 50
270.0
 51
29.0546040991
  0
LINE
  5
490
330
1F
100
AcDbEntity
  8
0
  6
Continuous
 62
     7
370
    15
100
AcDbLine
 10
140.770605698
 20
79.600735689
 30
0.0
 11
139.6397068656
 21
81.5524525293
 31
0.0
  0
ARC
  5
491
330
1F
100
AcDbEntity
  8
0
  6
Continuous
 62
     7
370
    15
100
AcDbCircle
 10
139.7417067807
 20
81.6124558524
 30
0.0
 40
0.1183384975398559
100
AcDbArc
 50
149.5344550805
 51
210.4655449195
  0
LINE
  5
492
330
1F
100
AcDbEntity
  8
0
  6
Continuous
 62
     7
370
    15
100
AcDbLine
 10
139.6397068656
 20
81.6724590309
 30
0.0
 11
140.7737067693
 21
83.6224547871
 31
0.0
  0
ARC
  5
493
330
1F
100
AcDbEntity
  8
0
  6
Continuous
 62
     7
370
    15
100
AcDbCircle
 10
140.6717067807
 20
83.6824558524
 30
0.0
 40
0.1183384975399425
100
AcDbArc
 50
329.5344550806
 51
92.8624052261
  0
LINE
  5
494
330
1F
100
AcDbEntity
  8
0
  6
Continuous
 62
     7
370
    15
100
AcDbLine
 10
140.6657972166
 20
83.8006503232
 30
0.0
 11
138.4157068587
 21
83.7964556464
 31
0.0
  0
ARC
  5
495
330
1F
100
AcDbEntity
  8
0
  6
Continuous
 62
     7
370
    15
100
AcDbCircle
 10
71.1256908059
 20
129.5617839223
 30
0.0
 40
3.747178746739618
100
AcDbArc
 50
269.4406278228
 51
27.6299883986
  0
ARC
  5
496
330
1F
100
AcDbEntity
  8
0
  6
Continuous
 62
     7
370
    15
100
AcDbCircle
 10
61.1717067807
 20
228.4597534046
 30
0.0
 40
0.1183384975399456
100
AcDbArc
 50
87.1375947739
 51
149.5344550806
  0
ENDSEC
  0
SECTION
  2
OBJECTS
  0
DICTIONARY
  5
C
330
0
100
AcDbDictionary
281
     1
  3
ACAD_GROUP
350
D
  3
ACAD_LAYOUT
350
1A
  3
ACAD_MLINESTYLE
350
17
  3
ACAD_PLOTSETTINGS
350
19
  3
ACAD_PLOTSTYLENAME
350
E
  0
DICTIONARY
  5
D
102
{ACAD_REACTORS
330
C
102
}
330
C
100
AcDbDictionary
281
     1
  0
DICTIONARY
  5
1A
102
{ACAD_REACTORS
330
C
102
}
330
C
100
AcDbDictionary
281
     1
  3
Layout1
350
1E
  3
Layout2
350
26
  3
Model
350
22
  0
DICTIONARY
  5
17
102
{ACAD_REACTORS
330
C
102
}
330
C
100
AcDbDictionary
281
     1
  3
Standard
350
18
  0
DICTIONARY
  5
19
102
{ACAD_REACTORS
330
C
102
}
330
C
100
AcDbDictionary
281
     1
  0
ACDBDICTIONARYWDFLT
  5
E
102
{ACAD_REACTORS
330
C
102
}
330
C
100
AcDbDictionary
281
     1
  3
Normal
350
F
100
AcDbDictionaryWithDefault
340
F
  0
LAYOUT
  5
1E
102
{ACAD_REACTORS
330
1A
102
}
330
1A
100
AcDbPlotSettings
  1

  2
none_device
  4

  6

 40
0.0
 41
0.0
 42
0.0
 43
0.0
 44
0.0
 45
0.0
 46
0.0
 47
0.0
 48
0.0
 49
0.0
140
0.0
141
0.0
142
1.0
143
1.0
 70
   688
 72
     0
 73
     0
 74
     5
  7

 75
    16
147
1.0
148
0.0
149
0.0
100
AcDbLayout
  1
Layout1
 70
     1
 71
     1
 10
0.0
 20
0.0
 11
420.0
 21
297.0
 12
0.0
 22
0.0
 32
0.0
 14
1.0000000000E+20
 24
1.0000000000E+20
 34
1.0000000000E+20
 15
-1.0000000000E+20
 25
-1.0000000000E+20
 35
-1.0000000000E+20
146
0.0
 13
0.0
 23
0.0
 33
0.0
 16
1.0
 26
0.0
 36
0.0
 17
0.0
 27
1.0
 37
0.0
 76
     0
330
1B
  0
LAYOUT
  5
26
102
{ACAD_REACTORS
330
1A
102
}
330
1A
100
AcDbPlotSettings
  1

  2
none_device
  4

  6

 40
0.0
 41
0.0
 42
0.0
 43
0.0
 44
0.0
 45
0.0
 46
0.0
 47
0.0
 48
0.0
 49
0.0
140
0.0
141
0.0
142
1.0
143
1.0
 70
   688
 72
     0
 73
     0
 74
     5
  7

 75
    16
147
1.0
148
0.0
149
0.0
100
AcDbLayout
  1
Layout2
 70
     1
 71
     2
 10
0.0
 20
0.0
 11
0.0
 21
0.0
 12
0.0
 22
0.0
 32
0.0
 14
0.0
 24
0.0
 34
0.0
 15
0.0
 25
0.0
 35
0.0
146
0.0
 13
0.0
 23
0.0
 33
0.0
 16
1.0
 26
0.0
 36
0.0
 17
0.0
 27
1.0
 37
0.0
 76
     0
330
23
  0
LAYOUT
  5
22
102
{ACAD_REACTORS
330
1A
102
}
330
1A
100
AcDbPlotSettings
  1

  2
none_device
  4

  6

 40
0.0
 41
0.0
 42
0.0
 43
0.0
 44
0.0
 45
0.0
 46
0.0
 47
0.0
 48
0.0
 49
0.0
140
0.0
141
0.0
142
1.0
143
1.0
 70
  1712
 72
     0
 73
     0
 74
     0
  7

 75
     0
147
1.0
148
0.0
149
0.0
100
AcDbLayout
  1
Model
 70
     1
 71
     0
 10
0.0
 20
0.0
 11
279.4
 21
215.9
 12
0.0
 22
0.0
 32
0.0
 14
0.0
 24
0.0
 34
0.0
 15
279.4
 25
215.9
 35
0.0
146
0.0
 13
0.0
 23
0.0
 33
0.0
 16
1.0
 26
0.0
 36
0.0
 17
0.0
 27
1.0
 37
0.0
 76
     0
330
1F
331
29
  0
MLINESTYLE
  5
18
102
{ACAD_REACTORS
330
17
102
}
330
17
100
AcDbMlineStyle
  2
Standard
 70
     0
  3

 62
   256
 51
90.0
 52
90.0
 71
     2
 49
0.5
 62
   256
  6
BYLAYER
 49
-0.5
 62
   256
  6
BYLAYER
  0
ACDBPLACEHOLDER
  5
F
102
{ACAD_REACTORS
330
E
102
}
330
E
  0
ENDSEC
  0
EOF
