  0
SECTION
  2
HEADER
  9
$ACADVER
  1
AC1027
  9
$ACADMAINTVER
 70
     8
  9
$DWGCODEPAGE
  3
ANSI_1252
  9
$REQUIREDVERSIONS
160
                 0
  9
$INSBASE
 10
0.0
 20
0.0
 30
0.0
  9
$EXTMIN
 10
1.000000000000000E+20
 20
1.000000000000000E+20
 30
1.000000000000000E+20
  9
$EXTMAX
 10
-1.000000000000000E+20
 20
-1.000000000000000E+20
 30
-1.000000000000000E+20
  9
$LIMMIN
 10
0.0
 20
0.0
  9
$LIMMAX
 10
12.0
 20
9.0
  9
$ORTHOMODE
 70
     0
  9
$REGENMODE
 70
     1
  9
$FILLMODE
 70
     1
  9
$QTEXTMODE
 70
     0
  9
$MIRRTEXT
 70
     1
  9
$LTSCALE
 40
1.0
  9
$ATTMODE
 70
     1
  9
$TEXTSIZE
 40
0.2
  9
$TRACEWID
 40
0.05
  9
$TEXTSTYLE
  7
Standard
  9
$CLAYER
  8
0
  9
$CELTYPE
  6
ByLayer
  9
$CECOLOR
 62
    18
  9
$CELTSCALE
 40
1.0
  9
$DISPSILH
 70
     0
  9
$DIMSCALE
 40
1.0
  9
$DIMASZ
 40
0.18
  9
$DIMEXO
 40
0.0625
  9
$DIMDLI
 40
0.38
  9
$DIMRND
 40
0.0
  9
$DIMDLE
 40
0.0
  9
$DIMEXE
 40
0.18
  9
$DIMTP
 40
0.0
  9
$DIMTM
 40
0.0
  9
$DIMTXT
 40
0.18
  9
$DIMCEN
 40
0.09
  9
$DIMTSZ
 40
0.0
  9
$DIMTOL
 70
     0
  9
$DIMLIM
 70
     0
  9
$DIMTIH
 70
     1
  9
$DIMTOH
 70
     1
  9
$DIMSE1
 70
     0
  9
$DIMSE2
 70
     0
  9
$DIMTAD
 70
     0
  9
$DIMZIN
 70
     0
  9
$DIMBLK
  1

  9
$DIMASO
 70
     1
  9
$DIMSHO
 70
     1
  9
$DIMPOST
  1

  9
$DIMAPOST
  1

  9
$DIMALT
 70
     0
  9
$DIMALTD
 70
     2
  9
$DIMALTF
 40
25.4
  9
$DIMLFAC
 40
1.0
  9
$DIMTOFL
 70
     0
  9
$DIMTVP
 40
0.0
  9
$DIMTIX
 70
     0
  9
$DIMSOXD
 70
     0
  9
$DIMSAH
 70
     0
  9
$DIMBLK1
  1

  9
$DIMBLK2
  1

  9
$DIMSTYLE
  2
Standard
  9
$DIMCLRD
 70
    18
  9
$DIMCLRE
 70
    18
  9
$DIMCLRT
 70
    18
  9
$DIMTFAC
 40
1.0
  9
$DIMGAP
 40
0.09
  9
$DIMJUST
 70
     0
  9
$DIMSD1
 70
     0
  9
$DIMSD2
 70
     0
  9
$DIMTOLJ
 70
     1
  9
$DIMTZIN
 70
     0
  9
$DIMALTZ
 70
     0
  9
$DIMALTTZ
 70
     0
  9
$DIMUPT
 70
     0
  9
$DIMDEC
 70
     4
  9
$DIMTDEC
 70
     4
  9
$DIMALTU
 70
     2
  9
$DIMALTTD
 70
     2
  9
$DIMTXSTY
  7
Standard
  9
$DIMAUNIT
 70
     0
  9
$DIMADEC
 70
     0
  9
$DIMALTRND
 40
0.0
  9
$DIMAZIN
 70
     0
  9
$DIMDSEP
 70
    46
  9
$DIMATFIT
 70
     3
  9
$DIMFRAC
 70
     0
  9
$DIMLDRBLK
  1

  9
$DIMLUNIT
 70
     2
  9
$DIMLWD
 70
    -2
  9
$DIMLWE
 70
    -2
  9
$DIMTMOVE
 70
     0
  9
$DIMFXL
 40
1.0
  9
$DIMFXLON
 70
     0
  9
$DIMJOGANG
 40
0.7853981633974483
  9
$DIMTFILL
 70
     0
  9
$DIMTFILLCLR
 70
     0
  9
$DIMARCSYM
 70
     0
  9
$DIMLTYPE
  6

  9
$DIMLTEX1
  6

  9
$DIMLTEX2
  6

  9
$DIMTXTDIRECTION
 70
     0
  9
$LUNITS
 70
     2
  9
$LUPREC
 70
     4
  9
$SKETCHINC
 40
0.1
  9
$FILLETRAD
 40
0.5
  9
$AUNITS
 70
     0
  9
$AUPREC
 70
     0
  9
$MENU
  1
.
  9
$ELEVATION
 40
0.0
  9
$PELEVATION
 40
0.0
  9
$THICKNESS
 40
0.0
  9
$LIMCHECK
 70
     0
  9
$CHAMFERA
 40
0.0
  9
$CHAMFERB
 40
0.0
  9
$CHAMFERC
 40
0.0
  9
$CHAMFERD
 40
0.0
  9
$SKPOLY
 70
     0
  9
$TDCREATE
 40
2457778.907253426
  9
$TDUCREATE
 40
2457778.865586759
  9
$TDUPDATE
 40
2457778.907254537
  9
$TDUUPDATE
 40
2457778.865587871
  9
$TDINDWG
 40
0.0000000116
  9
$TDUSRTIMER
 40
0.0000000116
  9
$USRTIMER
 70
     1
  9
$ANGBASE
 50
0.0
  9
$ANGDIR
 70
     0
  9
$PDMODE
 70
     0
  9
$PDSIZE
 40
0.0
  9
$PLINEWID
 40
0.0
  9
$SPLFRAME
 70
     0
  9
$SPLINETYPE
 70
     6
  9
$SPLINESEGS
 70
     8
  9
$HANDSEED
  5
10228
  9
$SURFTAB1
 70
     6
  9
$SURFTAB2
 70
     6
  9
$SURFTYPE
 70
     6
  9
$SURFU
 70
     6
  9
$SURFV
 70
     6
  9
$UCSBASE
  2

  9
$UCSNAME
  2

  9
$UCSORG
 10
0.0
 20
0.0
 30
0.0
  9
$UCSXDIR
 10
1.0
 20
0.0
 30
0.0
  9
$UCSYDIR
 10
0.0
 20
1.0
 30
0.0
  9
$UCSORTHOREF
  2

  9
$UCSORTHOVIEW
 70
     0
  9
$UCSORGTOP
 10
0.0
 20
0.0
 30
0.0
  9
$UCSORGBOTTOM
 10
0.0
 20
0.0
 30
0.0
  9
$UCSORGLEFT
 10
0.0
 20
0.0
 30
0.0
  9
$UCSORGRIGHT
 10
0.0
 20
0.0
 30
0.0
  9
$UCSORGFRONT
 10
0.0
 20
0.0
 30
0.0
  9
$UCSORGBACK
 10
0.0
 20
0.0
 30
0.0
  9
$PUCSBASE
  2

  9
$PUCSNAME
  2

  9
$PUCSORG
 10
0.0
 20
0.0
 30
0.0
  9
$PUCSXDIR
 10
1.0
 20
0.0
 30
0.0
  9
$PUCSYDIR
 10
0.0
 20
1.0
 30
0.0
  9
$PUCSORTHOREF
  2

  9
$PUCSORTHOVIEW
 70
     0
  9
$PUCSORGTOP
 10
0.0
 20
0.0
 30
0.0
  9
$PUCSORGBOTTOM
 10
0.0
 20
0.0
 30
0.0
  9
$PUCSORGLEFT
 10
0.0
 20
0.0
 30
0.0
  9
$PUCSORGRIGHT
 10
0.0
 20
0.0
 30
0.0
  9
$PUCSORGFRONT
 10
0.0
 20
0.0
 30
0.0
  9
$PUCSORGBACK
 10
0.0
 20
0.0
 30
0.0
  9
$USERI1
 70
     0
  9
$USERI2
 70
     0
  9
$USERI3
 70
     0
  9
$USERI4
 70
     0
  9
$USERI5
 70
     0
  9
$USERR1
 40
0.0
  9
$USERR2
 40
0.0
  9
$USERR3
 40
0.0
  9
$USERR4
 40
0.0
  9
$USERR5
 40
0.0
  9
$WORLDVIEW
 70
     1
  9
$SHADEDGE
 70
     3
  9
$SHADEDIF
 70
    70
  9
$TILEMODE
 70
     1
  9
$MAXACTVP
 70
     2
  9
$PINSBASE
 10
0.0
 20
0.0
 30
0.0
  9
$PLIMCHECK
 70
     0
  9
$PEXTMIN
 10
1.000000000000000E+20
 20
1.000000000000000E+20
 30
1.000000000000000E+20
  9
$PEXTMAX
 10
-1.000000000000000E+20
 20
-1.000000000000000E+20
 30
-1.000000000000000E+20
  9
$PLIMMIN
 10
-0.25
 20
-0.25
  9
$PLIMMAX
 10
10.75
 20
8.25
  9
$UNITMODE
 70
     0
  9
$VISRETAIN
 70
     1
  9
$PLINEGEN
 70
     0
  9
$PSLTSCALE
 70
     1
  9
$TREEDEPTH
 70
  3020
  9
$CMLSTYLE
  2
Standard
  9
$CMLJUST
 70
     0
  9
$CMLSCALE
 40
1.0
  9
$PROXYGRAPHICS
 70
     1
  9
$MEASUREMENT
 70
     0
  9
$CELWEIGHT
370
    -1
  9
$ENDCAPS
280
     0
  9
$JOINSTYLE
280
     0
  9
$LWDISPLAY
290
     0
  9
$INSUNITS
 70
     4
  9
$HYPERLINKBASE
  1

  9
$STYLESHEET
  1

  9
$XEDIT
290
     1
  9
$CEPSNTYPE
380
     0
  9
$PSTYLEMODE
290
     1
  9
$FINGERPRINTGUID
  2
{3B43793E-3E78-4532-89D1-D0C9F3948736}
  9
$VERSIONGUID
  2
{FAEB1C32-E019-11D5-929B-00C0DF256EC4}
  9
$EXTNAMES
290
     1
  9
$PSVPSCALE
 40
0.0
  9
$OLESTARTUP
290
     0
  9
$SORTENTS
280
   127
  9
$INDEXCTL
280
     0
  9
$HIDETEXT
280
     1
  9
$XCLIPFRAME
280
     2
  9
$HALOGAP
280
     0
  9
$OBSCOLOR
 70
   257
  9
$OBSLTYPE
280
     0
  9
$INTERSECTIONDISPLAY
280
     0
  9
$INTERSECTIONCOLOR
 70
   257
  9
$DIMASSOC
280
     2
  9
$PROJECTNAME
  1

  9
$CAMERADISPLAY
290
     0
  9
$LENSLENGTH
 40
50.0
  9
$CAMERAHEIGHT
 40
0.0
  9
$STEPSPERSEC
 40
2.0
  9
$STEPSIZE
 40
6.0
  9
$3DDWFPREC
 40
2.0
  9
$PSOLWIDTH
 40
0.25
  9
$PSOLHEIGHT
 40
4.0
  9
$LOFTANG1
 40
1.570796326794897
  9
$LOFTANG2
 40
1.570796326794897
  9
$LOFTMAG1
 40
0.0
  9
$LOFTMAG2
 40
0.0
  9
$LOFTPARAM
 70
     7
  9
$LOFTNORMALS
280
     1
  9
$LATITUDE
 40
37.795
  9
$LONGITUDE
 40
-122.394
  9
$NORTHDIRECTION
 40
0.0
  9
$TIMEZONE
 70
 -8000
  9
$LIGHTGLYPHDISPLAY
280
     1
  9
$TILEMODELIGHTSYNCH
280
     1
  9
$CMATERIAL
347
10175
  9
$SOLIDHIST
280
     0
  9
$SHOWHIST
280
     1
  9
$DWFFRAME
280
     2
  9
$DGNFRAME
280
     2
  9
$REALWORLDSCALE
290
     1
  9
$INTERFERECOLOR
 62
   256
  9
$CSHADOW
280
     0
  9
$SHADOWPLANELOCATION
 40
0.0
  0
ENDSEC
  0
SECTION
  2
CLASSES
  0
CLASS
  1
ACDBDICTIONARYWDFLT
  2
AcDbDictionaryWithDefault
  3
ObjectDBX Classes
 90
        0
 91
        4
280
     0
281
     0
  0
CLASS
  1
VISUALSTYLE
  2
AcDbVisualStyle
  3
ObjectDBX Classes
 90
     4095
 91
        4
280
     0
281
     0
  0
CLASS
  1
MATERIAL
  2
AcDbMaterial
  3
ObjectDBX Classes
 90
     1153
 91
        4
280
     0
281
     0
  0
CLASS
  1
SCALE
  2
AcDbScale
  3
ObjectDBX Classes
 90
     1153
 91
        4
280
     0
281
     0
  0
CLASS
  1
TABLESTYLE
  2
AcDbTableStyle
  3
ObjectDBX Classes
 90
     4095
 91
        4
280
     0
281
     0
  0
CLASS
  1
MLEADERSTYLE
  2
AcDbMLeaderStyle
  3
ACDB_MLEADERSTYLE_CLASS
 90
     4095
 91
        4
280
     0
281
     0
  0
CLASS
  1
SUN
  2
AcDbSun
  3
SCENEOE
 90
     1153
 91
        4
280
     0
281
     0
  0
CLASS
  1
DICTIONARYVAR
  2
AcDbDictionaryVar
  3
ObjectDBX Classes
 90
        0
 91
        4
280
     0
281
     0
  0
CLASS
  1
CELLSTYLEMAP
  2
AcDbCellStyleMap
  3
ObjectDBX Classes
 90
     1152
 91
        4
280
     0
281
     0
  0
ENDSEC
  0
SECTION
  2
TABLES
  0
TABLE
  2
VPORT
  5
1013A
330
0
100
AcDbSymbolTable
 70
     1
  0
VPORT
  5
1015A
330
1013A
100
AcDbSymbolTableRecord
100
AcDbViewportTableRecord
  2
*Active
 70
     0
 10
0.0
 20
0.0
 11
1.0
 21
1.0
 12
520.0
 22
1200.0
 13
0.0
 23
0.0
 14
0.5
 24
0.5
 15
0.5
 25
0.5
 16
0.0
 26
0.0
 36
1.0
 17
0.0
 27
0.0
 37
0.0
 40
2557.746719160105
 41
1.833743842364532
 42
50.0
 43
0.0
 44
0.0
 50
0.0
 51
0.0
 71
     0
 72
   100
 73
     1
 74
     3
 75
     0
 76
     0
 77
     0
 78
     0
281
     0
 65
     1
110
0.0
120
0.0
130
0.0
111
1.0
121
0.0
131
0.0
112
0.0
122
1.0
132
0.0
 79
     0
146
0.0
 60
     3
 61
     5
292
     1
282
     1
141
0.0
142
0.0
 63
   250
361
1019E
  0
ENDTAB
  0
TABLE
  2
LTYPE
  5
10137
330
0
100
AcDbSymbolTable
 70
    52
  0
LTYPE
  5
10145
330
10137
100
AcDbSymbolTableRecord
100
AcDbLinetypeTableRecord
  2
ByBlock
 70
     0
  3

 72
    65
 73
     0
 40
0.0
  0
LTYPE
  5
10146
330
10137
100
AcDbSymbolTableRecord
100
AcDbLinetypeTableRecord
  2
ByLayer
 70
     0
  3

 72
    65
 73
     0
 40
0.0
  0
LTYPE
  5
10147
330
10137
100
AcDbSymbolTableRecord
100
AcDbLinetypeTableRecord
  2
Continuous
 70
     0
  3
Solid line
 72
    65
 73
     0
 40
0.0
  0
LTYPE
  5
101D7
330
10137
100
AcDbSymbolTableRecord
100
AcDbLinetypeTableRecord
  2
ZIGZAG
 70
     0
  3
Zig zag /\/\/\/\/\/\/\/\/\/\/\/\/\/\/\/\/\/\/\/\/\/\/\/
 72
    65
 73
     4
 40
20.32254
 49
0.00254
 74
     0
 49
-5.08
 74
     2
 75
     0
340
101D5
 46
5.08
 50
0.0
 44
-5.08
 45
0.0
  9
ZIG
 49
-10.16
 74
     2
 75
     0
340
101D6
 46
5.08
 50
180.0
 44
5.08
 45
0.0
  9
ZIG
 49
-5.08
 74
     0
  0
LTYPE
  5
101D9
330
10137
100
AcDbSymbolTableRecord
100
AcDbLinetypeTableRecord
  2
TRACKS
 70
     0
  3
Tracks -|-|-|-|-|-|-|-|-|-|-|-|-|-|-|-|-|-|-|-|-|-|-|-|-
 72
    65
 73
     2
 40
7.62
 49
3.81
 74
     2
 75
     0
340
101D8
 46
6.35
 50
0.0
 44
0.0
 45
0.0
  9
TRACK1
 49
3.81
 74
     0
  0
LTYPE
  5
101DA
330
10137
100
AcDbSymbolTableRecord
100
AcDbLinetypeTableRecord
  2
PHANTOMX2
 70
     0
  3
Phantom (2x) ____________    ____    ____   _
 72
    65
 73
     6
 40
127.0
 49
63.5
 74
     0
 49
-12.7
 74
     0
 49
12.7
 74
     0
 49
-12.7
 74
     0
 49
12.7
 74
     0
 49
-12.7
 74
     0
  0
LTYPE
  5
101DB
330
10137
100
AcDbSymbolTableRecord
100
AcDbLinetypeTableRecord
  2
PHANTOM2
 70
     0
  3
Phantom (.5x) ___ _ _ ___ _ _ ___ _ _ ___ _ _
 72
    65
 73
     6
 40
31.75
 49
15.875
 74
     0
 49
-3.175
 74
     0
 49
3.175
 74
     0
 49
-3.175
 74
     0
 49
3.175
 74
     0
 49
-3.175
 74
     0
  0
LTYPE
  5
101DC
330
10137
100
AcDbSymbolTableRecord
100
AcDbLinetypeTableRecord
  2
PHANTOM
 70
     0
  3
Phantom ______  __  __  ______  __  __  ______ 
 72
    65
 73
     6
 40
63.50000000000001
 49
31.75
 74
     0
 49
-6.35
 74
     0
 49
6.35
 74
     0
 49
-6.35
 74
     0
 49
6.35
 74
     0
 49
-6.35
 74
     0
  0
LTYPE
  5
101DE
330
10137
100
AcDbSymbolTableRecord
100
AcDbLinetypeTableRecord
  2
HOT_WATER_SUPPLY
 70
     0
  3
Hot water supply ---- HW ---- HW ---- HW ----
 72
    65
 73
     3
 40
22.86
 49
12.7
 74
     0
 49
-5.08
 74
     2
 75
     0
340
101DD
 46
2.54
 50
0.0
 44
-2.54
 45
-1.27
  9
HW
 49
-5.08
 74
     0
  0
LTYPE
  5
101DF
330
10137
100
AcDbSymbolTableRecord
100
AcDbLinetypeTableRecord
  2
HIDDENX2
 70
     0
  3
Hidden (2x) ____ ____ ____ ____ ____ ____ ____ 
 72
    65
 73
     2
 40
19.05
 49
12.7
 74
     0
 49
-6.35
 74
     0
  0
LTYPE
  5
101E0
330
10137
100
AcDbSymbolTableRecord
100
AcDbLinetypeTableRecord
  2
HIDDEN2
 70
     0
  3
Hidden (.5x) _ _ _ _ _ _ _ _ _ _ _ _ _ _ _ _ _ 
 72
    65
 73
     2
 40
4.762499999999999
 49
3.175
 74
     0
 49
-1.5875
 74
     0
  0
LTYPE
  5
101E1
330
10137
100
AcDbSymbolTableRecord
100
AcDbLinetypeTableRecord
  2
HIDDEN
 70
     0
  3
Hidden __ __ __ __ __ __ __ __ __ __ __ __ __ __
 72
    65
 73
     2
 40
9.524999999999999
 49
6.35
 74
     0
 49
-3.175
 74
     0
  0
LTYPE
  5
101E3
330
10137
100
AcDbSymbolTableRecord
100
AcDbLinetypeTableRecord
  2
GAS_LINE
 70
     0
  3
Gas line ----GAS----GAS----GAS----GAS----GAS----GAS--
 72
    65
 73
     3
 40
24.13
 49
12.7
 74
     0
 49
-5.08
 74
     2
 75
     0
340
101E2
 46
2.54
 50
0.0
 44
-2.54
 45
-1.27
  9
GAS
 49
-6.35
 74
     0
  0
LTYPE
  5
101E5
330
10137
100
AcDbSymbolTableRecord
100
AcDbLinetypeTableRecord
  2
FENCELINE2
 70
     0
  3
Fenceline square ----[]-----[]----[]-----[]----[]---
 72
    65
 73
     4
 40
36.83
 49
6.35
 74
     0
 49
-2.54
 74
     2
 75
     0
340
101E4
 46
2.54
 50
0.0
 44
-2.54
 45
0.0
  9
BOX
 49
-2.54
 74
     0
 49
25.4
 74
     0
  0
LTYPE
  5
101E6
330
10137
100
AcDbSymbolTableRecord
100
AcDbLinetypeTableRecord
  2
ACAD_ISO09W100
 70
     0
  3
ISO long-dash double-short-dash ____ __ __ ____
 72
    65
 73
     6
 40
45.0
 49
24.0
 74
     0
 49
-3.0
 74
     0
 49
6.0
 74
     0
 49
-3.0
 74
     0
 49
6.0
 74
     0
 49
-3.0
 74
     0
  0
LTYPE
  5
101E7
330
10137
100
AcDbSymbolTableRecord
100
AcDbLinetypeTableRecord
  2
ACAD_ISO08W100
 70
     0
  3
ISO long-dash short-dash ____ __ ____ __ ____ _
 72
    65
 73
     4
 40
36.0
 49
24.0
 74
     0
 49
-3.0
 74
     0
 49
6.0
 74
     0
 49
-3.0
 74
     0
  0
LTYPE
  5
101E8
330
10137
100
AcDbSymbolTableRecord
100
AcDbLinetypeTableRecord
  2
ACAD_ISO07W100
 70
     0
  3
ISO dot . . . . . . . . . . . . . . . . . . . . 
 72
    65
 73
     2
 40
3.0
 49
0.0
 74
     0
 49
-3.0
 74
     0
  0
LTYPE
  5
101E9
330
10137
100
AcDbSymbolTableRecord
100
AcDbLinetypeTableRecord
  2
ACAD_ISO06W100
 70
     0
  3
ISO long-dash triple-dot ____ ... ____ ... ____
 72
    65
 73
     8
 40
36.0
 49
24.0
 74
     0
 49
-3.0
 74
     0
 49
0.0
 74
     0
 49
-3.0
 74
     0
 49
0.0
 74
     0
 49
-3.0
 74
     0
 49
0.0
 74
     0
 49
-3.0
 74
     0
  0
LTYPE
  5
101EA
330
10137
100
AcDbSymbolTableRecord
100
AcDbLinetypeTableRecord
  2
ACAD_ISO05W100
 70
     0
  3
ISO long-dash double-dot ____ .. ____ .. ____ . 
 72
    65
 73
     6
 40
33.0
 49
24.0
 74
     0
 49
-3.0
 74
     0
 49
0.0
 74
     0
 49
-3.0
 74
     0
 49
0.0
 74
     0
 49
-3.0
 74
     0
  0
LTYPE
  5
101EB
330
10137
100
AcDbSymbolTableRecord
100
AcDbLinetypeTableRecord
  2
ACAD_ISO04W100
 70
     0
  3
ISO long-dash dot ____ . ____ . ____ . ____ . _
 72
    65
 73
     4
 40
30.0
 49
24.0
 74
     0
 49
-3.0
 74
     0
 49
0.0
 74
     0
 49
-3.0
 74
     0
  0
LTYPE
  5
101EC
330
10137
100
AcDbSymbolTableRecord
100
AcDbLinetypeTableRecord
  2
ACAD_ISO03W100
 70
     0
  3
ISO dash space __    __    __    __    __    __
 72
    65
 73
     2
 40
30.0
 49
12.0
 74
     0
 49
-18.0
 74
     0
  0
LTYPE
  5
101ED
330
10137
100
AcDbSymbolTableRecord
100
AcDbLinetypeTableRecord
  2
ACAD_ISO02W100
 70
     0
  3
ISO dash __ __ __ __ __ __ __ __ __ __ __ __ __
 72
    65
 73
     2
 40
15.0
 49
12.0
 74
     0
 49
-3.0
 74
     0
  0
LTYPE
  5
101EF
330
10137
100
AcDbSymbolTableRecord
100
AcDbLinetypeTableRecord
  2
CUTRIGHT
 70
     0
  3
G42 ----/----/-----/---
 72
    65
 73
     2
 40
10.16
 49
5.08
 74
     2
 75
     0
340
101EE
 46
2.54
 50
180.0
 44
0.0
 45
0.0
  9
HRIGHT_ARROW
 49
5.08
 74
     0
  0
LTYPE
  5
101F1
330
10137
100
AcDbSymbolTableRecord
100
AcDbLinetypeTableRecord
  2
CUTLEFT2
 70
     0
  3
G41 reversed----/----/----/----
 72
    65
 73
     2
 40
10.16
 49
5.08
 74
     2
 75
     0
340
101F0
 46
2.54
 50
0.0
 44
0.0
 45
0.0
  9
LRIGHT_ARROW
 49
5.08
 74
     0
  0
LTYPE
  5
101F3
330
10137
100
AcDbSymbolTableRecord
100
AcDbLinetypeTableRecord
  2
CUTLEFT
 70
     0
  3
G41 ----\----\----\----
 72
    65
 73
     2
 40
10.16
 49
5.08
 74
     2
 75
     0
340
101F2
 46
2.54
 50
180.0
 44
0.0
 45
0.0
  9
LRIGHT_ARROW
 49
5.08
 74
     0
  0
LTYPE
  5
101F4
330
10137
100
AcDbSymbolTableRecord
100
AcDbLinetypeTableRecord
  2
CENTERX2
 70
     0
  3
Center (2x) ________  __  ________  __  _____
 72
    65
 73
     4
 40
101.6
 49
63.5
 74
     0
 49
-12.7
 74
     0
 49
12.7
 74
     0
 49
-12.7
 74
     0
  0
LTYPE
  5
101F5
330
10137
100
AcDbSymbolTableRecord
100
AcDbLinetypeTableRecord
  2
CENTER2
 70
     0
  3
Center (.5x) ___ _ ___ _ ___ _ ___ _ ___ _ ___
 72
    65
 73
     4
 40
28.575
 49
19.05
 74
     0
 49
-3.175
 74
     0
 49
3.175
 74
     0
 49
-3.175
 74
     0
  0
LTYPE
  5
101F6
330
10137
100
AcDbSymbolTableRecord
100
AcDbLinetypeTableRecord
  2
CENTER
 70
     0
  3
Center ____ _ ____ _ ____ _ ____ _ ____ _ ____
 72
    65
 73
     4
 40
50.8
 49
31.75
 74
     0
 49
-6.35
 74
     0
 49
6.35
 74
     0
 49
-6.35
 74
     0
  0
LTYPE
  5
101F7
330
10137
100
AcDbSymbolTableRecord
100
AcDbLinetypeTableRecord
  2
BORDERX2
 70
     0
  3
Border (2x) ____  ____  .  ____  ____  .  ___
 72
    65
 73
     6
 40
88.89999999999999
 49
25.4
 74
     0
 49
-12.7
 74
     0
 49
25.4
 74
     0
 49
-12.7
 74
     0
 49
0.0
 74
     0
 49
-12.7
 74
     0
  0
LTYPE
  5
101F8
330
10137
100
AcDbSymbolTableRecord
100
AcDbLinetypeTableRecord
  2
BORDER2
 70
     0
  3
Border (.5x) __.__.__.__.__.__.__.__.__.__.__.
 72
    65
 73
     6
 40
22.225
 49
6.35
 74
     0
 49
-3.175
 74
     0
 49
6.35
 74
     0
 49
-3.175
 74
     0
 49
0.0
 74
     0
 49
-3.175
 74
     0
  0
LTYPE
  5
101F9
330
10137
100
AcDbSymbolTableRecord
100
AcDbLinetypeTableRecord
  2
BORDER
 70
     0
  3
Border __ __ . __ __ . __ __ . __ __ . __ __ .
 72
    65
 73
     6
 40
44.45
 49
12.7
 74
     0
 49
-6.35
 74
     0
 49
12.7
 74
     0
 49
-6.35
 74
     0
 49
0.0
 74
     0
 49
-6.35
 74
     0
  0
LTYPE
  5
101FC
330
10137
100
AcDbSymbolTableRecord
100
AcDbLinetypeTableRecord
  2
BATTING
 70
     0
  3
Batting SSSSSSSSSSSSSSSSSSSSSSSSSSSSSSSSSSSSSSSSSSSSSSS
 72
    65
 73
     4
 40
10.16254
 49
0.00254
 74
     0
 49
-2.54
 74
     2
 75
     0
340
101FA
 46
2.54
 50
0.0
 44
-2.54
 45
0.0
  9
BAT
 49
-5.08
 74
     2
 75
     0
340
101FB
 46
2.54
 50
180.0
 44
2.54
 45
0.0
  9
BAT
 49
-2.54
 74
     0
  0
LTYPE
  5
101FD
330
10137
100
AcDbSymbolTableRecord
100
AcDbLinetypeTableRecord
  2
ACAD_ISO15W100
 70
     0
  3
ISO double-dash triple-dot __ __ . . . __ __ . .
 72
    65
 73
    10
 40
39.0
 49
12.0
 74
     0
 49
-3.0
 74
     0
 49
12.0
 74
     0
 49
-3.0
 74
     0
 49
0.0
 74
     0
 49
-3.0
 74
     0
 49
0.0
 74
     0
 49
-3.0
 74
     0
 49
0.0
 74
     0
 49
-3.0
 74
     0
  0
LTYPE
  5
101FE
330
10137
100
AcDbSymbolTableRecord
100
AcDbLinetypeTableRecord
  2
ACAD_ISO14W100
 70
     0
  3
ISO dash triple-dot __ . . . __ . . . __ . . . _
 72
    65
 73
     8
 40
24.0
 49
12.0
 74
     0
 49
-3.0
 74
     0
 49
0.0
 74
     0
 49
-3.0
 74
     0
 49
0.0
 74
     0
 49
-3.0
 74
     0
 49
0.0
 74
     0
 49
-3.0
 74
     0
  0
LTYPE
  5
101FF
330
10137
100
AcDbSymbolTableRecord
100
AcDbLinetypeTableRecord
  2
ACAD_ISO13W100
 70
     0
  3
ISO double-dash double-dot __ __ . . __ __ . . _
 72
    65
 73
     8
 40
36.0
 49
12.0
 74
     0
 49
-3.0
 74
     0
 49
12.0
 74
     0
 49
-3.0
 74
     0
 49
0.0
 74
     0
 49
-3.0
 74
     0
 49
0.0
 74
     0
 49
-3.0
 74
     0
  0
LTYPE
  5
10200
330
10137
100
AcDbSymbolTableRecord
100
AcDbLinetypeTableRecord
  2
ACAD_ISO12W100
 70
     0
  3
ISO dash double-dot __ . . __ . . __ . . __ . . 
 72
    65
 73
     6
 40
21.0
 49
12.0
 74
     0
 49
-3.0
 74
     0
 49
0.0
 74
     0
 49
-3.0
 74
     0
 49
0.0
 74
     0
 49
-3.0
 74
     0
  0
LTYPE
  5
10201
330
10137
100
AcDbSymbolTableRecord
100
AcDbLinetypeTableRecord
  2
ACAD_ISO11W100
 70
     0
  3
ISO double-dash dot __ __ . __ __ . __ __ . __ _
 72
    65
 73
     6
 40
33.0
 49
12.0
 74
     0
 49
-3.0
 74
     0
 49
12.0
 74
     0
 49
-3.0
 74
     0
 49
0.0
 74
     0
 49
-3.0
 74
     0
  0
LTYPE
  5
10202
330
10137
100
AcDbSymbolTableRecord
100
AcDbLinetypeTableRecord
  2
ACAD_ISO10W100
 70
     0
  3
ISO dash dot __ . __ . __ . __ . __ . __ . __ . 
 72
    65
 73
     4
 40
18.0
 49
12.0
 74
     0
 49
-3.0
 74
     0
 49
0.0
 74
     0
 49
-3.0
 74
     0
  0
LTYPE
  5
10204
330
10137
100
AcDbSymbolTableRecord
100
AcDbLinetypeTableRecord
  2
FENCELINE1
 70
     0
  3
Fenceline circle ----0-----0----0-----0----0-----0--
 72
    65
 73
     4
 40
36.83
 49
6.35
 74
     0
 49
-2.54
 74
     2
 75
     0
340
10203
 46
2.54
 50
0.0
 44
-2.54
 45
0.0
  9
CIRC1
 49
-2.54
 74
     0
 49
25.4
 74
     0
  0
LTYPE
  5
10206
330
10137
100
AcDbSymbolTableRecord
100
AcDbLinetypeTableRecord
  2
DRAINAGE2
 70
     0
  3
Drainage reversed----<----<----<----
 72
    65
 73
     2
 40
10.16
 49
5.08
 74
     2
 75
     0
340
10205
 46
2.54
 50
0.0
 44
0.0
 45
0.0
  9
RIGHT_ARROW
 49
5.08
 74
     0
  0
LTYPE
  5
10208
330
10137
100
AcDbSymbolTableRecord
100
AcDbLinetypeTableRecord
  2
DRAINAGE
 70
     0
  3
Drainage ---->---->---->----
 72
    65
 73
     2
 40
10.16
 49
5.08
 74
     2
 75
     0
340
10207
 46
2.54
 50
180.0
 44
0.0
 45
0.0
  9
RIGHT_ARROW
 49
5.08
 74
     0
  0
LTYPE
  5
10209
330
10137
100
AcDbSymbolTableRecord
100
AcDbLinetypeTableRecord
  2
DOTX2
 70
     0
  3
Dot (2x) .  .  .  .  .  .  .  .  .  .  .  .  .  .
 72
    65
 73
     2
 40
12.7
 49
0.0
 74
     0
 49
-12.7
 74
     0
  0
LTYPE
  5
1020A
330
10137
100
AcDbSymbolTableRecord
100
AcDbLinetypeTableRecord
  2
DOT2
 70
     0
  3
Dot (.5x) ........................................
 72
    65
 73
     2
 40
3.175
 49
0.0
 74
     0
 49
-3.175
 74
     0
  0
LTYPE
  5
1020B
330
10137
100
AcDbSymbolTableRecord
100
AcDbLinetypeTableRecord
  2
DOT
 70
     0
  3
Dot . . . . . . . . . . . . . . . . . . . . . . . .
 72
    65
 73
     2
 40
6.35
 49
0.0
 74
     0
 49
-6.35
 74
     0
  0
LTYPE
  5
1020C
330
10137
100
AcDbSymbolTableRecord
100
AcDbLinetypeTableRecord
  2
DIVIDEX2
 70
     0
  3
Divide (2x) ________  .  .  ________  .  .  _
 72
    65
 73
     6
 40
63.5
 49
25.4
 74
     0
 49
-12.7
 74
     0
 49
0.0
 74
     0
 49
-12.7
 74
     0
 49
0.0
 74
     0
 49
-12.7
 74
     0
  0
LTYPE
  5
1020D
330
10137
100
AcDbSymbolTableRecord
100
AcDbLinetypeTableRecord
  2
DIVIDE2
 70
     0
  3
Divide (.5x) __..__..__..__..__..__..__..__.._
 72
    65
 73
     6
 40
15.875
 49
6.35
 74
     0
 49
-3.175
 74
     0
 49
0.0
 74
     0
 49
-3.175
 74
     0
 49
0.0
 74
     0
 49
-3.175
 74
     0
  0
LTYPE
  5
1020E
330
10137
100
AcDbSymbolTableRecord
100
AcDbLinetypeTableRecord
  2
DIVIDE
 70
     0
  3
Divide ____ . . ____ . . ____ . . ____ . . ____
 72
    65
 73
     6
 40
31.75
 49
12.7
 74
     0
 49
-6.35
 74
     0
 49
0.0
 74
     0
 49
-6.35
 74
     0
 49
0.0
 74
     0
 49
-6.35
 74
     0
  0
LTYPE
  5
1020F
330
10137
100
AcDbSymbolTableRecord
100
AcDbLinetypeTableRecord
  2
DASHEDX2
 70
     0
  3
Dashed (2x) ____  ____  ____  ____  ____  ___
 72
    65
 73
     2
 40
38.09999999999999
 49
25.4
 74
     0
 49
-12.7
 74
     0
  0
LTYPE
  5
10210
330
10137
100
AcDbSymbolTableRecord
100
AcDbLinetypeTableRecord
  2
DASHED2
 70
     0
  3
Dashed (.5x) _ _ _ _ _ _ _ _ _ _ _ _ _ _ _ _ _ 
 72
    65
 73
     2
 40
9.524999999999999
 49
6.35
 74
     0
 49
-3.175
 74
     0
  0
LTYPE
  5
10211
330
10137
100
AcDbSymbolTableRecord
100
AcDbLinetypeTableRecord
  2
DASHED
 70
     0
  3
Dashed __ __ __ __ __ __ __ __ __ __ __ __ __ _
 72
    65
 73
     2
 40
19.05
 49
12.7
 74
     0
 49
-6.35
 74
     0
  0
LTYPE
  5
10212
330
10137
100
AcDbSymbolTableRecord
100
AcDbLinetypeTableRecord
  2
DASHDOTX2
 70
     0
  3
Dash dot (2x) ____  .  ____  .  ____  .  ___
 72
    65
 73
     4
 40
50.8
 49
25.4
 74
     0
 49
-12.7
 74
     0
 49
0.0
 74
     0
 49
-12.7
 74
     0
  0
LTYPE
  5
10213
330
10137
100
AcDbSymbolTableRecord
100
AcDbLinetypeTableRecord
  2
DASHDOT2
 70
     0
  3
Dash dot (.5x) _._._._._._._._._._._._._._._.
 72
    65
 73
     4
 40
12.7
 49
6.35
 74
     0
 49
-3.175
 74
     0
 49
0.0
 74
     0
 49
-3.175
 74
     0
  0
LTYPE
  5
10214
330
10137
100
AcDbSymbolTableRecord
100
AcDbLinetypeTableRecord
  2
DASHDOT
 70
     0
  3
Dash dot __ . __ . __ . __ . __ . __ . __ . __
 72
    65
 73
     4
 40
25.4
 49
12.7
 74
     0
 49
-6.35
 74
     0
 49
0.0
 74
     0
 49
-6.35
 74
     0
  0
LTYPE
  5
10216
330
10137
100
AcDbSymbolTableRecord
100
AcDbLinetypeTableRecord
  2
CUTRIGHT2
 70
     0
  3
G42 reversed----\----\----\----
 72
    65
 73
     2
 40
10.16
 49
5.08
 74
     2
 75
     0
340
10215
 46
2.54
 50
0.0
 44
0.0
 45
0.0
  9
HRIGHT_ARROW
 49
5.08
 74
     0
  0
ENDTAB
  0
TABLE
  2
LAYER
  5
10134
330
0
100
AcDbSymbolTable
 70
     4
  0
LAYER
  5
10142
330
10134
100
AcDbSymbolTableRecord
100
AcDbLayerTableRecord
  2
0
 70
     0
 62
     7
420
 16777215
  6
Continuous
370
    -3
390
10141
347
10177
348
0
  0
LAYER
  5
10217
330
10134
100
AcDbSymbolTableRecord
100
AcDbLayerTableRecord
  2
9mm Pocket
 70
     0
 62
     3
420
    65280
  6
Continuous
370
    25
390
10141
347
10177
348
0
  0
LAYER
  5
10218
330
10134
100
AcDbSymbolTableRecord
100
AcDbLayerTableRecord
  2
Cut Out
 70
     0
 62
     6
420
 16711935
  6
Continuous
370
    25
390
10141
347
10177
348
0
  0
LAYER
  5
10219
330
10134
100
AcDbSymbolTableRecord
100
AcDbLayerTableRecord
  2
Sheets
 70
     0
 62
    18
420
        0
  6
Continuous
370
    25
390
10141
347
10177
348
0
  0
ENDTAB
  0
TABLE
  2
STYLE
  5
10135
330
0
100
AcDbSymbolTable
 70
    20
  0
STYLE
  5
10143
330
10135
100
AcDbSymbolTableRecord
100
AcDbTextStyleTableRecord
  2
Standard
 70
     0
 40
0.0
 41
1.0
 50
0.0
 71
     0
 42
0.2
  3
txt
  4

  0
STYLE
  5
101D3
330
10135
100
AcDbSymbolTableRecord
100
AcDbTextStyleTableRecord
  2
QCADDimTextStyle
 70
     0
 40
0.0
 41
1.0
 50
0.0
 71
     0
 42
0.2
  3

  4

  0
STYLE
  5
101D5
330
10135
100
AcDbSymbolTableRecord
100
AcDbTextStyleTableRecord
  2
textstyle0
 70
     0
 40
0.0
 41
1.0
 50
0.0
 71
     0
 42
0.2
  3
ltypeshp.shx
  4

  0
STYLE
  5
101D6
330
10135
100
AcDbSymbolTableRecord
100
AcDbTextStyleTableRecord
  2
textstyle1
 70
     0
 40
0.0
 41
1.0
 50
0.0
 71
     0
 42
0.2
  3
ltypeshp.shx
  4

  0
STYLE
  5
101D8
330
10135
100
AcDbSymbolTableRecord
100
AcDbTextStyleTableRecord
  2
textstyle2
 70
     0
 40
0.0
 41
1.0
 50
0.0
 71
     0
 42
0.2
  3
ltypeshp.shx
  4

  0
STYLE
  5
101DD
330
10135
100
AcDbSymbolTableRecord
100
AcDbTextStyleTableRecord
  2
textstyle3
 70
     0
 40
0.0
 41
1.0
 50
0.0
 71
     0
 42
0.2
  3
STANDARD
  4

  0
STYLE
  5
101E2
330
10135
100
AcDbSymbolTableRecord
100
AcDbTextStyleTableRecord
  2
textstyle4
 70
     0
 40
0.0
 41
1.0
 50
0.0
 71
     0
 42
0.2
  3
STANDARD
  4

  0
STYLE
  5
101E4
330
10135
100
AcDbSymbolTableRecord
100
AcDbTextStyleTableRecord
  2
textstyle5
 70
     0
 40
0.0
 41
1.0
 50
0.0
 71
     0
 42
0.2
  3
ltypeshp.shx
  4

  0
STYLE
  5
101EE
330
10135
100
AcDbSymbolTableRecord
100
AcDbTextStyleTableRecord
  2
textstyle6
 70
     0
 40
0.0
 41
1.0
 50
0.0
 71
     0
 42
0.2
  3
qcadshp.shx
  4

  0
STYLE
  5
101F0
330
10135
100
AcDbSymbolTableRecord
100
AcDbTextStyleTableRecord
  2
textstyle7
 70
     0
 40
0.0
 41
1.0
 50
0.0
 71
     0
 42
0.2
  3
qcadshp.shx
  4

  0
STYLE
  5
101F2
330
10135
100
AcDbSymbolTableRecord
100
AcDbTextStyleTableRecord
  2
textstyle8
 70
     0
 40
0.0
 41
1.0
 50
0.0
 71
     0
 42
0.2
  3
qcadshp.shx
  4

  0
STYLE
  5
101FA
330
10135
100
AcDbSymbolTableRecord
100
AcDbTextStyleTableRecord
  2
textstyle9
 70
     0
 40
0.0
 41
1.0
 50
0.0
 71
     0
 42
0.2
  3
ltypeshp.shx
  4

  0
STYLE
  5
101FB
330
10135
100
AcDbSymbolTableRecord
100
AcDbTextStyleTableRecord
  2
textstyle10
 70
     0
 40
0.0
 41
1.0
 50
0.0
 71
     0
 42
0.2
  3
ltypeshp.shx
  4

  0
STYLE
  5
10203
330
10135
100
AcDbSymbolTableRecord
100
AcDbTextStyleTableRecord
  2
textstyle11
 70
     0
 40
0.0
 41
1.0
 50
0.0
 71
     0
 42
0.2
  3
ltypeshp.shx
  4

  0
STYLE
  5
10205
330
10135
100
AcDbSymbolTableRecord
100
AcDbTextStyleTableRecord
  2
textstyle12
 70
     0
 40
0.0
 41
1.0
 50
0.0
 71
     0
 42
0.2
  3
qcadshp.shx
  4

  0
STYLE
  5
10207
330
10135
100
AcDbSymbolTableRecord
100
AcDbTextStyleTableRecord
  2
textstyle13
 70
     0
 40
0.0
 41
1.0
 50
0.0
 71
     0
 42
0.2
  3
qcadshp.shx
  4

  0
STYLE
  5
10215
330
10135
100
AcDbSymbolTableRecord
100
AcDbTextStyleTableRecord
  2
textstyle14
 70
     0
 40
0.0
 41
1.0
 50
0.0
 71
     0
 42
0.2
  3
qcadshp.shx
  4

  0
STYLE
  5
1021C
330
10135
100
AcDbSymbolTableRecord
100
AcDbTextStyleTableRecord
  2
textstyle15
 70
     0
 40
0.0
 41
1.0
 50
0.0
 71
     0
 42
0.2
  3

  4

1001
ACAD
1000
Arial
1071
        0
  0
STYLE
  5
1021D
330
10135
100
AcDbSymbolTableRecord
100
AcDbTextStyleTableRecord
  2
textstyle16
 70
     0
 40
0.0
 41
1.0
 50
0.0
 71
     0
 42
0.2
  3

  4

1001
ACAD
1000
Arial
1071
        0
  0
STYLE
  5
1021E
330
10135
100
AcDbSymbolTableRecord
100
AcDbTextStyleTableRecord
  2
textstyle17
 70
     0
 40
0.0
 41
1.0
 50
0.0
 71
     0
 42
0.2
  3

  4

1001
ACAD
1000
Arial
1071
        0
  0
ENDTAB
  0
TABLE
  2
VIEW
  5
10138
330
0
100
AcDbSymbolTable
 70
     0
  0
ENDTAB
  0
TABLE
  2
UCS
  5
10139
330
0
100
AcDbSymbolTable
 70
     0
  0
ENDTAB
  0
TABLE
  2
APPID
  5
1013B
330
0
100
AcDbSymbolTable
 70
     2
  0
APPID
  5
10144
330
1013B
100
AcDbSymbolTableRecord
100
AcDbRegAppTableRecord
  2
ACAD
 70
     0
  0
APPID
  5
1019F
330
1013B
100
AcDbSymbolTableRecord
100
AcDbRegAppTableRecord
  2
QCAD
 70
     0
  0
ENDTAB
  0
TABLE
  2
DIMSTYLE
  5
1013C
330
0
100
AcDbSymbolTable
 70
     2
100
AcDbDimStyleTable
  0
DIMSTYLE
105
10158
330
1013C
100
AcDbSymbolTableRecord
100
AcDbDimStyleTableRecord
  2
Standard
 70
     0
178
     0
340
10143
  0
DIMSTYLE
105
101D4
330
1013C
100
AcDbSymbolTableRecord
100
AcDbDimStyleTableRecord
  2
QCADDimStyle
 70
     0
 73
     0
 77
     1
178
     0
340
101D3
  0
ENDTAB
  0
TABLE
  2
BLOCK_RECORD
  5
10133
330
0
100
AcDbSymbolTable
 70
     1
  0
BLOCK_RECORD
  5
10150
330
10133
100
AcDbSymbolTableRecord
100
AcDbBlockTableRecord
  2
*Model_Space
340
10153
 70
     0
280
     1
281
     0
  0
BLOCK_RECORD
  5
1014C
330
10133
100
AcDbSymbolTableRecord
100
AcDbBlockTableRecord
  2
*Paper_Space
340
1014F
 70
     0
280
     1
281
     0
  0
ENDTAB
  0
ENDSEC
  0
SECTION
  2
BLOCKS
  0
BLOCK
  5
10151
330
10150
100
AcDbEntity
  8
0
100
AcDbBlockBegin
  2
*Model_Space
 70
     0
 10
0.0
 20
0.0
 30
0.0
  3
*Model_Space
  1
*Model_Space
  0
ENDBLK
  5
10152
330
10150
100
AcDbEntity
  8
0
100
AcDbBlockEnd
  0
BLOCK
  5
1014D
330
1014C
100
AcDbEntity
 67
     1
  8
0
100
AcDbBlockBegin
  2
*Paper_Space
 70
     0
 10
0.0
 20
0.0
 30
0.0
  3
*Paper_Space
  1
*Paper_Space
  0
ENDBLK
  5
1014E
330
1014C
100
AcDbEntity
 67
     1
  8
0
100
AcDbBlockEnd
  0
ENDSEC
  0
SECTION
  2
ENTITIES
  0
LWPOLYLINE
  5
10028
330
10150
100
AcDbEntity
  8
9mm Pocket
100
AcDbPolyline
 90
        8
 70
     1
 43
0.0
 10
1723.76514872898
 20
1454.698166588061
 42
-0.414213562373095
 10
1719.765148728981
 20
1458.69816658806
 10
1719.76514872898
 20
1616.698166588061
 42
-0.414213562373095
 10
1723.76514872898
 20
1620.69816658806
 10
1733.985148153167
 20
1620.69816658806
 42
-0.414213562373095
 10
1737.985148153167
 20
1616.69816658806
 10
1737.985148153168
 20
1458.698166588061
 42
-0.414213562373095
 10
1733.985148153168
 20
1454.698166588061
  0
LINE
  5
100
330
10150
100
AcDbEntity
  8
Cut Out
100
AcDbLine
 10
855.4258747717087
 20
737.6981665880603
 30
0.0000000000005684
 11
1134.925844934274
 21
737.6981665880603
 31
0.0000000000005684
  0
LWPOLYLINE
  5
10029
330
10150
100
AcDbEntity
  8
9mm Pocket
100
AcDbPolyline
 90
        8
 70
     1
 43
0.0
 10
1863.425856237621
 20
719.6881665880603
 42
-0.414213562373095
 10
1859.425856237621
 20
723.6881665880603
 10
1859.425856237621
 20
733.7081665880605
 42
-0.414213562373095
 10
1863.425856237621
 20
737.7081665880603
 10
1897.435856237626
 20
737.7081665880606
 42
-0.414213562373095
 10
1901.435856237626
 20
733.7081665880605
 10
1901.435856237626
 20
723.6881665880603
 42
-0.414213562373095
 10
1897.435856237626
 20
719.6881665880605
  0
LINE
  5
101
330
10150
100
AcDbEntity
  8
Cut Out
100
AcDbLine
 10
1134.925844934274
 20
2337.69816658806
 30
0.0
 11
855.4258747717085
 21
2337.69816658806
 31
0.0000000000005684
  0
LINE
  5
1002A
330
10150
100
AcDbEntity
  8
9mm Pocket
100
AcDbLine
 10
1339.525832471618
 20
737.7081665880605
 30
-0.0000000000005684
 11
1357.525832471618
 21
737.7081665880605
 31
-0.0000000000005683
  0
LWPOLYLINE
  5
102
330
10150
100
AcDbEntity
  8
Sheets
100
AcDbPolyline
 90
        4
 70
     1
 43
0.0
 10
2440.0
 20
2400.0
 10
1220.0
 20
2400.0
 10
1220.0
 20
0.0
 10
2440.0
 20
0.0
  0
ARC
  5
1002B
330
10150
100
AcDbEntity
  8
9mm Pocket
100
AcDbCircle
 10
1357.525832471618
 20
734.6081665880605
 30
-0.0000000000005684
 40
3.100000000000023
100
AcDbArc
 50
0.0
 51
90.0
  0
LWPOLYLINE
  5
103
330
10150
100
AcDbEntity
  8
Sheets
100
AcDbPolyline
 90
        4
 70
     1
 43
0.0
 10
1220.0
 20
2400.0
 10
0.0
 20
2400.0
 10
0.0
 20
0.0
 10
1220.0
 20
0.0
  0
LINE
  5
1002C
330
10150
100
AcDbEntity
  8
9mm Pocket
100
AcDbLine
 10
1360.625832471618
 20
734.6081665880605
 30
-0.0000000000005684
 11
1360.625832471618
 21
722.7881665880606
 31
0.0
  0
LINE
  5
104
330
10150
100
AcDbEntity
  8
Cut Out
100
AcDbLine
 10
1928.425847957093
 20
637.4981650636016
 30
0.0
 11
1928.425847957088
 21
647.6981404053731
 31
0.0
  0
ARC
  5
1002D
330
10150
100
AcDbEntity
  8
9mm Pocket
100
AcDbCircle
 10
1357.525832471618
 20
722.7881665880606
 30
-0.0000000000005684
 40
3.100000000000023
100
AcDbArc
 50
270.0
 51
0.0
  0
ARC
  5
105
330
10150
100
AcDbEntity
  8
Cut Out
100
AcDbCircle
 10
1932.425847957008
 20
647.6981404053754
 30
0.0
 40
3.999999999920477
100
AcDbArc
 50
89.99999877891615
 51
180.0
  0
LINE
  5
1002E
330
10150
100
AcDbEntity
  8
9mm Pocket
100
AcDbLine
 10
1357.525832471618
 20
719.6881665880605
 30
-0.0000000000005684
 11
1339.525832471618
 21
719.6881665880605
 31
-0.0000000000005686
  0
LINE
  5
106
330
10150
100
AcDbEntity
  8
Cut Out
100
AcDbLine
 10
1932.425848042256
 20
651.6981404052958
 30
0.0
 11
1974.925847957086
 21
651.6981394995406
 31
0.0
  0
LWPOLYLINE
  5
1002F
330
10150
100
AcDbEntity
  8
9mm Pocket
100
AcDbPolyline
 90
        8
 70
     1
 43
0.0
 10
1863.425856237621
 20
2337.688166588061
 42
-0.414213562373095
 10
1859.425856237622
 20
2341.68816658806
 10
1859.425856237622
 20
2351.708166588061
 42
-0.414213562373095
 10
1863.425856237621
 20
2355.708166588061
 10
1897.435856237626
 20
2355.70816658806
 42
-0.4142135623730742
 10
1901.435856237626
 20
2351.708166588061
 10
1901.435856237628
 20
2341.68816658806
 42
-0.4142135623731159
 10
1897.435856237628
 20
2337.68816658806
  0
ARC
  5
107
330
10150
100
AcDbEntity
  8
Cut Out
100
AcDbCircle
 10
1974.925847871839
 20
647.6981394994863
 30
0.0
 40
4.000000000054476
100
AcDbArc
 50
270.0000012210568
 51
89.99999865973604
  0
LINE
  5
10030
330
10150
100
AcDbEntity
  8
9mm Pocket
100
AcDbLine
 10
1339.525832471501
 20
2355.708166588061
 30
-0.0000000000005684
 11
1357.525832471501
 21
2355.708166588059
 31
-0.0000000000005683
  0
LINE
  5
108
330
10150
100
AcDbEntity
  8
Cut Out
100
AcDbLine
 10
1974.925847957084
 20
643.6981394994318
 30
0.0
 11
1974.925847957082
 21
633.498165063387
 31
0.0000000000005684
  0
ARC
  5
109
330
10150
100
AcDbEntity
  8
Cut Out
100
AcDbCircle
 10
1970.925847957028
 20
633.4981650633921
 30
0.0000000000005684
 40
4.000000000054484
100
AcDbArc
 50
180.0
 51
0.0
  0
ARC
  5
10031
330
10150
100
AcDbEntity
  8
9mm Pocket
100
AcDbCircle
 10
1357.525832471501
 20
2352.608166588059
 30
0.0
 40
3.100000000000307
100
AcDbArc
 50
0.0
 51
90.0
  0
LINE
  5
110
330
10150
100
AcDbEntity
  8
Cut Out
100
AcDbLine
 10
1966.925847956974
 20
633.4981650633953
 30
0.0000000000005684
 11
1932.425847957254
 21
633.4981650634296
 31
0.0000000000005684
  0
LINE
  5
10032
330
10150
100
AcDbEntity
  8
9mm Pocket
100
AcDbLine
 10
1360.625832471501
 20
2352.608166588059
 30
0.0
 11
1360.6258324715
 21
2340.788166588057
 31
-0.0000000000005684
  0
ARC
  5
111
330
10150
100
AcDbEntity
  8
Cut Out
100
AcDbCircle
 10
1932.425847957257
 20
637.4981650635931
 30
0.0
 40
4.000000000163411
100
AcDbArc
 50
180.0
 51
269.9999999999601
  0
ARC
  5
10033
330
10150
100
AcDbEntity
  8
9mm Pocket
100
AcDbCircle
 10
1357.525832471501
 20
2340.788166588057
 30
0.0
 40
3.099999999998886
100
AcDbArc
 50
269.9999999999916
 51
0.0
  0
LINE
  5
112
330
10150
100
AcDbEntity
  8
Cut Out
100
AcDbLine
 10
1645.425815029259
 20
651.698164492845
 30
0.0000000000005684
 11
1645.425815029256
 21
669.698164491819
 31
0.0000000000005684
  0
LINE
  5
10034
330
10150
100
AcDbEntity
  8
9mm Pocket
100
AcDbLine
 10
1357.525832471501
 20
2337.688166588058
 30
0.0
 11
1339.525832471502
 21
2337.68816658806
 31
0.0
  0
LINE
  5
113
330
10150
100
AcDbEntity
  8
Cut Out
100
AcDbLine
 10
1645.425815029256
 20
669.698164491819
 30
0.0000000000005684
 11
1301.599727772589
 21
669.6981653725993
 31
0.0
  0
LWPOLYLINE
  5
10035
330
10150
100
AcDbEntity
  8
9mm Pocket
100
AcDbPolyline
 90
        9
 70
     1
 43
0.0
 10
979.001183552587
 20
1458.698166588278
 10
979.001183552587
 20
1616.698166588063
 42
0.4142135623729754
 10
975.001183552587
 20
1620.698166588061
 10
964.7811835525913
 20
1620.698166588061
 42
0.4142135623733552
 10
960.7811835525918
 20
1616.698166588058
 10
960.7811835525931
 20
1459.230061410075
 10
960.7811835521079
 20
1458.698166591921
 42
0.4142135626398961
 10
964.7811835521079
 20
1454.698166588277
 10
975.0011835525866
 20
1454.698166588278
 42
0.414213562373095
  0
LINE
  5
114
330
10150
100
AcDbEntity
  8
Cut Out
100
AcDbLine
 10
1301.599727772589
 20
669.6981653725993
 30
0.0
 11
1298.425844869671
 21
651.6981780848386
 31
0.0
  0
LINE
  5
10036
330
10150
100
AcDbEntity
  8
9mm Pocket
100
AcDbLine
 10
825.4258747716176
 20
651.698164492845
 30
-0.0000000000005684
 11
866.4258747726813
 21
651.6981644928944
 31
0.0
  0
ARC
  5
10037
330
10150
100
AcDbEntity
  8
9mm Pocket
100
AcDbCircle
 10
866.4258747726817
 20
647.698164493808
 30
0.0
 40
3.999999999086725
100
AcDbArc
 50
0.0
 51
90.00000000001221
  0
LINE
  5
115
330
10150
100
AcDbEntity
  8
Cut Out
100
AcDbLine
 10
1298.425844869671
 20
651.6981780848386
 30
0.0
 11
1328.125844874788
 21
651.6981788982628
 31
0.0000000000005687
  0
ARC
  5
116
330
10150
100
AcDbEntity
  8
Cut Out
100
AcDbCircle
 10
1328.125844874789
 20
647.698178898263
 30
0.0000000000005684
 40
4.000000000000039
100
AcDbArc
 50
270.0000000000056
 51
90.00000000000408
  0
LINE
  5
10038
330
10150
100
AcDbEntity
  8
9mm Pocket
100
AcDbLine
 10
870.4258747717686
 20
647.6981644938128
 30
0.0000000000000001
 11
870.4258747717786
 21
637.4981650653871
 31
0.0
  0
LINE
  5
117
330
10150
100
AcDbEntity
  8
Cut Out
100
AcDbLine
 10
1328.125844874789
 20
643.698178898263
 30
0.0000000000005684
 11
1328.12584487479
 21
633.4981794703833
 31
0.0000000000005684
  0
ARC
  5
10039
330
10150
100
AcDbEntity
  8
9mm Pocket
100
AcDbCircle
 10
866.4258747701706
 20
637.4981650653616
 30
0.0
 40
4.000000001607802
100
AcDbArc
 50
270.000000000057
 51
0.0
  0
ARC
  5
118
330
10150
100
AcDbEntity
  8
Cut Out
100
AcDbCircle
 10
1324.12584487479
 20
633.4981793608296
 30
0.0000000000005684
 40
3.999999999999988
100
AcDbArc
 50
180.0000012074183
 51
0.0000012074182697
  0
LINE
  5
1003A
330
10150
100
AcDbEntity
  8
9mm Pocket
100
AcDbLine
 10
866.4258747701747
 20
633.4981650637537
 30
0.0
 11
825.4258747716908
 21
633.4981650636846
 31
-0.0000000000005684
  0
LINE
  5
119
330
10150
100
AcDbEntity
  8
Cut Out
100
AcDbLine
 10
1320.12584487479
 20
633.498179251275
 30
0.0000000000005684
 11
1295.425844874785
 21
633.4981785747772
 31
0.0000000000005684
  0
LINE
  5
1003B
330
10150
100
AcDbEntity
  8
9mm Pocket
100
AcDbLine
 10
1645.425815029339
 20
651.698164492845
 30
0.0
 11
1604.425815028276
 21
651.6981644928944
 31
-0.0000000000005684
  0
LINE
  5
120
330
10150
100
AcDbEntity
  8
Cut Out
100
AcDbLine
 10
1295.425844874785
 20
633.4981785747772
 30
0.0000000000005684
 11
1285.225840065541
 21
633.4981785837056
 31
0.0
  0
ARC
  5
1003C
330
10150
100
AcDbEntity
  8
9mm Pocket
100
AcDbCircle
 10
1604.425815028275
 20
647.6981644938081
 30
0.0
 40
3.999999999086299
100
AcDbArc
 50
89.9999999999886
 51
180.0
  0
ARC
  5
121
330
10150
100
AcDbEntity
  8
Cut Out
100
AcDbCircle
 10
1281.225840065368
 20
633.4981785766831
 30
0.0
 40
4.000000000172932
100
AcDbArc
 50
180.0
 51
0.0
  0
LINE
  5
1003D
330
10150
100
AcDbEntity
  8
9mm Pocket
100
AcDbLine
 10
1600.425815029188
 20
647.6981644938128
 30
-0.0000000000000001
 11
1600.425815029178
 21
637.4981650653871
 31
-0.0000000000005684
  0
LINE
  5
122
330
10150
100
AcDbEntity
  8
Cut Out
100
AcDbLine
 10
1277.225840065195
 20
633.4981785696605
 30
-0.0000000000000001
 11
1277.225840030078
 21
653.4981785696601
 31
0.0000000000005684
  0
ARC
  5
1003E
330
10150
100
AcDbEntity
  8
9mm Pocket
100
AcDbCircle
 10
1604.425815030786
 20
637.4981650653615
 30
0.0
 40
4.000000001607589
100
AcDbArc
 50
180.0
 51
269.9999999999446
  0
LINE
  5
123
330
10150
100
AcDbEntity
  8
Cut Out
100
AcDbLine
 10
1277.225840030078
 20
653.4981785696601
 30
0.0000000000005684
 11
1261.72584007584
 21
653.4981785424583
 31
0.0000000000005684
  0
LINE
  5
1003F
330
10150
100
AcDbEntity
  8
9mm Pocket
100
AcDbLine
 10
1604.425815030782
 20
633.4981650637537
 30
0.0
 11
1645.425815029266
 21
633.4981650636846
 31
-0.0000000000005684
  0
ARC
  5
124
330
10150
100
AcDbEntity
  8
Cut Out
100
AcDbCircle
 10
1261.725840083739
 20
648.9981785486145
 30
0.0
 40
4.499999993843744
100
AcDbArc
 50
90.0000001005691
 51
180.0
  0
ARC
  5
10040
330
10150
100
AcDbEntity
  8
9mm Pocket
100
AcDbCircle
 10
1645.425815029328
 20
642.5981647782647
 30
-0.0000000000002842
 40
9.099999714580136
100
AcDbArc
 50
269.999999999612
 51
89.99999999993129
  0
LINE
  5
125
330
10150
100
AcDbEntity
  8
Cut Out
100
AcDbLine
 10
1257.225840089895
 20
648.9981785407872
 30
0.0
 11
1257.225840131007
 21
625.3621395168756
 31
0.0000000000005684
  0
ARC
  5
10041
330
10150
100
AcDbEntity
  8
9mm Pocket
100
AcDbCircle
 10
1339.525832471618
 20
728.6981665880605
 30
-0.0000000000005685
 40
9.009999999999962
100
AcDbArc
 50
90.0
 51
270.0
  0
ARC
  5
126
330
10150
100
AcDbEntity
  8
Cut Out
100
AcDbCircle
 10
1261.72584013707
 20
625.3621395247012
 30
0.0
 40
4.500000006062805
100
AcDbArc
 50
180.0
 51
225.0000000996972
  0
ARC
  5
10042
330
10150
100
AcDbEntity
  8
9mm Pocket
100
AcDbCircle
 10
825.4258747716285
 20
642.5981647782647
 30
-0.0000000000005684
 40
9.099999714580207
100
AcDbArc
 50
90.00000000006926
 51
270.0000000003902
  0
LINE
  5
127
330
10150
100
AcDbEntity
  8
Cut Out
100
AcDbLine
 10
1258.54385962298
 20
622.1801589995379
 30
0.0
 11
1275.907820630933
 21
604.8161980520098
 31
0.0000000000005683
  0
ARC
  5
10043
330
10150
100
AcDbEntity
  8
9mm Pocket
100
AcDbCircle
 10
1339.5258324715
 20
2346.69816658806
 30
-0.0000000000002842
 40
9.010000000000247
100
AcDbArc
 50
89.99999999999494
 51
270.0000000000123
  0
ARC
  5
128
330
10150
100
AcDbEntity
  8
Cut Out
100
AcDbCircle
 10
1272.725840121173
 20
601.6342175311776
 30
0.0000000000005684
 40
4.499999999939206
100
AcDbArc
 50
0.0
 51
45.00000009968563
  0
LINE
  5
129
330
10150
100
AcDbEntity
  8
Cut Out
100
AcDbLine
 10
1277.225840121112
 20
601.6342175390063
 30
0.0000000000005684
 11
1277.225840152667
 21
583.4981785696607
 31
0.0
  0
ARC
  5
130
330
10150
100
AcDbEntity
  8
Cut Out
100
AcDbCircle
 10
1293.448942065804
 20
632.9027441269579
 30
0.0000000000005684
 40
52.00000128451264
100
AcDbArc
 50
251.821240813597
 51
263.3620011519233
  0
ARC
  5
131
330
10150
100
AcDbEntity
  8
Cut Out
100
AcDbCircle
 10
1291.425844889744
 20
580.9403347435227
 30
0.0
 40
3.99999999981226
100
AcDbArc
 50
0.0
 51
175.5407605216192
  0
LINE
  5
132
330
10150
100
AcDbEntity
  8
Cut Out
100
AcDbLine
 10
1295.425844889556
 20
580.940334744648
 30
0.0
 11
1295.425844900439
 21
542.2146647261377
 31
0.0000000000005684
  0
LINE
  5
133
330
10150
100
AcDbEntity
  8
Cut Out
100
AcDbLine
 10
1295.425844900439
 20
542.2146647261377
 30
0.0000000000005684
 11
1295.425844900375
 21
203.3488633395996
 31
0.0000000000005684
  0
LINE
  5
134
330
10150
100
AcDbEntity
  8
Cut Out
100
AcDbLine
 10
1295.425844900375
 20
203.3488633395996
 30
0.0000000000005684
 11
1320.125844875261
 21
203.3488633396007
 31
0.0000000000005684
  0
ARC
  5
135
330
10150
100
AcDbEntity
  8
Cut Out
100
AcDbCircle
 10
1324.125844875261
 20
203.3488633396018
 30
0.0000000000005684
 40
3.999999999999986
100
AcDbArc
 50
0.0
 51
180.0
  0
LINE
  5
136
330
10150
100
AcDbEntity
  8
Cut Out
100
AcDbLine
 10
1328.125844875261
 20
203.3488633396012
 30
0.0000000000005685
 11
1328.12584487526
 21
193.1488633396026
 31
0.0
  0
ARC
  5
137
330
10150
100
AcDbEntity
  8
Cut Out
100
AcDbCircle
 10
1328.125844875261
 20
189.1488633396028
 30
0.0
 40
3.999999999999986
100
AcDbArc
 50
269.9999999999732
 51
90.00000000001387
  0
LINE
  5
138
330
10150
100
AcDbEntity
  8
Cut Out
100
AcDbLine
 10
1328.125844875259
 20
185.1488633396028
 30
0.0
 11
1295.42584490038
 21
185.1488633396178
 31
0.0000000000005684
  0
LINE
  5
139
330
10150
100
AcDbEntity
  8
Cut Out
100
AcDbLine
 10
1295.42584490038
 20
185.1488633396178
 30
0.0000000000005684
 11
1295.425844900355
 21
59.69815525091803
 31
0.0000000000005684
  0
ARC
  5
140
330
10150
100
AcDbEntity
  8
Cut Out
100
AcDbCircle
 10
1291.425844900355
 20
59.6981552509186
 30
0.0
 40
4.000000000000057
100
AcDbArc
 50
270.0000000000879
 51
0.0
  0
LINE
  5
141
330
10150
100
AcDbEntity
  8
Cut Out
100
AcDbLine
 10
1291.425844900361
 20
55.69815525091849
 30
0.0
 11
1287.425844900347
 21
55.69815525091258
 31
0.0
  0
LINE
  5
142
330
10150
100
AcDbEntity
  8
Cut Out
100
AcDbLine
 10
1287.425844900347
 20
55.69815525091258
 30
0.0
 11
1287.425844900342
 21
25.69815525091201
 31
0.0
  0
LINE
  5
143
330
10150
100
AcDbEntity
  8
Cut Out
100
AcDbLine
 10
1287.425844900342
 20
25.69815525091201
 30
0.0
 11
1295.425844900341
 21
25.69815525091713
 31
0.0
  0
LINE
  5
144
330
10150
100
AcDbEntity
  8
Cut Out
100
AcDbLine
 10
1295.425844900341
 20
25.69815525091713
 30
0.0
 11
1330.686789752333
 21
25.69815513806475
 31
0.0000000000005684
  0
ARC
  5
145
330
10150
100
AcDbEntity
  8
Cut Out
100
AcDbCircle
 10
1330.686789761934
 20
28.69815287159042
 30
0.0
 40
2.999997733525674
100
AcDbArc
 50
269.9999998166263
 51
343.3436186943305
  0
LINE
  5
146
330
10150
100
AcDbEntity
  8
Cut Out
100
AcDbLine
 10
1333.56091053628
 20
27.83825975286436
 30
0.0
 11
1433.947821006573
 21
363.3731053886987
 31
0.0000000000005684
  0
LINE
  5
147
330
10150
100
AcDbEntity
  8
Cut Out
100
AcDbLine
 10
1433.947821006573
 20
363.3731053886987
 30
0.0000000000005684
 11
1433.946198391555
 21
363.3655653690386
 31
0.0000000000005684
  0
ARC
  5
148
330
10150
100
AcDbEntity
  8
Cut Out
100
AcDbCircle
 10
1504.24539652951
 20
337.2308695716884
 30
0.0
 40
74.99999722172929
100
AcDbArc
 50
50.23437746601211
 51
159.6066888992682
  0
LINE
  5
149
330
10150
100
AcDbEntity
  8
Cut Out
100
AcDbLine
 10
1552.219040817503
 20
394.8809262671378
 30
0.0000000000000002
 11
1652.563924513468
 21
312.3328278346253
 31
0.0000000000005673
  0
LINE
  5
150
330
10150
100
AcDbEntity
  8
Cut Out
100
AcDbLine
 10
1663.625820028497
 20
312.3328279359464
 30
0.0000000000005684
 11
1688.325820046242
 21
312.3328279357713
 31
0.0000000000005684
  0
ARC
  5
151
330
10150
100
AcDbEntity
  8
Cut Out
100
AcDbCircle
 10
1692.325820046242
 20
312.3328279357423
 30
0.0
 40
4.000000000000021
100
AcDbArc
 50
0.0
 51
180.0
  0
LINE
  5
152
330
10150
100
AcDbEntity
  8
Cut Out
100
AcDbLine
 10
1696.325820046242
 20
312.3328279357142
 30
0.0000000000000001
 11
1696.325820046171
 21
302.1328279357141
 31
0.0000000000005684
  0
ARC
  5
153
330
10150
100
AcDbEntity
  8
Cut Out
100
AcDbCircle
 10
1696.325820046143
 20
298.1328279357137
 30
0.0
 40
4.000000000000057
100
AcDbArc
 50
269.9999999995988
 51
89.99999999959599
  0
LINE
  5
154
330
10150
100
AcDbEntity
  8
Cut Out
100
AcDbLine
 10
1696.325820046115
 20
294.1328279357137
 30
0.0
 11
1674.687715464275
 21
294.1328279358663
 31
0.0000000000005682
  0
LINE
  5
155
330
10150
100
AcDbEntity
  8
Cut Out
100
AcDbLine
 10
1674.687715464275
 20
294.1328279358663
 30
0.0000000000005682
 11
1985.862420878237
 21
38.146879613397
 31
-0.0000000000000022
  0
LINE
  5
156
330
10150
100
AcDbEntity
  8
Cut Out
100
AcDbLine
 10
1985.862420878237
 20
38.146879613397
 30
-0.0000000000000022
 11
1999.628413547965
 21
26.73391643082425
 31
0.0
  0
ARC
  5
157
330
10150
100
AcDbEntity
  8
Cut Out
100
AcDbCircle
 10
2002.500514418808
 20
30.19816308637644
 30
0.0
 40
4.499996478087447
100
AcDbArc
 50
230.3389120600982
 51
269.99997428069
  0
LINE
  5
158
330
10150
100
AcDbEntity
  8
Cut Out
100
AcDbLine
 10
2002.50051239882
 20
25.69816660828917
 30
0.0
 11
2022.925884296386
 21
25.69815743963375
 31
0.0000000000005684
  0
ARC
  5
159
330
10150
100
AcDbEntity
  8
Cut Out
100
AcDbCircle
 10
2022.925886316377
 20
30.1981539152564
 30
0.0000000000005684
 40
4.499996475623106
100
AcDbArc
 50
269.9999742806551
 51
359.9999745724478
  0
LINE
  5
160
330
10150
100
AcDbEntity
  8
Cut Out
100
AcDbLine
 10
2027.425882792
 20
30.19815191749774
 30
0.0000000000005685
 11
2027.425910864072
 21
93.43112654307618
 31
0.0
  0
ARC
  5
161
330
10150
100
AcDbEntity
  8
Cut Out
100
AcDbCircle
 10
2022.925914385476
 20
93.43112854083472
 30
0.0000000000005684
 40
4.499996478596006
100
AcDbArc
 50
359.9999745724478
 51
45.6905530796318
  0
LINE
  5
162
330
10150
100
AcDbEntity
  8
Cut Out
100
AcDbLine
 10
2026.06931168232
 20
96.6512250831097
 30
0.0000000000005685
 11
2013.617024491145
 21
108.806912146959
 31
0.0
  0
LINE
  5
163
330
10150
100
AcDbEntity
  8
Cut Out
100
AcDbLine
 10
2013.617024491145
 20
108.806912146959
 30
0.0
 11
1669.959579764802
 21
444.278805180432
 31
0.0
  0
ARC
  5
164
330
10150
100
AcDbEntity
  8
Cut Out
100
AcDbCircle
 10
1722.349573768318
 20
497.9471208943818
 30
0.0
 40
74.99999722173668
100
AcDbArc
 50
94.90000010102236
 51
225.6905530797785
  0
LINE
  5
165
330
10150
100
AcDbEntity
  8
Cut Out
100
AcDbLine
 10
1715.943304638571
 20
572.6730153292948
 30
-0.0000000000000008
 11
2023.310221642269
 21
599.0236559846693
 31
0.0
  0
ARC
  5
166
330
10150
100
AcDbEntity
  8
Cut Out
100
AcDbCircle
 10
2022.925845781036
 20
603.5072063082794
 30
0.0
 40
4.499996478558842
100
AcDbArc
 50
274.9000001010141
 51
0.0
  0
LINE
  5
167
330
10150
100
AcDbEntity
  8
Cut Out
100
AcDbLine
 10
2027.425842259595
 20
603.5072063162049
 30
0.0
 11
2027.425842150939
 21
665.1981701741471
 31
0.0000000000005684
  0
ARC
  5
168
330
10150
100
AcDbEntity
  8
Cut Out
100
AcDbCircle
 10
2022.925845672228
 20
665.1981701662214
 30
0.0
 40
4.499996478710386
100
AcDbArc
 50
0.0
 51
90.00000010106275
  0
LINE
  5
169
330
10150
100
AcDbEntity
  8
Cut Out
100
AcDbLine
 10
2022.925845664291
 20
669.6981666449317
 30
0.0
 11
1663.625820031243
 21
669.6981644918236
 31
0.0000000000000044
  0
LINE
  5
170
330
10150
100
AcDbEntity
  8
Cut Out
100
AcDbLine
 10
1663.625820031243
 20
669.6981644918236
 30
0.0000000000000044
 11
1663.625820028558
 21
651.6981644928518
 31
0.0
  0
LINE
  5
171
330
10150
100
AcDbEntity
  8
Cut Out
100
AcDbLine
 10
1663.625820028558
 20
651.6981644928518
 30
0.0
 11
1696.325819003737
 21
651.6981644928188
 31
0.0000000000005684
  0
ARC
  5
172
330
10150
100
AcDbEntity
  8
Cut Out
100
AcDbCircle
 10
1696.325819003733
 20
647.6981644928179
 30
0.0
 40
4.000000000000057
100
AcDbArc
 50
270.0000000352488
 51
90.00000003524879
  0
LINE
  5
173
330
10150
100
AcDbEntity
  8
Cut Out
100
AcDbLine
 10
1696.325819006194
 20
643.6981644928178
 30
0.0
 11
1696.325819009409
 21
633.4981650636576
 31
0.0000000000005684
  0
ARC
  5
174
330
10150
100
AcDbEntity
  8
Cut Out
100
AcDbCircle
 10
1692.325819009408
 20
633.4981650636615
 30
0.0000000000005684
 40
4.000000000000048
100
AcDbArc
 50
180.0
 51
0.0
  0
LINE
  5
175
330
10150
100
AcDbEntity
  8
Cut Out
100
AcDbLine
 10
542.425841843864
 20
637.4981650636016
 30
0.0000000000005684
 11
542.4258418438692
 21
647.6981404053731
 31
0.0000000000005684
  0
ARC
  5
176
330
10150
100
AcDbEntity
  8
Cut Out
100
AcDbCircle
 10
538.4258418439485
 20
647.6981404053754
 30
0.0
 40
3.999999999920618
100
AcDbArc
 50
0.0
 51
90.00000122108221
  0
LINE
  5
177
330
10150
100
AcDbEntity
  8
Cut Out
100
AcDbLine
 10
538.4258417587009
 20
651.6981404052958
 30
0.0
 11
495.9258418438708
 21
651.6981394995406
 31
0.0000000000005684
  0
ARC
  5
178
330
10150
100
AcDbEntity
  8
Cut Out
100
AcDbCircle
 10
495.9258419291184
 20
647.6981394994863
 30
0.0
 40
4.000000000054343
100
AcDbArc
 50
90.00000122108221
 51
269.9999987789406
  0
LINE
  5
179
330
10150
100
AcDbEntity
  8
Cut Out
100
AcDbLine
 10
495.9258418438724
 20
643.6981394994318
 30
0.0
 11
495.9258418438744
 21
633.498165063387
 31
0.0
  0
ARC
  5
180
330
10150
100
AcDbEntity
  8
Cut Out
100
AcDbCircle
 10
499.9258418439285
 20
633.4981650633921
 30
0.0000000000005684
 40
4.000000000054342
100
AcDbArc
 50
180.0
 51
0.0
  0
LINE
  5
181
330
10150
100
AcDbEntity
  8
Cut Out
100
AcDbLine
 10
503.9258418439831
 20
633.4981650633953
 30
0.0000000000005685
 11
538.425841843703
 21
633.4981650634296
 31
0.0
  0
ARC
  5
182
330
10150
100
AcDbEntity
  8
Cut Out
100
AcDbCircle
 10
538.4258418437003
 20
637.4981650635931
 30
0.0000000000005684
 40
4.000000000163482
100
AcDbArc
 50
270.0000000000391
 51
0.0
  0
LINE
  5
183
330
10150
100
AcDbEntity
  8
Cut Out
100
AcDbLine
 10
825.425874771698
 20
651.698164492845
 30
0.0
 11
825.4258747717013
 21
669.698164491819
 31
0.0
  0
LINE
  5
184
330
10150
100
AcDbEntity
  8
Cut Out
100
AcDbLine
 10
825.4258747717013
 20
669.698164491819
 30
0.0
 11
1169.251962028368
 21
669.6981653725993
 31
0.0000000000005684
  0
LINE
  5
185
330
10150
100
AcDbEntity
  8
Cut Out
100
AcDbLine
 10
1169.251962028368
 20
669.6981653725993
 30
0.0000000000005684
 11
1172.425844931286
 21
651.6981780848386
 31
0.0000000000005684
  0
LINE
  5
186
330
10150
100
AcDbEntity
  8
Cut Out
100
AcDbLine
 10
1172.425844931286
 20
651.6981780848386
 30
0.0000000000005684
 11
1142.725844926169
 21
651.6981788982628
 31
-0.0000000000000003
  0
ARC
  5
187
330
10150
100
AcDbEntity
  8
Cut Out
100
AcDbCircle
 10
1142.725844926168
 20
647.698178898263
 30
0.0
 40
3.999999999999773
100
AcDbArc
 50
89.99999999999675
 51
269.9999999999919
  0
LINE
  5
188
330
10150
100
AcDbEntity
  8
Cut Out
100
AcDbLine
 10
1142.725844926168
 20
643.698178898263
 30
0.0
 11
1142.725844926167
 21
633.4981794703833
 31
0.0
  0
ARC
  5
189
330
10150
100
AcDbEntity
  8
Cut Out
100
AcDbCircle
 10
1146.725844926167
 20
633.4981793608296
 30
0.0
 40
3.999999999999988
100
AcDbArc
 50
179.9999987925817
 51
359.9999987925818
  0
LINE
  5
190
330
10150
100
AcDbEntity
  8
Cut Out
100
AcDbLine
 10
1150.725844926167
 20
633.498179251275
 30
0.0000000000000001
 11
1175.425844926172
 21
633.4981785747772
 31
-0.0000000000005684
  0
LINE
  5
191
330
10150
100
AcDbEntity
  8
Cut Out
100
AcDbLine
 10
1175.425844926172
 20
633.4981785747772
 30
-0.0000000000005684
 11
1185.625849735416
 21
633.4981785837056
 31
0.0
  0
ARC
  5
192
330
10150
100
AcDbEntity
  8
Cut Out
100
AcDbCircle
 10
1189.625849735589
 20
633.4981785766831
 30
0.0000000000005684
 40
4.00000000017279
100
AcDbArc
 50
180.0
 51
0.0
  0
LINE
  5
193
330
10150
100
AcDbEntity
  8
Cut Out
100
AcDbLine
 10
1193.625849735762
 20
633.4981785696605
 30
0.0000000000005685
 11
1193.625849770879
 21
653.4981785696601
 31
0.0000000000005684
  0
LINE
  5
194
330
10150
100
AcDbEntity
  8
Cut Out
100
AcDbLine
 10
1193.625849770879
 20
653.4981785696601
 30
0.0000000000005684
 11
1209.125849725116
 21
653.4981785424583
 31
0.0000000000005684
  0
ARC
  5
195
330
10150
100
AcDbEntity
  8
Cut Out
100
AcDbCircle
 10
1209.125849717218
 20
648.9981785486145
 30
0.0
 40
4.499999993843815
100
AcDbArc
 50
0.0
 51
89.99999989943308
  0
LINE
  5
196
330
10150
100
AcDbEntity
  8
Cut Out
100
AcDbLine
 10
1213.625849711062
 20
648.9981785407873
 30
0.0
 11
1213.62584966995
 21
625.3621395168756
 31
0.0000000000005684
  0
ARC
  5
197
330
10150
100
AcDbEntity
  8
Cut Out
100
AcDbCircle
 10
1209.125849663887
 20
625.3621395247012
 30
0.0000000000005684
 40
4.500000006062721
100
AcDbArc
 50
314.999999900302
 51
0.0
  0
LINE
  5
198
330
10150
100
AcDbEntity
  8
Cut Out
100
AcDbLine
 10
1212.307830177977
 20
622.1801589995379
 30
0.0000000000005684
 11
1194.943869170023
 21
604.8161980520098
 31
0.0000000000005686
  0
ARC
  5
199
330
10150
100
AcDbEntity
  8
Cut Out
100
AcDbCircle
 10
1198.125849679784
 20
601.6342175311775
 30
0.0
 40
4.499999999938971
100
AcDbArc
 50
134.9999999003163
 51
180.0
  0
LINE
  5
200
330
10150
100
AcDbEntity
  8
Cut Out
100
AcDbLine
 10
1193.625849679844
 20
601.6342175390063
 30
0.0
 11
1193.62584964829
 21
583.4981785696607
 31
0.0000000000005684
  0
ARC
  5
201
330
10150
100
AcDbEntity
  8
Cut Out
100
AcDbCircle
 10
1177.402747735153
 20
632.9027441269561
 30
0.0
 40
52.00000128451083
100
AcDbArc
 50
276.6379988480764
 51
288.1787591864032
  0
ARC
  5
202
330
10150
100
AcDbEntity
  8
Cut Out
100
AcDbCircle
 10
1179.425844911213
 20
580.9403347435227
 30
0.0
 40
3.999999999812264
100
AcDbArc
 50
4.459239478381371
 51
180.0
  0
LINE
  5
203
330
10150
100
AcDbEntity
  8
Cut Out
100
AcDbLine
 10
1175.425844911401
 20
580.940334744648
 30
0.0
 11
1175.425844900517
 21
542.2146647261377
 31
0.0
  0
LINE
  5
204
330
10150
100
AcDbEntity
  8
Cut Out
100
AcDbLine
 10
1175.425844900517
 20
542.2146647261377
 30
0.0
 11
1175.425844900582
 21
203.3488633395996
 31
0.0000000000005684
  0
LINE
  5
205
330
10150
100
AcDbEntity
  8
Cut Out
100
AcDbLine
 10
1175.425844900582
 20
203.3488633395996
 30
0.0000000000005684
 11
1150.725844925696
 21
203.3488633396007
 31
0.0000000000005684
  0
ARC
  5
206
330
10150
100
AcDbEntity
  8
Cut Out
100
AcDbCircle
 10
1146.725844925696
 20
203.3488633396018
 30
0.0
 40
4.000000000000199
100
AcDbArc
 50
0.0
 51
180.0
  0
LINE
  5
207
330
10150
100
AcDbEntity
  8
Cut Out
100
AcDbLine
 10
1142.725844925696
 20
203.3488633396012
 30
-0.0000000000000001
 11
1142.725844925697
 21
193.1488633396026
 31
0.0
  0
ARC
  5
208
330
10150
100
AcDbEntity
  8
Cut Out
100
AcDbCircle
 10
1142.725844925696
 20
189.1488633396028
 30
0.0
 40
3.999999999999773
100
AcDbArc
 50
89.99999999998535
 51
270.0000000000277
  0
LINE
  5
209
330
10150
100
AcDbEntity
  8
Cut Out
100
AcDbLine
 10
1142.725844925698
 20
185.1488633396028
 30
0.0
 11
1175.425844900577
 21
185.1488633396178
 31
0.0
  0
LINE
  5
210
330
10150
100
AcDbEntity
  8
Cut Out
100
AcDbLine
 10
1175.425844900577
 20
185.1488633396178
 30
0.0
 11
1175.425844900602
 21
59.69815525091803
 31
0.0000000000005684
  0
ARC
  5
211
330
10150
100
AcDbEntity
  8
Cut Out
100
AcDbCircle
 10
1179.425844900602
 20
59.6981552509186
 30
0.0
 40
4.000000000000199
100
AcDbArc
 50
180.0
 51
269.999999999908
  0
LINE
  5
212
330
10150
100
AcDbEntity
  8
Cut Out
100
AcDbLine
 10
1179.425844900596
 20
55.69815525091849
 30
0.0
 11
1183.42584490061
 21
55.69815525091258
 31
0.0000000000005685
  0
LINE
  5
213
330
10150
100
AcDbEntity
  8
Cut Out
100
AcDbLine
 10
1183.42584490061
 20
55.69815525091258
 30
0.0000000000005685
 11
1183.425844900615
 21
25.69815525091201
 31
0.0
  0
LINE
  5
214
330
10150
100
AcDbEntity
  8
Cut Out
100
AcDbLine
 10
1183.425844900615
 20
25.69815525091201
 30
0.0
 11
1175.425844900615
 21
25.69815525091713
 31
0.0000000000005684
  0
LINE
  5
215
330
10150
100
AcDbEntity
  8
Cut Out
100
AcDbLine
 10
1175.425844900615
 20
25.69815525091713
 30
0.0000000000005684
 11
1140.164900048624
 21
25.69815513806475
 31
0.0000000000005684
  0
ARC
  5
216
330
10150
100
AcDbEntity
  8
Cut Out
100
AcDbCircle
 10
1140.164900039023
 20
28.69815287159031
 30
0.0
 40
2.999997733525749
100
AcDbArc
 50
196.6563813056675
 51
270.0000001833716
  0
LINE
  5
217
330
10150
100
AcDbEntity
  8
Cut Out
100
AcDbLine
 10
1137.290779264677
 20
27.83825975286436
 30
0.0
 11
1036.903868794384
 21
363.3731053886987
 31
-0.0000000000005684
  0
LINE
  5
218
330
10150
100
AcDbEntity
  8
Cut Out
100
AcDbLine
 10
1036.903868794384
 20
363.3731053886987
 30
-0.0000000000005684
 11
1036.905491409401
 21
363.3655653690386
 31
0.0000000000005684
  0
ARC
  5
219
330
10150
100
AcDbEntity
  8
Cut Out
100
AcDbCircle
 10
966.606293271447
 20
337.2308695716885
 30
0.0
 40
74.99999722172919
100
AcDbArc
 50
20.39331110073188
 51
129.765622533988
  0
LINE
  5
220
330
10150
100
AcDbEntity
  8
Cut Out
100
AcDbLine
 10
918.6326489834541
 20
394.8809262671378
 30
0.0
 11
818.2877652874881
 21
312.3328278346253
 31
0.0000000000000011
  0
LINE
  5
221
330
10150
100
AcDbEntity
  8
Cut Out
100
AcDbLine
 10
807.2258697724599
 20
312.3328279359464
 30
0.0
 11
782.5258697547144
 21
312.3328279357713
 31
0.0
  0
ARC
  5
222
330
10150
100
AcDbEntity
  8
Cut Out
100
AcDbCircle
 10
778.5258697547144
 20
312.3328279357423
 30
0.0
 40
3.999999999999915
100
AcDbArc
 50
0.0
 51
180.0
  0
LINE
  5
223
330
10150
100
AcDbEntity
  8
Cut Out
100
AcDbLine
 10
774.5258697547144
 20
312.3328279357142
 30
-0.0000000000000001
 11
774.5258697547854
 21
302.1328279357141
 31
0.0
  0
ARC
  5
224
330
10150
100
AcDbEntity
  8
Cut Out
100
AcDbCircle
 10
774.5258697548136
 20
298.1328279357137
 30
0.0
 40
4.000000000000341
100
AcDbArc
 50
90.00000000040386
 51
270.0000000004022
  0
LINE
  5
225
330
10150
100
AcDbEntity
  8
Cut Out
100
AcDbLine
 10
774.5258697548417
 20
294.1328279357137
 30
0.0
 11
796.1639743366813
 21
294.1328279358663
 31
0.0000000000000003
  0
LINE
  5
226
330
10150
100
AcDbEntity
  8
Cut Out
100
AcDbLine
 10
796.1639743366813
 20
294.1328279358663
 30
0.0000000000000003
 11
484.9892689227197
 21
38.146879613397
 31
0.0000000000005707
  0
LINE
  5
227
330
10150
100
AcDbEntity
  8
Cut Out
100
AcDbLine
 10
484.9892689227197
 20
38.146879613397
 30
0.0000000000005707
 11
471.2232762529916
 21
26.73391643082425
 31
0.0
  0
ARC
  5
228
330
10150
100
AcDbEntity
  8
Cut Out
100
AcDbCircle
 10
468.3511753821488
 20
30.19816308637644
 30
0.0
 40
4.499996478087694
100
AcDbArc
 50
270.0000257193143
 51
309.6610879399041
  0
LINE
  5
229
330
10150
100
AcDbEntity
  8
Cut Out
100
AcDbLine
 10
468.3511774021374
 20
25.69816660828917
 30
0.0
 11
447.9258055045707
 21
25.69815743963375
 31
0.0
  0
ARC
  5
230
330
10150
100
AcDbEntity
  8
Cut Out
100
AcDbCircle
 10
447.9258034845798
 20
30.1981539152564
 30
0.0000000000005684
 40
4.499996475623521
100
AcDbArc
 50
180.0000254275522
 51
270.0000257193433
  0
LINE
  5
231
330
10150
100
AcDbEntity
  8
Cut Out
100
AcDbLine
 10
443.4258070089566
 20
30.19815191749774
 30
0.0000000000005684
 11
443.4257789368853
 21
93.43112654307618
 31
0.0000000000005684
  0
ARC
  5
232
330
10150
100
AcDbEntity
  8
Cut Out
100
AcDbCircle
 10
447.9257754154812
 20
93.4311285408346
 30
0.0
 40
4.499996478596322
100
AcDbArc
 50
134.3094469203698
 51
180.0000254275522
  0
LINE
  5
233
330
10150
100
AcDbEntity
  8
Cut Out
100
AcDbLine
 10
444.7823781186371
 20
96.6512250831097
 30
0.0
 11
457.2346653098125
 21
108.806912146959
 31
0.0000000000005684
  0
LINE
  5
234
330
10150
100
AcDbEntity
  8
Cut Out
100
AcDbLine
 10
457.2346653098125
 20
108.806912146959
 30
0.0000000000005684
 11
800.8921100361546
 21
444.278805180432
 31
0.0000000000005684
  0
ARC
  5
235
330
10150
100
AcDbEntity
  8
Cut Out
100
AcDbCircle
 10
748.5021160326392
 20
497.9471208943818
 30
0.0000000000005684
 40
74.99999722173715
100
AcDbArc
 50
314.3094469202214
 51
85.09999989897754
  0
LINE
  5
236
330
10150
100
AcDbEntity
  8
Cut Out
100
AcDbLine
 10
754.9083851623858
 20
572.6730153292948
 30
0.0000000000005692
 11
447.5414681586885
 21
599.0236559846693
 31
0.0000000000005684
  0
ARC
  5
237
330
10150
100
AcDbEntity
  8
Cut Out
100
AcDbCircle
 10
447.9258440199205
 20
603.5072063082795
 30
0.0
 40
4.499996478558614
100
AcDbArc
 50
180.0
 51
265.0999998989874
  0
LINE
  5
238
330
10150
100
AcDbEntity
  8
Cut Out
100
AcDbLine
 10
443.4258475413617
 20
603.5072063162049
 30
0.0
 11
443.4258476500183
 21
665.1981701741471
 31
0.0
  0
ARC
  5
239
330
10150
100
AcDbEntity
  8
Cut Out
100
AcDbCircle
 10
447.9258441287288
 20
665.1981701662212
 30
0.0000000000005684
 40
4.499996478710502
100
AcDbArc
 50
89.99999989893799
 51
180.0
  0
LINE
  5
240
330
10150
100
AcDbEntity
  8
Cut Out
100
AcDbLine
 10
447.9258441366662
 20
669.6981666449317
 30
0.0000000000005684
 11
807.2258697697135
 21
669.6981644918236
 31
-0.0000000000000044
  0
LINE
  5
241
330
10150
100
AcDbEntity
  8
Cut Out
100
AcDbLine
 10
807.2258697697135
 20
669.6981644918236
 30
-0.0000000000000044
 11
807.2258697723984
 21
651.6981644928518
 31
0.0000000000005684
  0
LINE
  5
242
330
10150
100
AcDbEntity
  8
Cut Out
100
AcDbLine
 10
807.2258697723984
 20
651.6981644928518
 30
0.0000000000005684
 11
774.5258707972193
 21
651.6981644928188
 31
0.0
  0
ARC
  5
243
330
10150
100
AcDbEntity
  8
Cut Out
100
AcDbCircle
 10
774.5258707972233
 20
647.6981644928179
 30
0.0
 40
4.000000000000909
100
AcDbArc
 50
90.000000000057
 51
269.9999999647507
  0
LINE
  5
244
330
10150
100
AcDbEntity
  8
Cut Out
100
AcDbLine
 10
774.5258707947625
 20
643.6981644928178
 30
0.0
 11
774.5258707915482
 21
633.4981650636576
 31
0.0
  0
ARC
  5
245
330
10150
100
AcDbEntity
  8
Cut Out
100
AcDbCircle
 10
778.5258707915483
 20
633.4981650636615
 30
0.0000000000005684
 40
4.000000000000057
100
AcDbArc
 50
180.0
 51
0.0
  0
LINE
  5
246
330
10150
100
AcDbEntity
  8
Cut Out
100
AcDbLine
 10
639.6258464710381
 20
719.6981665880605
 30
0.0000000000005684
 11
585.4258449004631
 21
719.6981665880605
 31
0.0000000000005684
  0
LINE
  5
247
330
10150
100
AcDbEntity
  8
Cut Out
100
AcDbLine
 10
585.4258449004631
 20
719.6981665880605
 30
0.0000000000005684
 11
585.4258449004631
 21
2355.69816658806
 31
0.0000000000005684
  0
LINE
  5
248
330
10150
100
AcDbEntity
  8
Cut Out
100
AcDbLine
 10
585.4258449004631
 20
2355.69816658806
 30
0.0000000000005684
 11
639.6258464710381
 21
2355.69816658806
 31
0.0000000000005684
  0
ARC
  5
249
330
10150
100
AcDbEntity
  8
Cut Out
100
AcDbCircle
 10
1289.62583247162
 20
722.7881665880603
 30
0.0
 40
3.100000000000023
100
AcDbArc
 50
90.0000000000021
 51
269.999999999998
  0
ARC
  5
250
330
10150
100
AcDbEntity
  8
Cut Out
100
AcDbCircle
 10
1289.62583247162
 20
734.6081665880605
 30
0.0
 40
3.100000000000023
100
AcDbArc
 50
90.0000000000021
 51
269.999999999998
  0
LINE
  5
251
330
10150
100
AcDbEntity
  8
Cut Out
100
AcDbLine
 10
1289.62583247162
 20
731.5081665880605
 30
0.0
 11
1289.62583247162
 21
725.8881665880604
 31
0.0
  0
ARC
  5
252
330
10150
100
AcDbEntity
  8
Cut Out
100
AcDbCircle
 10
1289.625832396243
 20
2340.78816658806
 30
0.0
 40
3.100000000000023
100
AcDbArc
 50
90.0000000000021
 51
269.9999999999968
  0
ARC
  5
253
330
10150
100
AcDbEntity
  8
Cut Out
100
AcDbCircle
 10
1289.625832396243
 20
2352.60816658806
 30
0.0
 40
3.100000000000023
100
AcDbArc
 50
90.0000000000021
 51
269.999999999998
  0
LINE
  5
254
330
10150
100
AcDbEntity
  8
Cut Out
100
AcDbLine
 10
1289.625832396243
 20
2349.508166588061
 30
0.0
 11
1289.625832396243
 21
2343.88816658806
 31
0.0
  0
LWPOLYLINE
  5
255
330
10150
100
AcDbEntity
  8
Cut Out
100
AcDbPolyline
 90
        4
 70
     1
 43
0.0
 10
1235.425844900478
 20
2387.69816658806
 10
1235.425844900478
 20
687.6981665880605
 10
1915.425844900481
 20
687.6981665880606
 10
1915.425844900481
 20
2387.69816658806
  0
LINE
  5
256
330
10150
100
AcDbEntity
  8
Cut Out
100
AcDbLine
 10
565.2258454783469
 20
1458.698166588278
 30
0.0
 11
565.2258454774742
 21
705.0981665880604
 31
0.0
  0
LINE
  5
257
330
10150
100
AcDbEntity
  8
Cut Out
100
AcDbLine
 10
524.7258454774758
 20
737.6981665880605
 30
-0.0000000000000001
 11
500.2258697724649
 21
737.6981665880605
 31
0.0000000000005684
  0
LINE
  5
258
330
10150
100
AcDbEntity
  8
Cut Out
100
AcDbLine
 10
500.2258697724649
 20
737.6981665880605
 30
0.0000000000005684
 11
500.2258697724649
 21
2337.69816658806
 31
0.0
  0
LINE
  5
259
330
10150
100
AcDbEntity
  8
Cut Out
100
AcDbLine
 10
500.2258697724649
 20
2337.69816658806
 30
0.0
 11
524.7258454774765
 21
2337.69816658806
 31
0.0
  0
LINE
  5
260
330
10150
100
AcDbEntity
  8
Cut Out
100
AcDbLine
 10
565.2258454774721
 20
2370.298166588061
 30
0.0
 11
565.2258454783469
 21
1616.698166588061
 31
0.0
  0
ARC
  5
261
330
10150
100
AcDbEntity
  8
Cut Out
100
AcDbCircle
 10
569.2258454783469
 20
1616.698166588061
 30
0.0
 40
4.000000000000057
100
AcDbArc
 50
180.0
 51
270.0
  0
LINE
  5
262
330
10150
100
AcDbEntity
  8
Cut Out
100
AcDbLine
 10
573.2258454783669
 20
1612.698166588061
 30
0.0
 11
573.2258454783666
 21
1462.698166588278
 31
0.0000000000005684
  0
ARC
  5
263
330
10150
100
AcDbEntity
  8
Cut Out
100
AcDbCircle
 10
569.2258454783471
 20
1458.698166588278
 30
0.0
 40
4.000000000000199
100
AcDbArc
 50
90.0
 51
180.0
  0
LINE
  5
264
330
10150
100
AcDbEntity
  8
Cut Out
100
AcDbLine
 10
1952.925844934363
 20
737.6981665880605
 30
0.0000000000000001
 11
1928.425844900585
 21
737.6981665880605
 31
0.0000000000005684
  0
LINE
  5
265
330
10150
100
AcDbEntity
  8
Cut Out
100
AcDbLine
 10
1928.425844900585
 20
737.6981665880605
 30
0.0000000000005684
 11
1928.425844900585
 21
2337.69816658806
 31
0.0
  0
LINE
  5
266
330
10150
100
AcDbEntity
  8
Cut Out
100
AcDbLine
 10
1928.425844900585
 20
2337.69816658806
 30
0.0
 11
1952.925844934363
 21
2337.69816658806
 31
0.0000000000000001
  0
LINE
  5
267
330
10150
100
AcDbEntity
  8
Cut Out
100
AcDbLine
 10
1993.425844934337
 20
2370.298166588061
 30
0.0000000000005684
 11
1993.425844934337
 21
1616.698166588061
 31
0.0000000000005684
  0
ARC
  5
268
330
10150
100
AcDbEntity
  8
Cut Out
100
AcDbCircle
 10
1997.425844900585
 20
1616.698166588061
 30
0.0000000000005684
 40
3.999999999999915
100
AcDbArc
 50
180.0
 51
270.0000000000007
  0
LINE
  5
269
330
10150
100
AcDbEntity
  8
Cut Out
100
AcDbLine
 10
1997.425844900585
 20
1612.698166588061
 30
0.0000000000005684
 11
2001.425844900587
 21
1612.698166588061
 31
0.0000000000005684
  0
LINE
  5
270
330
10150
100
AcDbEntity
  8
Cut Out
100
AcDbLine
 10
2001.425844900587
 20
1612.698166588061
 30
0.0000000000005684
 11
2001.425844900588
 21
1462.698166588061
 31
0.0
  0
LINE
  5
271
330
10150
100
AcDbEntity
  8
Cut Out
100
AcDbLine
 10
2001.425844900588
 20
1462.698166588061
 30
0.0
 11
1997.425844900585
 21
1462.698166588061
 31
0.0
  0
ARC
  5
272
330
10150
100
AcDbEntity
  8
Cut Out
100
AcDbCircle
 10
1997.425844900585
 20
1458.698166588061
 30
0.0000000000005684
 40
3.999999999999915
100
AcDbArc
 50
90.0
 51
180.0
  0
LINE
  5
273
330
10150
100
AcDbEntity
  8
Cut Out
100
AcDbLine
 10
1645.425815029339
 20
651.698164492845
 30
0.0
 11
1645.425815029298
 21
641.4981650636855
 31
0.0
  0
ARC
  5
274
330
10150
100
AcDbEntity
  8
Cut Out
100
AcDbCircle
 10
1645.425815029266
 20
637.4981650636846
 30
0.0
 40
4.000000000000909
100
AcDbArc
 50
89.99999999953272
 51
270.0000000000094
  0
LINE
  5
275
330
10150
100
AcDbEntity
  8
Cut Out
100
AcDbLine
 10
825.4258747717017
 20
669.6981644917514
 30
0.0
 11
825.4258747716938
 21
641.4981650636855
 31
0.0000000000005684
  0
ARC
  5
276
330
10150
100
AcDbEntity
  8
Cut Out
100
AcDbCircle
 10
825.4258747716912
 20
637.4981650636846
 30
0.0
 40
3.99999999999995
100
AcDbArc
 50
269.9999999999951
 51
89.99999999996255
  0
LINE
  5
277
330
10150
100
AcDbEntity
  8
Cut Out
100
AcDbLine
 10
1342.625832471618
 20
734.6081665880605
 30
0.0
 11
1342.625832471618
 21
722.7881665880606
 31
0.0
  0
ARC
  5
278
330
10150
100
AcDbEntity
  8
Cut Out
100
AcDbCircle
 10
1339.525832471618
 20
722.7881665880606
 30
0.0
 40
3.100000000000016
100
AcDbArc
 50
269.9999999999989
 51
0.0
  0
LINE
  5
279
330
10150
100
AcDbEntity
  8
Cut Out
100
AcDbLine
 10
1342.625832471618
 20
722.7881665880606
 30
0.0
 11
1342.625832471618
 21
734.6081665880605
 31
0.0
  0
ARC
  5
280
330
10150
100
AcDbEntity
  8
Cut Out
100
AcDbCircle
 10
1339.525832471618
 20
734.6081665880605
 30
0.0
 40
3.099999999999739
100
AcDbArc
 50
0.0
 51
90.0
  0
ARC
  5
281
330
10150
100
AcDbEntity
  8
Cut Out
100
AcDbCircle
 10
1339.525832471618
 20
722.7881665880606
 30
0.0
 40
3.100000000000016
100
AcDbArc
 50
270.0
 51
0.0
  0
LINE
  5
282
330
10150
100
AcDbEntity
  8
Cut Out
100
AcDbLine
 10
1342.6258324715
 20
2352.608166588061
 30
0.0
 11
1342.625832471502
 21
2340.78816658806
 31
0.0
  0
ARC
  5
283
330
10150
100
AcDbEntity
  8
Cut Out
100
AcDbCircle
 10
1339.525832471501
 20
2352.60816658806
 30
0.0
 40
3.099999999999525
100
AcDbArc
 50
0.0
 51
90.00000000000315
  0
ARC
  5
284
330
10150
100
AcDbEntity
  8
Cut Out
100
AcDbCircle
 10
1339.525832471502
 20
2340.78816658806
 30
0.0
 40
3.100000000000023
100
AcDbArc
 50
270.0000000000021
 51
0.0
  0
LINE
  5
285
330
10150
100
AcDbEntity
  8
Cut Out
100
AcDbLine
 10
1960.925844934364
 20
2337.69816658806
 30
-0.0000000000000001
 11
1960.925844934353
 21
2347.298166588033
 31
0.0000000000005684
  0
ARC
  5
286
330
10150
100
AcDbEntity
  8
Cut Out
100
AcDbCircle
 10
1960.925844934352
 20
2351.298166588033
 30
0.0
 40
4.000000000000057
100
AcDbArc
 50
270.0000000000065
 51
90.0000000000057
  0
LINE
  5
287
330
10150
100
AcDbEntity
  8
Cut Out
100
AcDbLine
 10
1960.925844934352
 20
2355.298166588033
 30
0.0
 11
1955.425844934256
 21
2355.298166588033
 31
0.0
  0
ARC
  5
288
330
10150
100
AcDbEntity
  8
Cut Out
100
AcDbCircle
 10
1955.425844934255
 20
2359.798166588032
 30
0.0000000000005684
 40
4.499999999999602
100
AcDbArc
 50
180.0
 51
270.0000000000058
  0
LINE
  5
289
330
10150
100
AcDbEntity
  8
Cut Out
100
AcDbLine
 10
1950.925844934256
 20
2359.79816658803
 30
0.0000000000005684
 11
1950.92584493425
 21
2370.298166588061
 31
0.0
  0
LINE
  5
290
330
10150
100
AcDbEntity
  8
Cut Out
100
AcDbLine
 10
1950.92584493425
 20
2370.298166588061
 30
0.0
 11
1993.425844934337
 21
2370.298166588061
 31
0.000000000000569
  0
LINE
  5
291
330
10150
100
AcDbEntity
  8
Cut Out
100
AcDbLine
 10
532.7258454774758
 20
2337.698165459724
 30
0.0
 11
532.7258454774749
 21
2347.298166588061
 31
0.0
  0
ARC
  5
292
330
10150
100
AcDbEntity
  8
Cut Out
100
AcDbCircle
 10
532.7258454774753
 20
2351.29816658806
 30
0.0
 40
3.999999999999488
100
AcDbArc
 50
269.9999999999935
 51
89.99999999999349
  0
LINE
  5
293
330
10150
100
AcDbEntity
  8
Cut Out
100
AcDbLine
 10
532.7258454774758
 20
2355.29816658806
 30
0.0
 11
527.2258454773178
 21
2355.298166588061
 31
0.0000000000000001
  0
ARC
  5
294
330
10150
100
AcDbEntity
  8
Cut Out
100
AcDbCircle
 10
527.2258454773182
 20
2359.7981665879
 30
-0.0000000000005684
 40
4.499999999839019
100
AcDbArc
 50
180.0
 51
269.9999999999942
  0
LINE
  5
295
330
10150
100
AcDbEntity
  8
Cut Out
100
AcDbLine
 10
522.7258454774792
 20
2359.798166587898
 30
-0.0000000000005684
 11
522.7258454774744
 21
2370.298166588061
 31
0.0000000000005684
  0
LINE
  5
296
330
10150
100
AcDbEntity
  8
Cut Out
100
AcDbLine
 10
522.7258454774744
 20
2370.298166588061
 30
0.0000000000005684
 11
565.2258454774721
 21
2370.298166588061
 31
0.0
  0
LINE
  5
297
330
10150
100
AcDbEntity
  8
Cut Out
100
AcDbLine
 10
123.4258461908826
 20
2293.69816658806
 30
0.0000000000005684
 11
356.6321147127221
 21
2273.70533680341
 31
0.0000000000005662
  0
ARC
  5
298
330
10150
100
AcDbEntity
  8
Cut Out
100
AcDbCircle
 10
350.2258454774196
 20
2198.979439589092
 30
0.0
 40
75.0
100
AcDbArc
 50
0.0
 51
85.10000000000005
  0
LINE
  5
299
330
10150
100
AcDbEntity
  8
Cut Out
100
AcDbLine
 10
425.2258454774196
 20
2198.979439589092
 30
0.0
 11
425.2258454774196
 21
876.4168935870314
 31
0.0
  0
ARC
  5
300
330
10150
100
AcDbEntity
  8
Cut Out
100
AcDbCircle
 10
350.2258454774178
 20
876.4168935870312
 30
0.0000000000005684
 40
75.00000000000198
100
AcDbArc
 50
274.8999999999996
 51
0.0
  0
LINE
  5
301
330
10150
100
AcDbEntity
  8
Cut Out
100
AcDbLine
 10
356.6321147127201
 20
801.6909963727112
 30
0.0000000000005684
 11
123.4258461908823
 21
781.6981665880604
 31
0.0000000000000022
  0
LINE
  5
302
330
10150
100
AcDbEntity
  8
Cut Out
100
AcDbLine
 10
123.4258461908823
 20
781.6981665880604
 30
0.0000000000000022
 11
123.4258461908787
 21
737.6981665880605
 31
0.0000000000005684
  0
LINE
  5
303
330
10150
100
AcDbEntity
  8
Cut Out
100
AcDbLine
 10
123.4258461908787
 20
737.6981665880605
 30
0.0000000000005684
 11
167.9337136366528
 21
737.6981665880604
 31
0.0000000000005684
  0
LINE
  5
304
330
10150
100
AcDbEntity
  8
Cut Out
100
AcDbLine
 10
487.225845477416
 20
705.0981665880604
 30
0.000000000000569
 11
487.225845477416
 21
2370.298166588061
 31
0.0
  0
LINE
  5
305
330
10150
100
AcDbEntity
  8
Cut Out
100
AcDbLine
 10
487.225845477416
 20
2370.298166588061
 30
0.0
 11
444.7258454774183
 21
2370.298166588061
 31
-0.0000000000000006
  0
LINE
  5
306
330
10150
100
AcDbEntity
  8
Cut Out
100
AcDbLine
 10
444.7258454774183
 20
2370.298166588061
 30
-0.0000000000000006
 11
444.7258454774233
 21
2359.798166587897
 31
0.0000000000005684
  0
ARC
  5
307
330
10150
100
AcDbEntity
  8
Cut Out
100
AcDbCircle
 10
449.2258454772621
 20
2359.7981665879
 30
0.0
 40
4.499999999838735
100
AcDbArc
 50
180.0
 51
269.9999999999942
  0
LINE
  5
308
330
10150
100
AcDbEntity
  8
Cut Out
100
AcDbLine
 10
449.2258454772616
 20
2355.298166588061
 30
0.0
 11
454.7258454774196
 21
2355.29816658806
 31
-0.0000000000000001
  0
ARC
  5
309
330
10150
100
AcDbEntity
  8
Cut Out
100
AcDbCircle
 10
454.7258454774192
 20
2351.298166588061
 30
0.0000000000005684
 40
3.999999999999773
100
AcDbArc
 50
270.0000000000065
 51
89.99999999999349
  0
LINE
  5
310
330
10150
100
AcDbEntity
  8
Cut Out
100
AcDbLine
 10
454.7258454774196
 20
2347.298166588061
 30
0.0000000000005684
 11
454.7258454774196
 21
2337.698165459724
 31
0.0000000000005684
  0
LINE
  5
311
330
10150
100
AcDbEntity
  8
Cut Out
100
AcDbLine
 10
446.7258454774196
 20
2337.698165457355
 30
0.0
 11
208.4258461908826
 21
2337.69816658806
 31
-0.0000000000000022
  0
LINE
  5
312
330
10150
100
AcDbEntity
  8
Cut Out
100
AcDbLine
 10
208.4258461908826
 20
2337.69816658806
 30
-0.0000000000000022
 11
208.425846190883
 21
2370.298166588061
 31
0.0000000000005684
  0
LINE
  5
313
330
10150
100
AcDbEntity
  8
Cut Out
100
AcDbLine
 10
208.425846190883
 20
2370.298166588061
 30
0.0000000000005684
 11
165.9258461908826
 21
2370.298166588061
 31
0.0000000000005679
  0
LINE
  5
314
330
10150
100
AcDbEntity
  8
Cut Out
100
AcDbLine
 10
165.9258461908826
 20
2370.298166588061
 30
0.0000000000005679
 11
165.9258461908823
 21
2359.798166588061
 31
0.0000000000005684
  0
ARC
  5
315
330
10150
100
AcDbEntity
  8
Cut Out
100
AcDbCircle
 10
170.4258461908821
 20
2359.798166588061
 30
0.0000000000005684
 40
4.499999999999602
100
AcDbArc
 50
180.0
 51
269.9999999999942
  0
LINE
  5
316
330
10150
100
AcDbEntity
  8
Cut Out
100
AcDbLine
 10
170.4258461908817
 20
2355.298166588061
 30
0.0000000000005684
 11
175.9258461908826
 21
2355.29816658806
 31
0.0000000000005684
  0
ARC
  5
317
330
10150
100
AcDbEntity
  8
Cut Out
100
AcDbCircle
 10
175.9258461908823
 20
2351.29816658806
 30
0.0
 40
4.000000000000341
100
AcDbArc
 50
270.0000000000098
 51
89.99999999999675
  0
LINE
  5
318
330
10150
100
AcDbEntity
  8
Cut Out
100
AcDbLine
 10
175.925846190883
 20
2347.29816658806
 30
0.0
 11
175.9258461908823
 21
2337.919907681909
 31
-0.0000000000005684
  0
ARC
  5
319
330
10150
100
AcDbEntity
  8
Cut Out
100
AcDbCircle
 10
171.9259407451939
 20
2337.947410873508
 30
0.0
 40
3.999999999999725
100
AcDbArc
 50
183.5724757447329
 51
359.6060426953592
  0
LINE
  5
320
330
10150
100
AcDbEntity
  8
Cut Out
100
AcDbLine
 10
123.425846190878
 20
2337.69816658806
 30
0.0
 11
123.4258461908826
 21
2293.69816658806
 31
0.0000000000005684
  0
LINE
  5
321
330
10150
100
AcDbEntity
  8
Cut Out
100
AcDbLine
 10
569.2258454783469
 20
1612.698166588061
 30
0.0
 11
573.2258454783669
 21
1612.698166588061
 31
0.0
  0
LINE
  5
322
330
10150
100
AcDbEntity
  8
Cut Out
100
AcDbLine
 10
573.2258454783666
 20
1462.698166588278
 30
0.0000000000005684
 11
569.2258454783471
 21
1462.698166588278
 31
0.0000000000005684
  0
LINE
  5
323
330
10150
100
AcDbEntity
  8
Cut Out
100
AcDbLine
 10
1652.563924513468
 20
312.3328278346253
 30
0.0000000000005673
 11
1663.625820028497
 21
312.3328279359464
 31
0.0000000000005684
  0
LINE
  5
324
330
10150
100
AcDbEntity
  8
Cut Out
100
AcDbLine
 10
818.2877652874881
 20
312.3328278346253
 30
0.0000000000000011
 11
807.2258697724599
 21
312.3328279359464
 31
0.0
  0
LINE
  5
325
330
10150
100
AcDbEntity
  8
Cut Out
100
AcDbLine
 10
167.9337136366528
 20
2337.69816658806
 30
0.0
 11
123.425846190878
 21
2337.69816658806
 31
0.0
  0
LINE
  5
326
330
10150
100
AcDbEntity
  8
Cut Out
100
AcDbLine
 10
565.2258454774742
 20
705.0981665880604
 30
0.0
 11
522.7258454774742
 21
705.0981665880604
 31
-0.0000000000000006
  0
LINE
  5
327
330
10150
100
AcDbEntity
  8
Cut Out
100
AcDbLine
 10
522.7258454774742
 20
705.0981665880604
 30
-0.0000000000000006
 11
522.7258454774794
 21
715.5981665882236
 31
0.0
  0
ARC
  5
328
330
10150
100
AcDbEntity
  8
Cut Out
100
AcDbCircle
 10
527.2258454773178
 20
715.5981665882216
 30
-0.0000000000005684
 40
4.499999999838511
100
AcDbArc
 50
90.0
 51
180.0
  0
LINE
  5
329
330
10150
100
AcDbEntity
  8
Cut Out
100
AcDbLine
 10
527.2258454773178
 20
720.09816658806
 30
-0.0000000000005684
 11
532.7258454774756
 21
720.0981665880607
 31
-0.0000000000005684
  0
ARC
  5
330
330
10150
100
AcDbEntity
  8
Cut Out
100
AcDbCircle
 10
532.7258454774753
 20
724.0981665880606
 30
0.0
 40
3.999999999999844
100
AcDbArc
 50
270.0000000000032
 51
90.00000000000651
  0
LINE
  5
331
330
10150
100
AcDbEntity
  8
Cut Out
100
AcDbLine
 10
532.7258454774749
 20
728.0981665880604
 30
0.0
 11
532.725845477476
 21
737.6981671533727
 31
0.0
  0
LINE
  5
332
330
10150
100
AcDbEntity
  8
Cut Out
100
AcDbLine
 10
1993.425844934337
 20
1458.698166588061
 30
0.0000000000005684
 11
1993.425844934338
 21
705.0981665880604
 31
0.0000000000005684
  0
LINE
  5
333
330
10150
100
AcDbEntity
  8
Cut Out
100
AcDbLine
 10
1993.425844934338
 20
705.0981665880604
 30
0.0000000000005684
 11
1950.92584493425
 21
705.0981665880604
 31
0.0
  0
LINE
  5
334
330
10150
100
AcDbEntity
  8
Cut Out
100
AcDbLine
 10
1950.92584493425
 20
705.0981665880604
 30
0.0
 11
1950.925844934256
 21
715.5981665880913
 31
0.0000000000005684
  0
ARC
  5
335
330
10150
100
AcDbEntity
  8
Cut Out
100
AcDbCircle
 10
1955.425844934256
 20
715.5981665880885
 30
0.0000000000005684
 40
4.499999999999603
100
AcDbArc
 50
89.99999999999567
 51
180.0
  0
LINE
  5
336
330
10150
100
AcDbEntity
  8
Cut Out
100
AcDbLine
 10
1955.425844934256
 20
720.098166588088
 30
0.0000000000005684
 11
1960.925844934353
 21
720.0981665880877
 31
0.0000000000000001
  0
ARC
  5
337
330
10150
100
AcDbEntity
  8
Cut Out
100
AcDbCircle
 10
1960.925844934352
 20
724.0981665880878
 30
0.0
 40
4.000000000000058
100
AcDbArc
 50
270.0000000000032
 51
90.00000000000408
  0
LINE
  5
338
330
10150
100
AcDbEntity
  8
Cut Out
100
AcDbLine
 10
1960.925844934352
 20
728.0981665880879
 30
0.0
 11
1960.925844934348
 21
737.6981665880603
 31
0.0
  0
ARC
  5
339
330
10150
100
AcDbEntity
  8
Cut Out
100
AcDbCircle
 10
171.9259407451939
 20
737.4489223026137
 30
0.0
 40
3.999999999999877
100
AcDbArc
 50
0.3939573046426214
 51
176.4275242552693
  0
LINE
  5
340
330
10150
100
AcDbEntity
  8
Cut Out
100
AcDbLine
 10
175.9258461908826
 20
737.4764254942127
 30
0.0000000000000001
 11
175.9258461908826
 21
728.0981665880614
 31
-0.0000000000005684
  0
ARC
  5
341
330
10150
100
AcDbEntity
  8
Cut Out
100
AcDbCircle
 10
175.9258461908823
 20
724.0981665880611
 30
0.0
 40
4.000000000000341
100
AcDbArc
 50
270.0000000000098
 51
89.99999999999675
  0
LINE
  5
342
330
10150
100
AcDbEntity
  8
Cut Out
100
AcDbLine
 10
175.925846190883
 20
720.0981665880607
 30
0.0
 11
170.4258461908814
 21
720.0981665880602
 31
-0.0000000000005684
  0
ARC
  5
343
330
10150
100
AcDbEntity
  8
Cut Out
100
AcDbCircle
 10
170.4258461908821
 20
715.5981665880606
 30
0.0000000000005684
 40
4.499999999999602
100
AcDbArc
 50
90.0000000000087
 51
180.0
  0
LINE
  5
344
330
10150
100
AcDbEntity
  8
Cut Out
100
AcDbLine
 10
165.9258461908823
 20
715.5981665880607
 30
0.0000000000005684
 11
165.9258461908826
 21
705.0981665880604
 31
0.0000000000005684
  0
LINE
  5
345
330
10150
100
AcDbEntity
  8
Cut Out
100
AcDbLine
 10
165.9258461908826
 20
705.0981665880604
 30
0.0000000000005684
 11
208.425846190883
 21
705.0981665880604
 31
0.000000000000569
  0
LINE
  5
346
330
10150
100
AcDbEntity
  8
Cut Out
100
AcDbLine
 10
208.425846190883
 20
705.0981665880604
 30
0.000000000000569
 11
208.4258461908826
 21
737.6981665880603
 31
0.0000000000005684
  0
LINE
  5
347
330
10150
100
AcDbEntity
  8
Cut Out
100
AcDbLine
 10
208.4258461908826
 20
737.6981665880603
 30
0.0000000000005684
 11
446.7258454774196
 21
737.6981677175818
 31
0.0000000000005707
  0
ARC
  5
348
330
10150
100
AcDbEntity
  8
Cut Out
100
AcDbCircle
 10
450.7258454774196
 20
737.6981677175818
 30
0.0
 40
4.000000000000199
100
AcDbArc
 50
0.0
 51
180.0
  0
LINE
  5
349
330
10150
100
AcDbEntity
  8
Cut Out
100
AcDbLine
 10
454.7258454774199
 20
737.6981677175818
 30
0.0
 11
454.7258454774189
 21
728.0981665880603
 31
0.0000000000005684
  0
ARC
  5
350
330
10150
100
AcDbEntity
  8
Cut Out
100
AcDbCircle
 10
454.7258454774192
 20
724.0981665880605
 30
0.0000000000005684
 40
3.999999999999773
100
AcDbArc
 50
270.0000000000065
 51
90.00000000000325
  0
LINE
  5
351
330
10150
100
AcDbEntity
  8
Cut Out
100
AcDbLine
 10
454.7258454774196
 20
720.0981665880607
 30
0.0000000000005684
 11
449.2258454772618
 21
720.0981665880602
 31
0.0000000000005685
  0
ARC
  5
352
330
10150
100
AcDbEntity
  8
Cut Out
100
AcDbCircle
 10
449.2258454772621
 20
715.5981665882214
 30
0.0
 40
4.499999999838735
100
AcDbArc
 50
90.0000000000029
 51
180.0
  0
LINE
  5
353
330
10150
100
AcDbEntity
  8
Cut Out
100
AcDbLine
 10
444.7258454774233
 20
715.5981665882236
 30
-0.0000000000000001
 11
444.7258454774183
 21
705.0981665880604
 31
0.0
  0
LINE
  5
354
330
10150
100
AcDbEntity
  8
Cut Out
100
AcDbLine
 10
444.7258454774183
 20
705.0981665880604
 30
0.0
 11
487.225845477416
 21
705.0981665880604
 31
0.000000000000569
  0
ARC
  5
355
330
10150
100
AcDbEntity
  8
Cut Out
100
AcDbCircle
 10
450.7258454774196
 20
2337.698165458539
 30
0.0
 40
4.000000000000057
100
AcDbArc
 50
180.0
 51
0.0
  0
ARC
  5
356
330
10150
100
AcDbEntity
  8
Cut Out
100
AcDbCircle
 10
528.725845477476
 20
2337.698165458539
 30
0.0
 40
3.99999999999979
100
AcDbArc
 50
179.9999838458445
 51
0.0
  0
ARC
  5
357
330
10150
100
AcDbEntity
  8
Cut Out
100
AcDbCircle
 10
528.725845477476
 20
737.6981677175817
 30
0.0
 40
3.999999999999955
100
AcDbArc
 50
359.9999919455155
 51
180.0000161541554
  0
ARC
  5
358
330
10150
100
AcDbEntity
  8
Cut Out
100
AcDbCircle
 10
1956.925844934363
 20
2337.69816658806
 30
0.0
 40
4.000000000000128
100
AcDbArc
 50
180.0
 51
0.0
  0
ARC
  5
359
330
10150
100
AcDbEntity
  8
Cut Out
100
AcDbCircle
 10
1956.925844934364
 20
737.6981665880603
 30
0.0
 40
3.999999999984425
100
AcDbArc
 50
0.0
 51
180.0
  0
LINE
  5
360
330
10150
100
AcDbEntity
  8
Cut Out
100
AcDbLine
 10
639.6258531330202
 20
2337.69816658806
 30
0.0
 11
1200.865803181376
 21
2337.69816658806
 31
-0.0000000000000044
  0
LINE
  5
361
330
10150
100
AcDbEntity
  8
Cut Out
100
AcDbLine
 10
1200.865803181376
 20
2337.69816658806
 30
-0.0000000000000044
 11
1200.865803181376
 21
737.6981665880606
 31
0.0
  0
LINE
  5
362
330
10150
100
AcDbEntity
  8
Cut Out
100
AcDbLine
 10
1200.865803181376
 20
737.6981665880606
 30
0.0
 11
639.6258518056536
 21
737.6981665880606
 31
0.0000000000000044
  0
LINE
  5
363
330
10150
100
AcDbEntity
  8
Cut Out
100
AcDbLine
 10
639.625849434168
 20
729.6981665881701
 30
0.0
 11
639.6258464710381
 21
719.6981665880605
 31
0.0
  0
LINE
  5
364
330
10150
100
AcDbEntity
  8
Cut Out
100
AcDbLine
 10
639.6258464710381
 20
2355.69816658806
 30
0.0000000000005684
 11
639.6258464710381
 21
2345.698166588043
 31
0.0000000000005684
  0
ARC
  5
365
330
10150
100
AcDbEntity
  8
Cut Out
100
AcDbCircle
 10
639.6258464710381
 20
2341.698166588043
 30
0.0000000000005684
 40
3.999999999999773
100
AcDbArc
 50
90.0
 51
270.0
  0
LWPOLYLINE
  5
366
330
10150
100
AcDbEntity
  8
Cut Out
100
AcDbPolyline
 90
       30
 70
     1
 43
0.0
 10
399.025816183123
 20
649.4471218884796
 10
399.025816183123
 20
564.6981665880603
 10
369.0258161831227
 20
564.6981665880603
 10
369.0258161831227
 20
572.6981665880603
 10
89.52584602055754
 20
572.6981665880605
 42
0.9999999999999999
 10
81.52584602055799
 20
572.6981665880603
 10
81.52584602055367
 20
563.0981665880879
 42
0.9999999999999999
 10
81.5258460205539
 20
555.0981665880877
 10
87.02584602064985
 20
555.0981665880881
 42
-0.4142135623729563
 10
91.52584602065008
 20
550.5981665880913
 10
91.52584602065622
 20
540.0981665880604
 10
49.02584602056913
 20
540.0981665880604
 10
49.02584602056913
 20
2205.298166588061
 10
91.52584602065622
 20
2205.298166588061
 10
91.52584602065008
 20
2194.79816658803
 42
-0.4142135623729471
 10
87.02584602064985
 20
2190.298166588033
 10
81.52584602055367
 20
2190.298166588033
 42
0.9999999999999999
 10
81.52584602055322
 20
2182.298166588033
 10
81.52584602055731
 20
2172.69816658806
 42
0.9999999999999999
 10
89.52584602055776
 20
2172.69816658806
 10
369.0258161831227
 20
2172.69816658806
 10
369.0258161831225
 20
2180.698166588061
 10
399.025816183123
 20
2180.698166588061
 10
399.025816183123
 20
2095.949173909005
 10
179.610227880974
 20
2077.13863105509
 10
179.6098936209121
 20
2077.138631055089
 42
0.3893438273940561
 10
111.0258460301861
 20
2002.413564614119
 10
111.0258460218101
 20
742.9827690120259
 42
0.3893811436433153
 10
179.61957959867
 20
668.2568711078147
 10
191.1510582119404
 20
667.2682750259537
  0
ARC
  5
367
330
10150
100
AcDbEntity
  8
Cut Out
100
AcDbCircle
 10
639.6258518056534
 20
733.698166588115
 30
0.0
 40
3.999999999945658
100
AcDbArc
 50
89.99999999999675
 51
269.9999660309741
  0
LINE
  5
368
330
10150
100
AcDbEntity
  8
Cut Out
100
AcDbLine
 10
1339.525832471618
 20
737.7081665880605
 30
0.0
 11
1289.62583247162
 21
737.7081665880605
 31
0.0
  0
LINE
  5
369
330
10150
100
AcDbEntity
  8
Cut Out
100
AcDbLine
 10
1339.525832471618
 20
719.6881665880605
 30
-0.0000000000000001
 11
1289.62583247162
 21
719.6881665880603
 31
0.0
  0
LINE
  5
370
330
10150
100
AcDbEntity
  8
Cut Out
100
AcDbLine
 10
1339.525832471501
 20
2355.708166588061
 30
0.0
 11
1289.625832396243
 21
2355.708166588061
 31
0.0
  0
LINE
  5
371
330
10150
100
AcDbEntity
  8
Cut Out
100
AcDbLine
 10
1339.525832471502
 20
2337.68816658806
 30
0.0
 11
1289.625832396243
 21
2337.68816658806
 31
0.0
  0
LINE
  5
372
330
10150
100
AcDbEntity
  8
Cut Out
100
AcDbLine
 10
1688.325819009408
 20
633.4981650636662
 30
0.0000000000005684
 11
1645.425815029266
 21
633.4981650636846
 31
0.0
  0
LINE
  5
373
330
10150
100
AcDbEntity
  8
Cut Out
100
AcDbLine
 10
782.5258707915483
 20
633.4981650636662
 30
0.0000000000005685
 11
825.4258747716908
 21
633.4981650636846
 31
0.0
  0
MTEXT
  5
10047
330
10150
100
AcDbEntity
  8
Sheets
100
AcDbMText
 10
-1400.0
 20
700.0
 30
0.0
 40
50.0
 41
0.0
 46
0.0
 71
     1
 72
     1
  1
Clean Desk\Pfrom 18mm plywood, \Psheets from 1220 x2400mm, \Puse a 6 or 8mm bit
  7
textstyle15
 73
     1
 44
1.0
  0
MTEXT
  5
10049
330
10150
100
AcDbEntity
  8
9mm Pocket
100
AcDbMText
 10
-1400.0
 20
360.0
 30
0.0
 40
50.0
 41
0.0
 46
0.0
 71
     1
 72
     1
  1
9mm deep pocket
  7
textstyle16
 73
     1
 44
1.0
  0
MTEXT
  5
1004A
330
10150
100
AcDbEntity
  8
Cut Out
100
AcDbMText
 10
-1400.0
 20
260.0
 30
0.0
 40
50.0
 41
0.0
 46
0.0
 71
     1
 72
     1
  1
Cut all the way through, outside the profile
  7
textstyle17
 73
     1
 44
1.0
  0
VIEWPORT
  5
1021A
330
1014C
100
AcDbEntity
 67
     1
  8
0
 62
    18
420
        0
100
AcDbViewport
 10
5.25
 20
4.0
 30
0.0
 40
11.638
 41
8.993
 68
     1
 69
     1
 12
5.25
 22
4.0
 13
0.0
 23
0.0
 14
0.5
 24
0.5
 15
0.5
 25
0.5
 16
0.0
 26
0.0
 36
1.0
 17
0.0
 27
0.0
 37
0.0
 42
50.0
 43
0.0
 44
0.0
 45
8.993
 50
0.0
 51
0.0
 72
   100
 90
   557152
  1

281
     0
 71
     1
 74
     0
110
0.0
120
0.0
130
0.0
111
1.0
121
0.0
131
0.0
112
0.0
122
1.0
132
0.0
 79
     0
146
0.0
170
     0
 61
     5
292
     1
282
     1
141
0.0
142
0.0
 63
   256
361
1021B
  0
ENDSEC
  0
SECTION
  2
OBJECTS
  0
DICTIONARY
  5
1013E
330
0
100
AcDbDictionary
281
     1
  3
ACAD_DETAILVIEWSTYLE
350
10226
  3
ACAD_GROUP
350
1013F
  3
ACAD_LAYOUT
350
1014B
  3
ACAD_MATERIAL
350
10174
  3
ACAD_MLEADERSTYLE
350
1019C
  3
ACAD_MLINESTYLE
350
10148
  3
ACAD_PLOTSETTINGS
350
1014A
  3
ACAD_PLOTSTYLENAME
350
10140
  3
ACAD_SCALELIST
350
10178
  3
ACAD_SECTIONVIEWSTYLE
350
10227
  3
ACAD_TABLESTYLE
350
1019A
  3
ACAD_VISUALSTYLE
350
1015B
  3
ACDB_RECOMPOSE_DATA
350
10223
  3
AcDbVariableDictionary
350
1021F
  3
QCAD_OBJECTS
350
101A0
  0
SUN
  5
1019E
330
1015A
100
AcDbSun
 90
        1
290
     0
 63
     7
421
 16777215
 40
1.0
291
     1
 91
  2455826
 92
 54000000
292
     0
 70
     2
 71
   256
280
     1
  0
SUN
  5
1021B
330
1021A
100
AcDbSun
 90
        1
290
     0
 63
     7
421
 16777215
 40
1.0
291
     1
 91
  2455826
 92
 54000000
292
     0
 70
     2
 71
   256
280
     1
  0
DICTIONARY
  5
10226
102
{ACAD_REACTORS
330
1013E
102
}
330
1013E
100
AcDbDictionary
281
     1
  0
DICTIONARY
  5
1013F
102
{ACAD_REACTORS
330
1013E
102
}
330
1013E
100
AcDbDictionary
281
     1
  0
DICTIONARY
  5
1014B
102
{ACAD_REACTORS
330
1013E
102
}
330
1013E
100
AcDbDictionary
281
     1
  3
Layout1
350
1014F
  3
Model
350
10153
  0
DICTIONARY
  5
10174
102
{ACAD_REACTORS
330
1013E
102
}
330
1013E
100
AcDbDictionary
281
     1
  3
ByBlock
350
10176
  3
ByLayer
350
10175
  3
Global
350
10177
  0
DICTIONARY
  5
1019C
102
{ACAD_REACTORS
330
1013E
102
}
330
1013E
100
AcDbDictionary
281
     1
  3
Standard
350
1019D
  0
DICTIONARY
  5
10148
102
{ACAD_REACTORS
330
1013E
102
}
330
1013E
100
AcDbDictionary
281
     1
  3
Standard
350
10149
  0
DICTIONARY
  5
1014A
102
{ACAD_REACTORS
330
1013E
102
}
330
1013E
100
AcDbDictionary
281
     1
  0
ACDBDICTIONARYWDFLT
  5
10140
102
{ACAD_REACTORS
330
1013E
102
}
330
1013E
100
AcDbDictionary
281
     1
  3
Normal
350
10141
100
AcDbDictionaryWithDefault
340
10141
  0
DICTIONARY
  5
10178
102
{ACAD_REACTORS
330
1013E
102
}
330
1013E
100
AcDbDictionary
281
     1
  3
A0
350
10179
  3
A1
350
1017A
  3
A2
350
1017B
  3
A3
350
1017C
  3
A4
350
1017D
  3
A5
350
1017E
  3
A6
350
1017F
  3
A7
350
10180
  3
A8
350
10181
  3
A9
350
10182
  3
B0
350
10183
  3
B1
350
10184
  3
B2
350
10185
  3
B3
350
10186
  3
B4
350
10187
  3
B5
350
10188
  3
B6
350
10189
  3
B7
350
1018A
  3
B8
350
1018B
  3
B9
350
1018C
  3
C0
350
1018D
  3
C1
350
1018E
  3
C2
350
1018F
  3
C3
350
10190
  3
C4
350
10191
  3
C5
350
10192
  3
C6
350
10193
  3
C7
350
10194
  3
C8
350
10195
  3
C9
350
10196
  3
D0
350
10197
  3
D1
350
10198
  3
D2
350
10199
  0
DICTIONARY
  5
10227
102
{ACAD_REACTORS
330
1013E
102
}
330
1013E
100
AcDbDictionary
281
     1
  0
DICTIONARY
  5
1019A
102
{ACAD_REACTORS
330
1013E
102
}
330
1013E
100
AcDbDictionary
281
     1
  3
Standard
350
1019B
  0
DICTIONARY
  5
1015B
102
{ACAD_REACTORS
330
1013E
102
}
330
1013E
100
AcDbDictionary
281
     1
  3
2dWireframe
350
10160
  3
Basic
350
10163
  3
Brighten
350
10167
  3
ColorChange
350
1016B
  3
Conceptual
350
10165
  3
Dim
350
10166
  3
EdgeColorOff
350
1016E
  3
Facepattern
350
1016A
  3
Flat
350
1015C
  3
FlatWithEdges
350
1015D
  3
Gouraud
350
1015E
  3
GouraudWithEdges
350
1015F
  3
Hidden
350
10162
  3
JitterOff
350
1016C
  3
Linepattern
350
10169
  3
OverhangOff
350
1016D
  3
Realistic
350
10164
  3
Shaded
350
10173
  3
Shaded with edges
350
10172
  3
Shades of Gray
350
1016F
  3
Sketchy
350
10170
  3
Thicken
350
10168
  3
Wireframe
350
10161
  3
X-Ray
350
10171
  0
XRECORD
  5
10223
102
{ACAD_REACTORS
330
1013E
102
}
330
1013E
100
AcDbXrecord
280
     1
 90
        1
330
1019B
  0
DICTIONARY
  5
1021F
102
{ACAD_REACTORS
330
1013E
102
}
330
1013E
100
AcDbDictionary
281
     1
  3
CANNOSCALE
350
10220
  3
CMLEADERSTYLE
350
10225
  3
CTABLESTYLE
350
10224
  0
DICTIONARY
  5
101A0
102
{ACAD_REACTORS
330
1013E
102
}
330
1013E
100
AcDbDictionary
281
     1
  3
ColorSettings/BackgroundColor
350
101A2
  3
ColorSettings/ColorMode
350
101A3
  3
Grid/DisplayGrid00
350
101A4
  3
Grid/DisplayGrid01
350
101A5
  3
Grid/DisplayGrid02
350
101A6
  3
Grid/DisplayGrid03
350
101A7
  3
Grid/GridSpacingX00
350
101A8
  3
Grid/GridSpacingX01
350
101A9
  3
Grid/GridSpacingX02
350
101AA
  3
Grid/GridSpacingX03
350
101AB
  3
Grid/GridSpacingY00
350
101AC
  3
Grid/GridSpacingY01
350
101AD
  3
Grid/GridSpacingY02
350
101AE
  3
Grid/GridSpacingY03
350
101AF
  3
Grid/IsometricGrid00
350
101B0
  3
Grid/IsometricGrid01
350
101B1
  3
Grid/IsometricGrid02
350
101B2
  3
Grid/IsometricGrid03
350
101B3
  3
Grid/IsometricProjection00
350
101B4
  3
Grid/IsometricProjection01
350
101B5
  3
Grid/IsometricProjection02
350
101B6
  3
Grid/IsometricProjection03
350
101B7
  3
Grid/MetaGridSpacingX00
350
101B8
  3
Grid/MetaGridSpacingX01
350
101B9
  3
Grid/MetaGridSpacingX02
350
101BA
  3
Grid/MetaGridSpacingX03
350
101BB
  3
Grid/MetaGridSpacingY00
350
101BC
  3
Grid/MetaGridSpacingY01
350
101BD
  3
Grid/MetaGridSpacingY02
350
101BE
  3
Grid/MetaGridSpacingY03
350
101BF
  3
MultiPageSettings/Columns
350
101C0
  3
MultiPageSettings/GlueMarginsBottom
350
101C1
  3
MultiPageSettings/GlueMarginsLeft
350
101C2
  3
MultiPageSettings/GlueMarginsRight
350
101C3
  3
MultiPageSettings/GlueMarginsTop
350
101C4
  3
MultiPageSettings/PrintCropMarks
350
101C5
  3
MultiPageSettings/Rows
350
101C6
  3
PageSettings/OffsetX
350
101C7
  3
PageSettings/OffsetY
350
101C8
  3
PageSettings/PageOrientation
350
101C9
  3
PageSettings/PaperHeight
350
101CA
  3
PageSettings/PaperWidth
350
101CB
  3
PageSettings/Scale
350
101CC
  3
PageSettings/ShowPaperBorders
350
101CD
  3
QCADVersion
350
101CE
  3
UnitSettings/PaperUnit
350
101CF
  3
ViewportCenter
350
101D0
  3
ViewportHeight
350
101D1
  3
ViewportWidth
350
101D2
  0
LAYOUT
  5
1014F
102
{ACAD_REACTORS
330
1014B
102
}
330
1014B
100
AcDbPlotSettings
  1

  2
none_device
  4
Letter_(8.50_x_11.00_Inches)
  6

 40
6.35
 41
6.35
 42
6.35001
 43
6.35001
 44
215.9
 45
279.4
 46
0.0
 47
0.0
 48
0.0
 49
0.0
140
0.0
141
0.0
142
1.0
143
1.0
 70
   688
 72
     0
 73
     1
 74
     5
  7

 75
    16
 76
     0
 77
     2
 78
   300
147
1.0
148
0.0
149
0.0
100
AcDbLayout
  1
Layout1
 70
     1
 71
     1
 10
-0.25
 20
-0.25
 11
10.75
 21
8.25
 12
0.0
 22
0.0
 32
0.0
 14
1.000000000000000E+20
 24
1.000000000000000E+20
 34
1.000000000000000E+20
 15
-1.000000000000000E+20
 25
-1.000000000000000E+20
 35
-1.000000000000000E+20
146
0.0
 13
0.0
 23
0.0
 33
0.0
 16
1.0
 26
0.0
 36
0.0
 17
0.0
 27
1.0
 37
0.0
 76
     0
330
1014C
331
1021A
  0
LAYOUT
  5
10153
102
{ACAD_REACTORS
330
1014B
102
}
330
1014B
100
AcDbPlotSettings
  1

  2
none_device
  4
Letter_(8.50_x_11.00_Inches)
  6

 40
6.35
 41
6.35
 42
6.35000508
 43
6.35000508
 44
215.9
 45
279.4
 46
0.0
 47
0.0
 48
0.0
 49
0.0
140
0.0
141
0.0
142
1.0
143
1.0
 70
  1712
 72
     0
 73
     0
 74
     0
  7

 75
     0
 76
     0
 77
     2
 78
   300
147
1.0
148
0.0
149
0.0
100
AcDbLayout
  1
Model
 70
     1
 71
     0
 10
0.0
 20
0.0
 11
12.0
 21
9.0
 12
0.0
 22
0.0
 32
0.0
 14
1.000000000000000E+20
 24
1.000000000000000E+20
 34
1.000000000000000E+20
 15
-1.000000000000000E+20
 25
-1.000000000000000E+20
 35
-1.000000000000000E+20
146
0.0
 13
0.0
 23
0.0
 33
0.0
 16
1.0
 26
0.0
 36
0.0
 17
0.0
 27
1.0
 37
0.0
 76
     0
330
10150
331
1015A
  0
MATERIAL
  5
10176
102
{ACAD_REACTORS
330
10174
102
}
330
10174
100
AcDbMaterial
  1
ByBlock
 72
     1
 94
      127
  0
MATERIAL
  5
10175
102
{ACAD_REACTORS
330
10174
102
}
330
10174
100
AcDbMaterial
  1
ByLayer
 72
     1
 94
      127
  0
MATERIAL
  5
10177
102
{ACAD_REACTORS
330
10174
102
}
330
10174
100
AcDbMaterial
  1
Global
 72
     1
 94
      127
  0
MLEADERSTYLE
  5
1019D
102
{ACAD_REACTORS
330
1019C
102
}
330
1019C
100
AcDbMLeaderStyle
179
     2
170
     2
171
     1
172
     0
 90
        2
 40
0.0
 41
0.0
173
     1
 91
-1056964608
340
10145
 92
       -2
290
     1
 42
0.09
291
     1
 43
0.36
  3
Standard
341
0
 44
0.18
300

342
10143
174
     1
178
     6
175
     1
176
     0
 93
-1056964608
 45
0.18
292
     0
297
     0
 46
0.18
343
0
 94
-1056964608
 47
1.0
 49
1.0
140
1.0
293
     1
141
0.0
294
     1
177
     0
142
1.0
295
     0
296
     0
143
0.125
271
     0
272
     9
273
     9
298
     0
  0
MLINESTYLE
  5
10149
102
{ACAD_REACTORS
330
10148
102
}
330
10148
100
AcDbMlineStyle
  2
Standard
 70
     0
  3

 62
   256
 51
90.0
 52
90.0
 71
     2
 49
0.5
 62
   256
  6
BYLAYER
 49
-0.5
 62
   256
  6
BYLAYER
  0
ACDBPLACEHOLDER
  5
10141
102
{ACAD_REACTORS
330
10140
102
}
330
10140
  0
SCALE
  5
10179
102
{ACAD_REACTORS
330
10178
102
}
330
10178
100
AcDbScale
 70
     0
300
1:1
140
1.0
141
1.0
290
     1
  0
SCALE
  5
1017A
102
{ACAD_REACTORS
330
10178
102
}
330
10178
100
AcDbScale
 70
     0
300
1:2
140
1.0
141
2.0
290
     0
  0
SCALE
  5
1017B
102
{ACAD_REACTORS
330
10178
102
}
330
10178
100
AcDbScale
 70
     0
300
1:4
140
1.0
141
4.0
290
     0
  0
SCALE
  5
1017C
102
{ACAD_REACTORS
330
10178
102
}
330
10178
100
AcDbScale
 70
     0
300
1:5
140
1.0
141
5.0
290
     0
  0
SCALE
  5
1017D
102
{ACAD_REACTORS
330
10178
102
}
330
10178
100
AcDbScale
 70
     0
300
1:8
140
1.0
141
8.0
290
     0
  0
SCALE
  5
1017E
102
{ACAD_REACTORS
330
10178
102
}
330
10178
100
AcDbScale
 70
     0
300
1:10
140
1.0
141
10.0
290
     0
  0
SCALE
  5
1017F
102
{ACAD_REACTORS
330
10178
102
}
330
10178
100
AcDbScale
 70
     0
300
1:16
140
1.0
141
16.0
290
     0
  0
SCALE
  5
10180
102
{ACAD_REACTORS
330
10178
102
}
330
10178
100
AcDbScale
 70
     0
300
1:20
140
1.0
141
20.0
290
     0
  0
SCALE
  5
10181
102
{ACAD_REACTORS
330
10178
102
}
330
10178
100
AcDbScale
 70
     0
300
1:30
140
1.0
141
30.0
290
     0
  0
SCALE
  5
10182
102
{ACAD_REACTORS
330
10178
102
}
330
10178
100
AcDbScale
 70
     0
300
1:40
140
1.0
141
40.0
290
     0
  0
SCALE
  5
10183
102
{ACAD_REACTORS
330
10178
102
}
330
10178
100
AcDbScale
 70
     0
300
1:50
140
1.0
141
50.0
290
     0
  0
SCALE
  5
10184
102
{ACAD_REACTORS
330
10178
102
}
330
10178
100
AcDbScale
 70
     0
300
1:100
140
1.0
141
100.0
290
     0
  0
SCALE
  5
10185
102
{ACAD_REACTORS
330
10178
102
}
330
10178
100
AcDbScale
 70
     0
300
2:1
140
2.0
141
1.0
290
     0
  0
SCALE
  5
10186
102
{ACAD_REACTORS
330
10178
102
}
330
10178
100
AcDbScale
 70
     0
300
4:1
140
4.0
141
1.0
290
     0
  0
SCALE
  5
10187
102
{ACAD_REACTORS
330
10178
102
}
330
10178
100
AcDbScale
 70
     0
300
8:1
140
8.0
141
1.0
290
     0
  0
SCALE
  5
10188
102
{ACAD_REACTORS
330
10178
102
}
330
10178
100
AcDbScale
 70
     0
300
10:1
140
10.0
141
1.0
290
     0
  0
SCALE
  5
10189
102
{ACAD_REACTORS
330
10178
102
}
330
10178
100
AcDbScale
 70
     0
300
100:1
140
100.0
141
1.0
290
     0
  0
SCALE
  5
1018A
102
{ACAD_REACTORS
330
10178
102
}
330
10178
100
AcDbScale
 70
     0
300
1/128" = 1'-0"
140
0.0078125
141
12.0
290
     0
  0
SCALE
  5
1018B
102
{ACAD_REACTORS
330
10178
102
}
330
10178
100
AcDbScale
 70
     0
300
1/64" = 1'-0"
140
0.015625
141
12.0
290
     0
  0
SCALE
  5
1018C
102
{ACAD_REACTORS
330
10178
102
}
330
10178
100
AcDbScale
 70
     0
300
1/32" = 1'-0"
140
0.03125
141
12.0
290
     0
  0
SCALE
  5
1018D
102
{ACAD_REACTORS
330
10178
102
}
330
10178
100
AcDbScale
 70
     0
300
1/16" = 1'-0"
140
0.0625
141
12.0
290
     0
  0
SCALE
  5
1018E
102
{ACAD_REACTORS
330
10178
102
}
330
10178
100
AcDbScale
 70
     0
300
3/32" = 1'-0"
140
0.09375
141
12.0
290
     0
  0
SCALE
  5
1018F
102
{ACAD_REACTORS
330
10178
102
}
330
10178
100
AcDbScale
 70
     0
300
1/8" = 1'-0"
140
0.125
141
12.0
290
     0
  0
SCALE
  5
10190
102
{ACAD_REACTORS
330
10178
102
}
330
10178
100
AcDbScale
 70
     0
300
3/16" = 1'-0"
140
0.1875
141
12.0
290
     0
  0
SCALE
  5
10191
102
{ACAD_REACTORS
330
10178
102
}
330
10178
100
AcDbScale
 70
     0
300
1/4" = 1'-0"
140
0.25
141
12.0
290
     0
  0
SCALE
  5
10192
102
{ACAD_REACTORS
330
10178
102
}
330
10178
100
AcDbScale
 70
     0
300
3/8" = 1'-0"
140
0.375
141
12.0
290
     0
  0
SCALE
  5
10193
102
{ACAD_REACTORS
330
10178
102
}
330
10178
100
AcDbScale
 70
     0
300
1/2" = 1'-0"
140
0.5
141
12.0
290
     0
  0
SCALE
  5
10194
102
{ACAD_REACTORS
330
10178
102
}
330
10178
100
AcDbScale
 70
     0
300
3/4" = 1'-0"
140
0.75
141
12.0
290
     0
  0
SCALE
  5
10195
102
{ACAD_REACTORS
330
10178
102
}
330
10178
100
AcDbScale
 70
     0
300
1" = 1'-0"
140
1.0
141
12.0
290
     0
  0
SCALE
  5
10196
102
{ACAD_REACTORS
330
10178
102
}
330
10178
100
AcDbScale
 70
     0
300
1-1/2" = 1'-0"
140
1.5
141
12.0
290
     0
  0
SCALE
  5
10197
102
{ACAD_REACTORS
330
10178
102
}
330
10178
100
AcDbScale
 70
     0
300
3" = 1'-0"
140
3.0
141
12.0
290
     0
  0
SCALE
  5
10198
102
{ACAD_REACTORS
330
10178
102
}
330
10178
100
AcDbScale
 70
     0
300
6" = 1'-0"
140
6.0
141
12.0
290
     0
  0
SCALE
  5
10199
102
{ACAD_REACTORS
330
10178
102
}
330
10178
100
AcDbScale
 70
     0
300
1'-0" = 1'-0"
140
12.0
141
12.0
290
     0
  0
TABLESTYLE
  5
1019B
102
{ACAD_REACTORS
330
1019A
102
}
102
{ACAD_XDICTIONARY
360
10221
102
}
330
1019A
100
AcDbTableStyle
  3
Standard
 70
     0
 71
     0
 40
0.06
 41
0.06
280
     0
281
     0
  7
Standard
140
0.18
170
     2
 62
     0
 63
   257
283
     0
 90
        4
 91
        0
  1

274
    -2
284
     1
 64
     0
275
    -2
285
     1
 65
     0
276
    -2
286
     1
 66
     0
277
    -2
287
     1
 67
     0
278
    -2
288
     1
 68
     0
279
    -2
289
     1
 69
     0
  7
Standard
140
0.25
170
     5
 62
     0
 63
   257
283
     0
 90
        4
 91
        0
  1

274
    -2
284
     1
 64
     0
275
    -2
285
     1
 65
     0
276
    -2
286
     1
 66
     0
277
    -2
287
     1
 67
     0
278
    -2
288
     1
 68
     0
279
    -2
289
     1
 69
     0
  7
Standard
140
0.18
170
     5
 62
     0
 63
   257
283
     0
 90
        4
 91
        0
  1

274
    -2
284
     1
 64
     0
275
    -2
285
     1
 65
     0
276
    -2
286
     1
 66
     0
277
    -2
287
     1
 67
     0
278
    -2
288
     1
 68
     0
279
    -2
289
     1
 69
     0
  0
VISUALSTYLE
  5
10160
102
{ACAD_REACTORS
330
1015B
102
}
330
1015B
100
AcDbVisualStyle
  2
2dWireframe
 70
     4
177
     3
291
     0
 70
    58
 90
        0
176
     1
 90
        2
176
     1
 90
        0
176
     1
 90
        0
176
     1
 40
0.6
176
     1
 40
30.0
176
     1
 62
     7
420
 16777215
176
     1
 90
        1
176
     1
 90
        4
176
     1
 62
     7
176
     1
 62
   257
176
     1
 90
        1
176
     1
 90
        1
176
     1
 40
1.0
176
     1
 90
        0
176
     1
 62
   257
176
     1
 40
1.0
176
     1
 90
        1
176
     1
 90
        6
176
     1
 90
        2
176
     1
 62
     7
176
     1
 90
        5
176
     1
 90
        0
176
     1
 90
        0
176
     1
290
     0
176
     1
 90
        1
176
     1
 40
0.0
176
     1
 90
        0
176
     1
290
     1
176
     1
290
     1
176
     1
290
     0
176
     1
290
     0
176
     1
290
     0
176
     1
290
     0
176
     1
290
     0
176
     1
290
     0
176
     1
290
     0
176
     1
 90
       50
176
     1
 40
0.0
176
     1
 40
1.0
176
     1
 90
        0
176
     1
 62
    18
420
        0
176
     1
 90
       50
176
     1
 90
        3
176
     1
 62
     5
420
      255
176
     1
290
     0
176
     1
 90
       50
176
     1
 90
       50
176
     1
 90
       50
176
     1
290
     0
176
     1
 90
       50
176
     1
 62
   256
176
     0
 40
1.0
176
     0
 90
        2
176
     1
  1
strokes_ogs.tif
176
     1
290
     0
176
     1
 40
1.0
176
     1
 40
1.0
176
     1
  0
VISUALSTYLE
  5
10163
102
{ACAD_REACTORS
330
1015B
102
}
330
1015B
100
AcDbVisualStyle
  2
Basic
 70
     7
177
     3
291
     1
 70
    58
 90
        1
176
     1
 90
        0
176
     1
 90
        1
176
     1
 90
        0
176
     1
 40
0.6
176
     1
 40
30.0
176
     1
 62
     7
420
 16777215
176
     1
 90
        0
176
     1
 90
        4
176
     1
 62
     7
176
     1
 62
   257
176
     1
 90
        1
176
     1
 90
        1
176
     1
 40
1.0
176
     1
 90
        8
176
     1
 62
     7
176
     1
 40
1.0
176
     1
 90
        1
176
     1
 90
        6
176
     1
 90
        2
176
     1
 62
     7
176
     1
 90
        5
176
     1
 90
        0
176
     1
 90
        0
176
     1
290
     0
176
     1
 90
        1
176
     1
 40
0.0
176
     1
 90
        0
176
     1
290
     0
176
     1
290
     1
176
     1
290
     1
176
     1
290
     0
176
     1
290
     0
176
     1
290
     0
176
     1
290
     0
176
     1
290
     0
176
     1
290
     0
176
     1
 90
       50
176
     1
 40
0.0
176
     1
 40
1.0
176
     1
 90
        0
176
     1
 62
    18
420
        0
176
     1
 90
       50
176
     1
 90
        3
176
     1
 62
     5
420
      255
176
     1
290
     0
176
     1
 90
       50
176
     1
 90
       50
176
     1
 90
       50
176
     1
290
     0
176
     1
 90
       50
176
     1
 62
   256
176
     0
 40
1.0
176
     0
 90
        2
176
     1
  1
strokes_ogs.tif
176
     1
290
     0
176
     1
 40
1.0
176
     1
 40
1.0
176
     1
  0
VISUALSTYLE
  5
10167
102
{ACAD_REACTORS
330
1015B
102
}
330
1015B
100
AcDbVisualStyle
  2
Brighten
 70
    12
177
     3
291
     1
 70
    58
 90
        2
176
     1
 90
        2
176
     1
 90
        0
176
     1
 90
        0
176
     1
 40
0.6
176
     1
 40
30.0
176
     1
 62
     7
420
 16777215
176
     1
 90
        1
176
     1
 90
        4
176
     1
 62
     7
176
     1
 62
   257
176
     1
 90
        1
176
     1
 90
        1
176
     1
 40
1.0
176
     1
 90
        8
176
     1
 62
     7
176
     1
 40
1.0
176
     1
 90
        1
176
     1
 90
        6
176
     1
 90
        2
176
     1
 62
     7
176
     1
 90
        5
176
     1
 90
        0
176
     1
 90
        0
176
     1
290
     0
176
     1
 90
        1
176
     1
 40
50.0
176
     1
 90
        0
176
     1
290
     0
176
     1
290
     1
176
     1
290
     1
176
     1
290
     0
176
     1
290
     0
176
     1
290
     0
176
     1
290
     0
176
     1
290
     0
176
     1
290
     0
176
     1
 90
       50
176
     1
 40
0.0
176
     1
 40
1.0
176
     1
 90
        0
176
     1
 62
    18
420
        0
176
     1
 90
       50
176
     1
 90
        3
176
     1
 62
     5
420
      255
176
     1
290
     0
176
     1
 90
       50
176
     1
 90
       50
176
     1
 90
       50
176
     1
290
     0
176
     1
 90
       50
176
     1
 62
   256
176
     0
 40
1.0
176
     0
 90
        2
176
     1
  1
strokes_ogs.tif
176
     1
290
     0
176
     1
 40
1.0
176
     1
 40
1.0
176
     1
  0
VISUALSTYLE
  5
1016B
102
{ACAD_REACTORS
330
1015B
102
}
330
1015B
100
AcDbVisualStyle
  2
ColorChange
 70
    16
177
     3
291
     1
 70
    58
 90
        2
176
     1
 90
        2
176
     1
 90
        3
176
     1
 90
        0
176
     1
 40
0.6
176
     1
 40
30.0
176
     1
 62
     8
420
  8421504
176
     1
 90
        1
176
     1
 90
        4
176
     1
 62
     7
176
     1
 62
   257
176
     1
 90
        1
176
     1
 90
        1
176
     1
 40
1.0
176
     1
 90
        8
176
     1
 62
     8
420
  8421504
176
     1
 40
1.0
176
     1
 90
        1
176
     1
 90
        6
176
     1
 90
        2
176
     1
 62
     7
176
     1
 90
        5
176
     1
 90
        0
176
     1
 90
        0
176
     1
290
     0
176
     1
 90
        1
176
     1
 40
0.0
176
     1
 90
        0
176
     1
290
     0
176
     1
290
     1
176
     1
290
     1
176
     1
290
     0
176
     1
290
     0
176
     1
290
     0
176
     1
290
     0
176
     1
290
     0
176
     1
290
     0
176
     1
 90
       50
176
     1
 40
0.0
176
     1
 40
1.0
176
     1
 90
        0
176
     1
 62
    18
420
        0
176
     1
 90
       50
176
     1
 90
        3
176
     1
 62
     5
420
      255
176
     1
290
     0
176
     1
 90
       50
176
     1
 90
       50
176
     1
 90
       50
176
     1
290
     0
176
     1
 90
       50
176
     1
 62
   256
176
     0
 40
1.0
176
     0
 90
        2
176
     1
  1
strokes_ogs.tif
176
     1
290
     0
176
     1
 40
1.0
176
     1
 40
1.0
176
     1
  0
VISUALSTYLE
  5
10165
102
{ACAD_REACTORS
330
1015B
102
}
330
1015B
100
AcDbVisualStyle
  2
Conceptual
 70
     9
177
     3
291
     0
 70
    58
 90
        3
176
     1
 90
        2
176
     1
 90
        0
176
     1
 90
        0
176
     1
 40
0.6
176
     1
 40
30.0
176
     1
 62
     7
420
 16777215
176
     1
 90
        2
176
     1
 90
        2
176
     1
 62
     7
176
     1
 62
   257
176
     1
 90
        1
176
     1
 90
        1
176
     1
 40
179.0
176
     1
 90
        8
176
     1
 62
     7
176
     1
 40
1.0
176
     1
 90
        1
176
     1
 90
        6
176
     1
 90
        2
176
     1
 62
     7
176
     1
 90
        3
176
     1
 90
        0
176
     1
 90
        0
176
     1
290
     0
176
     1
 90
        1
176
     1
 40
0.0
176
     1
 90
        0
176
     1
290
     0
176
     1
290
     1
176
     1
290
     1
176
     1
290
     0
176
     1
290
     0
176
     1
290
     0
176
     1
290
     0
176
     1
290
     0
176
     1
290
     0
176
     1
 90
       50
176
     1
 40
0.0
176
     1
 40
1.0
176
     1
 90
        0
176
     1
 62
    18
420
        0
176
     1
 90
       50
176
     1
 90
        3
176
     1
 62
     5
420
      255
176
     1
290
     0
176
     1
 90
       50
176
     1
 90
       50
176
     1
 90
       50
176
     1
290
     0
176
     1
 90
       50
176
     1
 62
   256
176
     0
 40
1.0
176
     0
 90
        2
176
     1
  1
strokes_ogs.tif
176
     1
290
     0
176
     1
 40
1.0
176
     1
 40
1.0
176
     1
  0
VISUALSTYLE
  5
10166
102
{ACAD_REACTORS
330
1015B
102
}
330
1015B
100
AcDbVisualStyle
  2
Dim
 70
    11
177
     3
291
     1
 70
    58
 90
        2
176
     1
 90
        2
176
     1
 90
        0
176
     1
 90
        0
176
     1
 40
0.6
176
     1
 40
30.0
176
     1
 62
     7
420
 16777215
176
     1
 90
        1
176
     1
 90
        4
176
     1
 62
     7
176
     1
 62
   257
176
     1
 90
        1
176
     1
 90
        1
176
     1
 40
1.0
176
     1
 90
        8
176
     1
 62
     7
176
     1
 40
1.0
176
     1
 90
        1
176
     1
 90
        6
176
     1
 90
        2
176
     1
 62
     7
176
     1
 90
        5
176
     1
 90
        0
176
     1
 90
        0
176
     1
290
     0
176
     1
 90
        1
176
     1
 40
-50.0
176
     1
 90
        0
176
     1
290
     0
176
     1
290
     1
176
     1
290
     1
176
     1
290
     0
176
     1
290
     0
176
     1
290
     0
176
     1
290
     0
176
     1
290
     0
176
     1
290
     0
176
     1
 90
       50
176
     1
 40
0.0
176
     1
 40
1.0
176
     1
 90
        0
176
     1
 62
    18
420
        0
176
     1
 90
       50
176
     1
 90
        3
176
     1
 62
     5
420
      255
176
     1
290
     0
176
     1
 90
       50
176
     1
 90
       50
176
     1
 90
       50
176
     1
290
     0
176
     1
 90
       50
176
     1
 62
   256
176
     0
 40
1.0
176
     0
 90
        2
176
     1
  1
strokes_ogs.tif
176
     1
290
     0
176
     1
 40
1.0
176
     1
 40
1.0
176
     1
  0
VISUALSTYLE
  5
1016E
102
{ACAD_REACTORS
330
1015B
102
}
330
1015B
100
AcDbVisualStyle
  2
EdgeColorOff
 70
    22
177
     3
291
     1
 70
    58
 90
        2
176
     0
 90
        2
176
     0
 90
        0
176
     0
 90
        0
176
     0
 40
0.6
176
     0
 40
30.0
176
     0
 62
     7
420
 16777215
176
     0
 90
        1
176
     0
 90
        4
176
     0
 62
     7
176
     0
 62
   257
176
     0
 90
        1
176
     0
 90
        1
176
     0
 40
1.0
176
     0
 90
        8
176
     2
 62
     7
176
     0
 40
1.0
176
     0
 90
        1
176
     0
 90
        6
176
     0
 90
        2
176
     0
 62
     7
176
     0
 90
        5
176
     0
 90
        0
176
     0
 90
        0
176
     0
290
     0
176
     0
 90
        1
176
     0
 40
0.0
176
     0
 90
        0
176
     0
290
     0
176
     0
290
     1
176
     0
290
     1
176
     0
290
     0
176
     0
290
     0
176
     0
290
     0
176
     0
290
     0
176
     0
290
     0
176
     0
290
     0
176
     0
 90
       50
176
     0
 40
0.0
176
     0
 40
1.0
176
     0
 90
        0
176
     0
 62
    18
420
        0
176
     0
 90
       50
176
     0
 90
        3
176
     0
 62
     5
420
      255
176
     0
290
     0
176
     0
 90
       50
176
     0
 90
       50
176
     0
 90
       50
176
     0
290
     0
176
     0
 90
       50
176
     0
 62
   256
176
     0
 40
1.0
176
     0
 90
        2
176
     0
  1
strokes_ogs.tif
176
     0
290
     0
176
     0
 40
1.0
176
     0
 40
1.0
176
     0
  0
VISUALSTYLE
  5
1016A
102
{ACAD_REACTORS
330
1015B
102
}
330
1015B
100
AcDbVisualStyle
  2
Facepattern
 70
    15
177
     3
291
     1
 70
    58
 90
        2
176
     1
 90
        2
176
     1
 90
        0
176
     1
 90
        0
176
     1
 40
0.6
176
     1
 40
30.0
176
     1
 62
     7
420
 16777215
176
     1
 90
        1
176
     1
 90
        4
176
     1
 62
     7
176
     1
 62
   257
176
     1
 90
        1
176
     1
 90
        1
176
     1
 40
1.0
176
     1
 90
        8
176
     1
 62
     7
176
     1
 40
1.0
176
     1
 90
        1
176
     1
 90
        6
176
     1
 90
        2
176
     1
 62
     7
176
     1
 90
        5
176
     1
 90
        0
176
     1
 90
        0
176
     1
290
     0
176
     1
 90
        1
176
     1
 40
0.0
176
     1
 90
        0
176
     1
290
     0
176
     1
290
     1
176
     1
290
     1
176
     1
290
     0
176
     1
290
     0
176
     1
290
     0
176
     1
290
     0
176
     1
290
     0
176
     1
290
     0
176
     1
 90
       50
176
     1
 40
0.0
176
     1
 40
1.0
176
     1
 90
        0
176
     1
 62
    18
420
        0
176
     1
 90
       50
176
     1
 90
        3
176
     1
 62
     5
420
      255
176
     1
290
     0
176
     1
 90
       50
176
     1
 90
       50
176
     1
 90
       50
176
     1
290
     0
176
     1
 90
       50
176
     1
 62
   256
176
     0
 40
1.0
176
     0
 90
        2
176
     1
  1
strokes_ogs.tif
176
     1
290
     0
176
     1
 40
1.0
176
     1
 40
1.0
176
     1
  0
VISUALSTYLE
  5
1015C
102
{ACAD_REACTORS
330
1015B
102
}
330
1015B
100
AcDbVisualStyle
  2
Flat
 70
     0
177
     3
291
     1
 70
    58
 90
        2
176
     1
 90
        1
176
     1
 90
        1
176
     1
 90
        2
176
     1
 40
0.6
176
     1
 40
30.0
176
     1
 62
     7
420
 16777215
176
     1
 90
        0
176
     1
 90
        0
176
     1
 62
     7
176
     1
 62
   257
176
     1
 90
        1
176
     1
 90
        1
176
     1
 40
1.0
176
     1
 90
        8
176
     1
 62
     7
176
     1
 40
1.0
176
     1
 90
        1
176
     1
 90
        6
176
     1
 90
        2
176
     1
 62
     7
176
     1
 90
        5
176
     1
 90
        0
176
     1
 90
        0
176
     1
290
     0
176
     1
 90
       13
176
     1
 40
0.0
176
     1
 90
        0
176
     1
290
     0
176
     1
290
     1
176
     1
290
     1
176
     1
290
     0
176
     1
290
     0
176
     1
290
     0
176
     1
290
     0
176
     1
290
     0
176
     1
290
     0
176
     1
 90
       50
176
     1
 40
0.0
176
     1
 40
1.0
176
     1
 90
        0
176
     1
 62
    18
420
        0
176
     1
 90
       50
176
     1
 90
        3
176
     1
 62
     5
420
      255
176
     1
290
     0
176
     1
 90
       50
176
     1
 90
       50
176
     1
 90
       50
176
     1
290
     0
176
     1
 90
       50
176
     1
 62
   256
176
     0
 40
1.0
176
     0
 90
        2
176
     1
  1
strokes_ogs.tif
176
     1
290
     0
176
     1
 40
1.0
176
     1
 40
1.0
176
     1
  0
VISUALSTYLE
  5
1015D
102
{ACAD_REACTORS
330
1015B
102
}
330
1015B
100
AcDbVisualStyle
  2
FlatWithEdges
 70
     1
177
     3
291
     1
 70
    58
 90
        2
176
     1
 90
        1
176
     1
 90
        1
176
     1
 90
        2
176
     1
 40
0.6
176
     1
 40
30.0
176
     1
 62
     7
420
 16777215
176
     1
 90
        1
176
     1
 90
        0
176
     1
 62
     7
176
     1
 62
   257
176
     1
 90
        1
176
     1
 90
        1
176
     1
 40
1.0
176
     1
 90
        0
176
     1
 62
   257
176
     1
 40
1.0
176
     1
 90
        1
176
     1
 90
        6
176
     1
 90
        2
176
     1
 62
     7
176
     1
 90
        5
176
     1
 90
        0
176
     1
 90
        0
176
     1
290
     0
176
     1
 90
       13
176
     1
 40
0.0
176
     1
 90
        0
176
     1
290
     0
176
     1
290
     1
176
     1
290
     1
176
     1
290
     0
176
     1
290
     0
176
     1
290
     0
176
     1
290
     0
176
     1
290
     0
176
     1
290
     0
176
     1
 90
       50
176
     1
 40
0.0
176
     1
 40
1.0
176
     1
 90
        0
176
     1
 62
    18
420
        0
176
     1
 90
       50
176
     1
 90
        3
176
     1
 62
     5
420
      255
176
     1
290
     0
176
     1
 90
       50
176
     1
 90
       50
176
     1
 90
       50
176
     1
290
     0
176
     1
 90
       50
176
     1
 62
   256
176
     0
 40
1.0
176
     0
 90
        2
176
     1
  1
strokes_ogs.tif
176
     1
290
     0
176
     1
 40
1.0
176
     1
 40
1.0
176
     1
  0
VISUALSTYLE
  5
1015E
102
{ACAD_REACTORS
330
1015B
102
}
330
1015B
100
AcDbVisualStyle
  2
Gouraud
 70
     2
177
     3
291
     1
 70
    58
 90
        2
176
     1
 90
        2
176
     1
 90
        1
176
     1
 90
        2
176
     1
 40
0.6
176
     1
 40
30.0
176
     1
 62
     7
420
 16777215
176
     1
 90
        0
176
     1
 90
        0
176
     1
 62
     7
176
     1
 62
   257
176
     1
 90
        1
176
     1
 90
        1
176
     1
 40
1.0
176
     1
 90
        0
176
     1
 62
     7
176
     1
 40
1.0
176
     1
 90
        1
176
     1
 90
        6
176
     1
 90
        2
176
     1
 62
     7
176
     1
 90
        5
176
     1
 90
        0
176
     1
 90
        0
176
     1
290
     0
176
     1
 90
       13
176
     1
 40
0.0
176
     1
 90
        0
176
     1
290
     0
176
     1
290
     1
176
     1
290
     1
176
     1
290
     0
176
     1
290
     0
176
     1
290
     0
176
     1
290
     0
176
     1
290
     0
176
     1
290
     0
176
     1
 90
       50
176
     1
 40
0.0
176
     1
 40
1.0
176
     1
 90
        0
176
     1
 62
    18
420
        0
176
     1
 90
       50
176
     1
 90
        3
176
     1
 62
     5
420
      255
176
     1
290
     0
176
     1
 90
       50
176
     1
 90
       50
176
     1
 90
       50
176
     1
290
     0
176
     1
 90
       50
176
     1
 62
   256
176
     0
 40
1.0
176
     0
 90
        2
176
     1
  1
strokes_ogs.tif
176
     1
290
     0
176
     1
 40
1.0
176
     1
 40
1.0
176
     1
  0
VISUALSTYLE
  5
1015F
102
{ACAD_REACTORS
330
1015B
102
}
330
1015B
100
AcDbVisualStyle
  2
GouraudWithEdges
 70
     3
177
     3
291
     1
 70
    58
 90
        2
176
     1
 90
        2
176
     1
 90
        1
176
     1
 90
        2
176
     1
 40
0.6
176
     1
 40
30.0
176
     1
 62
     7
420
 16777215
176
     1
 90
        1
176
     1
 90
        0
176
     1
 62
     7
176
     1
 62
   257
176
     1
 90
        1
176
     1
 90
        1
176
     1
 40
1.0
176
     1
 90
        0
176
     1
 62
   257
176
     1
 40
1.0
176
     1
 90
        1
176
     1
 90
        6
176
     1
 90
        2
176
     1
 62
     7
176
     1
 90
        5
176
     1
 90
        0
176
     1
 90
        0
176
     1
290
     0
176
     1
 90
       13
176
     1
 40
0.0
176
     1
 90
        0
176
     1
290
     0
176
     1
290
     1
176
     1
290
     1
176
     1
290
     0
176
     1
290
     0
176
     1
290
     0
176
     1
290
     0
176
     1
290
     0
176
     1
290
     0
176
     1
 90
       50
176
     1
 40
0.0
176
     1
 40
1.0
176
     1
 90
        0
176
     1
 62
    18
420
        0
176
     1
 90
       50
176
     1
 90
        3
176
     1
 62
     5
420
      255
176
     1
290
     0
176
     1
 90
       50
176
     1
 90
       50
176
     1
 90
       50
176
     1
290
     0
176
     1
 90
       50
176
     1
 62
   256
176
     0
 40
1.0
176
     0
 90
        2
176
     1
  1
strokes_ogs.tif
176
     1
290
     0
176
     1
 40
1.0
176
     1
 40
1.0
176
     1
  0
VISUALSTYLE
  5
10162
102
{ACAD_REACTORS
330
1015B
102
}
330
1015B
100
AcDbVisualStyle
  2
Hidden
 70
     6
177
     3
291
     0
 70
    58
 90
        1
176
     1
 90
        2
176
     1
 90
        2
176
     1
 90
        0
176
     1
 40
0.6
176
     1
 40
30.0
176
     1
 62
     7
420
 16777215
176
     1
 90
        2
176
     1
 90
        2
176
     1
 62
     7
176
     1
 62
   257
176
     1
 90
        2
176
     1
 90
        1
176
     1
 40
40.0
176
     1
 90
        0
176
     1
 62
   257
176
     1
 40
1.0
176
     1
 90
        1
176
     1
 90
        6
176
     1
 90
        2
176
     1
 62
     7
176
     1
 90
        3
176
     1
 90
        0
176
     1
 90
        0
176
     1
290
     0
176
     1
 90
        1
176
     1
 40
0.0
176
     1
 90
        0
176
     1
290
     0
176
     1
290
     1
176
     1
290
     1
176
     1
290
     0
176
     1
290
     0
176
     1
290
     0
176
     1
290
     0
176
     1
290
     0
176
     1
290
     0
176
     1
 90
       50
176
     1
 40
0.0
176
     1
 40
1.0
176
     1
 90
        0
176
     1
 62
    18
420
        0
176
     1
 90
       50
176
     1
 90
        3
176
     1
 62
     5
420
      255
176
     1
290
     0
176
     1
 90
       50
176
     1
 90
       50
176
     1
 90
       50
176
     1
290
     0
176
     1
 90
       50
176
     1
 62
   256
176
     0
 40
1.0
176
     0
 90
        2
176
     1
  1
strokes_ogs.tif
176
     1
290
     0
176
     1
 40
1.0
176
     1
 40
1.0
176
     1
  0
VISUALSTYLE
  5
1016C
102
{ACAD_REACTORS
330
1015B
102
}
330
1015B
100
AcDbVisualStyle
  2
JitterOff
 70
    20
177
     3
291
     1
 70
    58
 90
        2
176
     0
 90
        2
176
     0
 90
        0
176
     0
 90
        0
176
     0
 40
0.6
176
     0
 40
30.0
176
     0
 62
     7
420
 16777215
176
     0
 90
        1
176
     0
 90
        4
176
     0
 62
     7
176
     0
 62
   257
176
     0
 90
        1
176
     0
 90
        1
176
     0
 40
1.0
176
     0
 90
       10
176
     2
 62
     7
176
     0
 40
1.0
176
     0
 90
        1
176
     0
 90
        6
176
     0
 90
        2
176
     0
 62
     7
176
     0
 90
        5
176
     0
 90
        0
176
     0
 90
        0
176
     0
290
     0
176
     0
 90
        1
176
     0
 40
0.0
176
     0
 90
        0
176
     0
290
     0
176
     0
290
     1
176
     0
290
     1
176
     0
290
     0
176
     0
290
     0
176
     0
290
     0
176
     0
290
     0
176
     0
290
     0
176
     0
290
     0
176
     0
 90
       50
176
     0
 40
0.0
176
     0
 40
1.0
176
     0
 90
        0
176
     0
 62
    18
420
        0
176
     0
 90
       50
176
     0
 90
        3
176
     0
 62
     5
420
      255
176
     0
290
     0
176
     0
 90
       50
176
     0
 90
       50
176
     0
 90
       50
176
     0
290
     0
176
     0
 90
       50
176
     0
 62
   256
176
     0
 40
1.0
176
     0
 90
        2
176
     0
  1
strokes_ogs.tif
176
     0
290
     0
176
     0
 40
1.0
176
     0
 40
1.0
176
     0
  0
VISUALSTYLE
  5
10169
102
{ACAD_REACTORS
330
1015B
102
}
330
1015B
100
AcDbVisualStyle
  2
Linepattern
 70
    14
177
     3
291
     1
 70
    58
 90
        2
176
     1
 90
        2
176
     1
 90
        0
176
     1
 90
        0
176
     1
 40
0.6
176
     1
 40
30.0
176
     1
 62
     7
420
 16777215
176
     1
 90
        1
176
     1
 90
        4
176
     1
 62
     7
176
     1
 62
   257
176
     1
 90
        7
176
     1
 90
        7
176
     1
 40
1.0
176
     1
 90
        8
176
     1
 62
     7
176
     1
 40
1.0
176
     1
 90
        1
176
     1
 90
        6
176
     1
 90
        2
176
     1
 62
     7
176
     1
 90
        5
176
     1
 90
        0
176
     1
 90
        0
176
     1
290
     0
176
     1
 90
        1
176
     1
 40
0.0
176
     1
 90
        0
176
     1
290
     0
176
     1
290
     1
176
     1
290
     1
176
     1
290
     0
176
     1
290
     0
176
     1
290
     0
176
     1
290
     0
176
     1
290
     0
176
     1
290
     0
176
     1
 90
       50
176
     1
 40
0.0
176
     1
 40
1.0
176
     1
 90
        0
176
     1
 62
    18
420
        0
176
     1
 90
       50
176
     1
 90
        3
176
     1
 62
     5
420
      255
176
     1
290
     0
176
     1
 90
       50
176
     1
 90
       50
176
     1
 90
       50
176
     1
290
     0
176
     1
 90
       50
176
     1
 62
   256
176
     0
 40
1.0
176
     0
 90
        2
176
     1
  1
strokes_ogs.tif
176
     1
290
     0
176
     1
 40
1.0
176
     1
 40
1.0
176
     1
  0
VISUALSTYLE
  5
1016D
102
{ACAD_REACTORS
330
1015B
102
}
330
1015B
100
AcDbVisualStyle
  2
OverhangOff
 70
    21
177
     3
291
     1
 70
    58
 90
        2
176
     0
 90
        2
176
     0
 90
        0
176
     0
 90
        0
176
     0
 40
0.6
176
     0
 40
30.0
176
     0
 62
     7
420
 16777215
176
     0
 90
        1
176
     0
 90
        4
176
     0
 62
     7
176
     0
 62
   257
176
     0
 90
        1
176
     0
 90
        1
176
     0
 40
1.0
176
     0
 90
        9
176
     2
 62
     7
176
     0
 40
1.0
176
     0
 90
        1
176
     0
 90
        6
176
     0
 90
        2
176
     0
 62
     7
176
     0
 90
        5
176
     0
 90
        0
176
     0
 90
        0
176
     0
290
     0
176
     0
 90
        1
176
     0
 40
0.0
176
     0
 90
        0
176
     0
290
     0
176
     0
290
     1
176
     0
290
     1
176
     0
290
     0
176
     0
290
     0
176
     0
290
     0
176
     0
290
     0
176
     0
290
     0
176
     0
290
     0
176
     0
 90
       50
176
     0
 40
0.0
176
     0
 40
1.0
176
     0
 90
        0
176
     0
 62
    18
420
        0
176
     0
 90
       50
176
     0
 90
        3
176
     0
 62
     5
420
      255
176
     0
290
     0
176
     0
 90
       50
176
     0
 90
       50
176
     0
 90
       50
176
     0
290
     0
176
     0
 90
       50
176
     0
 62
   256
176
     0
 40
1.0
176
     0
 90
        2
176
     0
  1
strokes_ogs.tif
176
     0
290
     0
176
     0
 40
1.0
176
     0
 40
1.0
176
     0
  0
VISUALSTYLE
  5
10164
102
{ACAD_REACTORS
330
1015B
102
}
330
1015B
100
AcDbVisualStyle
  2
Realistic
 70
     8
177
     3
291
     0
 70
    58
 90
        2
176
     1
 90
        3
176
     1
 90
        0
176
     1
 90
        2
176
     1
 40
0.6
176
     1
 40
30.0
176
     1
 62
     7
420
 16777215
176
     1
 90
        0
176
     1
 90
        0
176
     1
 62
     7
176
     1
 62
   257
176
     1
 90
        1
176
     1
 90
        1
176
     1
 40
1.0
176
     1
 90
        8
176
     1
 62
   257
176
     1
 40
1.0
176
     1
 90
        1
176
     1
 90
        6
176
     1
 90
        2
176
     1
 62
     7
176
     1
 90
        3
176
     1
 90
        0
176
     1
 90
        0
176
     1
290
     0
176
     1
 90
       13
176
     1
 40
0.0
176
     1
 90
        0
176
     1
290
     0
176
     1
290
     1
176
     1
290
     1
176
     1
290
     0
176
     1
290
     0
176
     1
290
     0
176
     1
290
     0
176
     1
290
     0
176
     1
290
     0
176
     1
 90
       50
176
     1
 40
0.0
176
     1
 40
1.0
176
     1
 90
        0
176
     1
 62
    18
420
        0
176
     1
 90
       50
176
     1
 90
        3
176
     1
 62
     5
420
      255
176
     1
290
     0
176
     1
 90
       50
176
     1
 90
       50
176
     1
 90
       50
176
     1
290
     0
176
     1
 90
       50
176
     1
 62
   256
176
     0
 40
1.0
176
     0
 90
        2
176
     1
  1
strokes_ogs.tif
176
     1
290
     0
176
     1
 40
1.0
176
     1
 40
1.0
176
     1
  0
VISUALSTYLE
  5
10173
102
{ACAD_REACTORS
330
1015B
102
}
330
1015B
100
AcDbVisualStyle
  2
Shaded
 70
    27
177
     3
291
     0
 70
    58
 90
        2
176
     1
 90
        2
176
     1
 90
        1
176
     1
 90
        2
176
     1
 40
0.6
176
     1
 40
30.0
176
     1
 62
     7
420
 16777215
176
     1
 90
        0
176
     1
 90
        4
176
     1
 62
     7
176
     1
 62
   257
176
     1
 90
        1
176
     1
 90
        1
176
     1
 40
1.0
176
     1
 90
        8
176
     1
 62
   257
176
     1
 40
1.0
176
     1
 90
        1
176
     1
 90
        6
176
     1
 90
        2
176
     1
 62
     8
420
  7895160
176
     1
 90
        3
176
     1
 90
        0
176
     1
 90
        0
176
     1
290
     0
176
     1
 90
        5
176
     1
 40
0.0
176
     1
 90
        0
176
     1
290
     0
176
     1
290
     1
176
     1
290
     1
176
     1
290
     0
176
     1
290
     0
176
     1
290
     0
176
     1
290
     0
176
     1
290
     0
176
     1
290
     0
176
     1
 90
       50
176
     1
 40
0.0
176
     1
 40
1.0
176
     1
 90
        0
176
     1
 62
    18
420
        0
176
     1
 90
       50
176
     1
 90
        3
176
     1
 62
     5
420
      255
176
     1
290
     0
176
     1
 90
       50
176
     1
 90
       50
176
     1
 90
       50
176
     1
290
     0
176
     1
 90
       50
176
     1
 62
   256
176
     0
 40
1.0
176
     0
 90
        2
176
     1
  1
strokes_ogs.tif
176
     1
290
     0
176
     1
 40
1.0
176
     1
 40
1.0
176
     1
  0
VISUALSTYLE
  5
10172
102
{ACAD_REACTORS
330
1015B
102
}
330
1015B
100
AcDbVisualStyle
  2
Shaded with edges
 70
    26
177
     3
291
     0
 70
    58
 90
        2
176
     1
 90
        2
176
     1
 90
        1
176
     1
 90
        2
176
     1
 40
0.6
176
     1
 40
30.0
176
     1
 62
     7
420
 16777215
176
     1
 90
        1
176
     1
 90
       10
176
     1
 62
     7
176
     1
 62
   257
176
     1
 90
        2
176
     1
 90
        1
176
     1
 40
1.0
176
     1
 90
        8
176
     1
 62
   257
176
     1
 40
1.0
176
     1
 90
        1
176
     1
 90
        6
176
     1
 90
        2
176
     1
 62
     7
176
     1
 90
        3
176
     1
 90
        0
176
     1
 90
        0
176
     1
290
     0
176
     1
 90
        5
176
     1
 40
0.0
176
     1
 90
        0
176
     1
290
     0
176
     1
290
     1
176
     1
290
     1
176
     1
290
     0
176
     1
290
     0
176
     1
290
     0
176
     1
290
     0
176
     1
290
     0
176
     1
290
     0
176
     1
 90
       50
176
     1
 40
0.0
176
     1
 40
1.0
176
     1
 90
        0
176
     1
 62
    18
420
        0
176
     1
 90
       50
176
     1
 90
        3
176
     1
 62
     5
420
      255
176
     1
290
     0
176
     1
 90
       50
176
     1
 90
       50
176
     1
 90
       50
176
     1
290
     0
176
     1
 90
       50
176
     1
 62
   256
176
     0
 40
1.0
176
     0
 90
        2
176
     1
  1
strokes_ogs.tif
176
     1
290
     0
176
     1
 40
1.0
176
     1
 40
1.0
176
     1
  0
VISUALSTYLE
  5
1016F
102
{ACAD_REACTORS
330
1015B
102
}
330
1015B
100
AcDbVisualStyle
  2
Shades of Gray
 70
    23
177
     3
291
     0
 70
    58
 90
        2
176
     1
 90
        2
176
     1
 90
        3
176
     1
 90
        0
176
     1
 40
0.6
176
     1
 40
30.0
176
     1
 62
     7
420
 16777215
176
     1
 90
        2
176
     1
 90
        2
176
     1
 62
     7
176
     1
 62
     7
176
     1
 90
        1
176
     1
 90
        1
176
     1
 40
40.0
176
     1
 90
        8
176
     1
 62
     7
176
     1
 40
1.0
176
     1
 90
        1
176
     1
 90
        6
176
     1
 90
        2
176
     1
 62
     7
176
     1
 90
        3
176
     1
 90
        0
176
     1
 90
        0
176
     1
290
     0
176
     1
 90
        1
176
     1
 40
0.0
176
     1
 90
        0
176
     1
290
     0
176
     1
290
     1
176
     1
290
     1
176
     1
290
     0
176
     1
290
     0
176
     1
290
     0
176
     1
290
     0
176
     1
290
     0
176
     1
290
     0
176
     1
 90
       50
176
     1
 40
0.0
176
     1
 40
1.0
176
     1
 90
        0
176
     1
 62
    18
420
        0
176
     1
 90
       50
176
     1
 90
        3
176
     1
 62
     5
420
      255
176
     1
290
     0
176
     1
 90
       50
176
     1
 90
       50
176
     1
 90
       50
176
     1
290
     0
176
     1
 90
       50
176
     1
 62
   256
176
     0
 40
1.0
176
     0
 90
        2
176
     1
  1
strokes_ogs.tif
176
     1
290
     0
176
     1
 40
1.0
176
     1
 40
1.0
176
     1
  0
VISUALSTYLE
  5
10170
102
{ACAD_REACTORS
330
1015B
102
}
330
1015B
100
AcDbVisualStyle
  2
Sketchy
 70
    24
177
     3
291
     0
 70
    58
 90
        1
176
     1
 90
        2
176
     1
 90
        2
176
     1
 90
        0
176
     1
 40
0.6
176
     1
 40
30.0
176
     1
 62
     7
420
 16777215
176
     1
 90
        2
176
     1
 90
        2
176
     1
 62
     7
176
     1
 62
     7
176
     1
 90
        1
176
     1
 90
        1
176
     1
 40
40.0
176
     1
 90
       11
176
     1
 62
     7
176
     1
 40
1.0
176
     1
 90
        1
176
     1
 90
        6
176
     1
 90
        2
176
     1
 62
     7
176
     1
 90
        6
176
     1
 90
        0
176
     1
 90
        0
176
     1
290
     0
176
     1
 90
        1
176
     1
 40
0.0
176
     1
 90
        0
176
     1
290
     0
176
     1
290
     1
176
     1
290
     1
176
     1
290
     0
176
     1
290
     0
176
     1
290
     0
176
     1
290
     0
176
     1
290
     0
176
     1
290
     0
176
     1
 90
       50
176
     1
 40
0.0
176
     1
 40
1.0
176
     1
 90
        0
176
     1
 62
    18
420
        0
176
     1
 90
       50
176
     1
 90
        3
176
     1
 62
     5
420
      255
176
     1
290
     0
176
     1
 90
       50
176
     1
 90
       50
176
     1
 90
       50
176
     1
290
     0
176
     1
 90
       50
176
     1
 62
   256
176
     0
 40
1.0
176
     0
 90
        2
176
     1
  1
strokes_ogs.tif
176
     1
290
     0
176
     1
 40
1.0
176
     1
 40
1.0
176
     1
  0
VISUALSTYLE
  5
10168
102
{ACAD_REACTORS
330
1015B
102
}
330
1015B
100
AcDbVisualStyle
  2
Thicken
 70
    13
177
     3
291
     1
 70
    58
 90
        2
176
     1
 90
        2
176
     1
 90
        0
176
     1
 90
        0
176
     1
 40
0.6
176
     1
 40
30.0
176
     1
 62
     7
420
 16777215
176
     1
 90
        1
176
     1
 90
        4
176
     1
 62
     7
176
     1
 62
   257
176
     1
 90
        1
176
     1
 90
        1
176
     1
 40
1.0
176
     1
 90
       12
176
     1
 62
     7
176
     1
 40
1.0
176
     1
 90
        1
176
     1
 90
        6
176
     1
 90
        2
176
     1
 62
     7
176
     1
 90
        5
176
     1
 90
        0
176
     1
 90
        0
176
     1
290
     0
176
     1
 90
        1
176
     1
 40
0.0
176
     1
 90
        0
176
     1
290
     0
176
     1
290
     1
176
     1
290
     1
176
     1
290
     0
176
     1
290
     0
176
     1
290
     0
176
     1
290
     0
176
     1
290
     0
176
     1
290
     0
176
     1
 90
       50
176
     1
 40
0.0
176
     1
 40
1.0
176
     1
 90
        0
176
     1
 62
    18
420
        0
176
     1
 90
       50
176
     1
 90
        3
176
     1
 62
     5
420
      255
176
     1
290
     0
176
     1
 90
       50
176
     1
 90
       50
176
     1
 90
       50
176
     1
290
     0
176
     1
 90
       50
176
     1
 62
   256
176
     0
 40
1.0
176
     0
 90
        2
176
     1
  1
strokes_ogs.tif
176
     1
290
     0
176
     1
 40
1.0
176
     1
 40
1.0
176
     1
  0
VISUALSTYLE
  5
10161
102
{ACAD_REACTORS
330
1015B
102
}
330
1015B
100
AcDbVisualStyle
  2
Wireframe
 70
     5
177
     3
291
     0
 70
    58
 90
        0
176
     1
 90
        2
176
     1
 90
        0
176
     1
 90
        0
176
     1
 40
0.6
176
     1
 40
30.0
176
     1
 62
     7
420
 16777215
176
     1
 90
        1
176
     1
 90
        4
176
     1
 62
     7
176
     1
 62
   257
176
     1
 90
        1
176
     1
 90
        1
176
     1
 40
1.0
176
     1
 90
        0
176
     1
 62
   257
176
     1
 40
1.0
176
     1
 90
        1
176
     1
 90
        6
176
     1
 90
        2
176
     1
 62
     7
176
     1
 90
        3
176
     1
 90
        0
176
     1
 90
        0
176
     1
290
     0
176
     1
 90
        1
176
     1
 40
0.0
176
     1
 90
        0
176
     1
290
     0
176
     1
290
     1
176
     1
290
     1
176
     1
290
     0
176
     1
290
     0
176
     1
290
     0
176
     1
290
     0
176
     1
290
     0
176
     1
290
     0
176
     1
 90
       50
176
     1
 40
0.0
176
     1
 40
1.0
176
     1
 90
        0
176
     1
 62
    18
420
        0
176
     1
 90
       50
176
     1
 90
        3
176
     1
 62
     5
420
      255
176
     1
290
     0
176
     1
 90
       50
176
     1
 90
       50
176
     1
 90
       50
176
     1
290
     0
176
     1
 90
       50
176
     1
 62
   256
176
     0
 40
1.0
176
     0
 90
        2
176
     1
  1
strokes_ogs.tif
176
     1
290
     0
176
     1
 40
1.0
176
     1
 40
1.0
176
     1
  0
VISUALSTYLE
  5
10171
102
{ACAD_REACTORS
330
1015B
102
}
330
1015B
100
AcDbVisualStyle
  2
X-Ray
 70
    25
177
     3
291
     0
 70
    58
 90
        2
176
     1
 90
        2
176
     1
 90
        1
176
     1
 90
        1
176
     1
 40
0.5
176
     1
 40
30.0
176
     1
 62
     7
420
 16777215
176
     1
 90
        1
176
     1
 90
        0
176
     1
 62
     7
176
     1
 62
   257
176
     1
 90
        1
176
     1
 90
        1
176
     1
 40
1.0
176
     1
 90
        8
176
     1
 62
     7
176
     1
 40
1.0
176
     1
 90
        1
176
     1
 90
        6
176
     1
 90
        2
176
     1
 62
     7
176
     1
 90
        3
176
     1
 90
        0
176
     1
 90
        0
176
     1
290
     0
176
     1
 90
       13
176
     1
 40
0.0
176
     1
 90
        0
176
     1
290
     0
176
     1
290
     1
176
     1
290
     1
176
     1
290
     0
176
     1
290
     0
176
     1
290
     0
176
     1
290
     0
176
     1
290
     0
176
     1
290
     0
176
     1
 90
       50
176
     1
 40
0.0
176
     1
 40
1.0
176
     1
 90
        0
176
     1
 62
    18
420
        0
176
     1
 90
       50
176
     1
 90
        3
176
     1
 62
     5
420
      255
176
     1
290
     0
176
     1
 90
       50
176
     1
 90
       50
176
     1
 90
       50
176
     1
290
     0
176
     1
 90
       50
176
     1
 62
   256
176
     0
 40
1.0
176
     0
 90
        2
176
     1
  1
strokes_ogs.tif
176
     1
290
     0
176
     1
 40
1.0
176
     1
 40
1.0
176
     1
  0
DICTIONARYVAR
  5
10220
102
{ACAD_REACTORS
330
1021F
102
}
330
1021F
100
DictionaryVariables
280
     0
  1
1:1
  0
DICTIONARYVAR
  5
10225
102
{ACAD_REACTORS
330
1021F
102
}
330
1021F
100
DictionaryVariables
280
     0
  1
Standard
  0
DICTIONARYVAR
  5
10224
102
{ACAD_REACTORS
330
1021F
102
}
330
1021F
100
DictionaryVariables
280
     0
  1
Standard
  0
XRECORD
  5
101A2
102
{ACAD_REACTORS
330
101A0
102
}
330
101A0
100
AcDbXrecord
280
     1
1000
#ffffff
  0
XRECORD
  5
101A3
102
{ACAD_REACTORS
330
101A0
102
}
330
101A0
100
AcDbXrecord
280
     1
1000
FullColor
  0
XRECORD
  5
101A4
102
{ACAD_REACTORS
330
101A0
102
}
330
101A0
100
AcDbXrecord
280
     1
290
     1
  0
XRECORD
  5
101A5
102
{ACAD_REACTORS
330
101A0
102
}
330
101A0
100
AcDbXrecord
280
     1
290
     1
  0
XRECORD
  5
101A6
102
{ACAD_REACTORS
330
101A0
102
}
330
101A0
100
AcDbXrecord
280
     1
290
     1
  0
XRECORD
  5
101A7
102
{ACAD_REACTORS
330
101A0
102
}
330
101A0
100
AcDbXrecord
280
     1
290
     1
  0
XRECORD
  5
101A8
102
{ACAD_REACTORS
330
101A0
102
}
330
101A0
100
AcDbXrecord
280
     1
1000
auto
  0
XRECORD
  5
101A9
102
{ACAD_REACTORS
330
101A0
102
}
330
101A0
100
AcDbXrecord
280
     1
1000
auto
  0
XRECORD
  5
101AA
102
{ACAD_REACTORS
330
101A0
102
}
330
101A0
100
AcDbXrecord
280
     1
1000
auto
  0
XRECORD
  5
101AB
102
{ACAD_REACTORS
330
101A0
102
}
330
101A0
100
AcDbXrecord
280
     1
1000
auto
  0
XRECORD
  5
101AC
102
{ACAD_REACTORS
330
101A0
102
}
330
101A0
100
AcDbXrecord
280
     1
1000
auto
  0
XRECORD
  5
101AD
102
{ACAD_REACTORS
330
101A0
102
}
330
101A0
100
AcDbXrecord
280
     1
1000
auto
  0
XRECORD
  5
101AE
102
{ACAD_REACTORS
330
101A0
102
}
330
101A0
100
AcDbXrecord
280
     1
1000
auto
  0
XRECORD
  5
101AF
102
{ACAD_REACTORS
330
101A0
102
}
330
101A0
100
AcDbXrecord
280
     1
1000
auto
  0
XRECORD
  5
101B0
102
{ACAD_REACTORS
330
101A0
102
}
330
101A0
100
AcDbXrecord
280
     1
290
     0
  0
XRECORD
  5
101B1
102
{ACAD_REACTORS
330
101A0
102
}
330
101A0
100
AcDbXrecord
280
     1
290
     0
  0
XRECORD
  5
101B2
102
{ACAD_REACTORS
330
101A0
102
}
330
101A0
100
AcDbXrecord
280
     1
290
     0
  0
XRECORD
  5
101B3
102
{ACAD_REACTORS
330
101A0
102
}
330
101A0
100
AcDbXrecord
280
     1
290
     0
  0
XRECORD
  5
101B4
102
{ACAD_REACTORS
330
101A0
102
}
330
101A0
100
AcDbXrecord
280
     1
 90
        0
  0
XRECORD
  5
101B5
102
{ACAD_REACTORS
330
101A0
102
}
330
101A0
100
AcDbXrecord
280
     1
 90
        0
  0
XRECORD
  5
101B6
102
{ACAD_REACTORS
330
101A0
102
}
330
101A0
100
AcDbXrecord
280
     1
 90
        0
  0
XRECORD
  5
101B7
102
{ACAD_REACTORS
330
101A0
102
}
330
101A0
100
AcDbXrecord
280
     1
 90
        0
  0
XRECORD
  5
101B8
102
{ACAD_REACTORS
330
101A0
102
}
330
101A0
100
AcDbXrecord
280
     1
1000
auto
  0
XRECORD
  5
101B9
102
{ACAD_REACTORS
330
101A0
102
}
330
101A0
100
AcDbXrecord
280
     1
1000
auto
  0
XRECORD
  5
101BA
102
{ACAD_REACTORS
330
101A0
102
}
330
101A0
100
AcDbXrecord
280
     1
1000
auto
  0
XRECORD
  5
101BB
102
{ACAD_REACTORS
330
101A0
102
}
330
101A0
100
AcDbXrecord
280
     1
1000
auto
  0
XRECORD
  5
101BC
102
{ACAD_REACTORS
330
101A0
102
}
330
101A0
100
AcDbXrecord
280
     1
1000
auto
  0
XRECORD
  5
101BD
102
{ACAD_REACTORS
330
101A0
102
}
330
101A0
100
AcDbXrecord
280
     1
1000
auto
  0
XRECORD
  5
101BE
102
{ACAD_REACTORS
330
101A0
102
}
330
101A0
100
AcDbXrecord
280
     1
1000
auto
  0
XRECORD
  5
101BF
102
{ACAD_REACTORS
330
101A0
102
}
330
101A0
100
AcDbXrecord
280
     1
1000
auto
  0
XRECORD
  5
101C0
102
{ACAD_REACTORS
330
101A0
102
}
330
101A0
100
AcDbXrecord
280
     1
 90
        1
  0
XRECORD
  5
101C1
102
{ACAD_REACTORS
330
101A0
102
}
330
101A0
100
AcDbXrecord
280
     1
 40
10.0
  0
XRECORD
  5
101C2
102
{ACAD_REACTORS
330
101A0
102
}
330
101A0
100
AcDbXrecord
280
     1
 40
10.0
  0
XRECORD
  5
101C3
102
{ACAD_REACTORS
330
101A0
102
}
330
101A0
100
AcDbXrecord
280
     1
 40
10.0
  0
XRECORD
  5
101C4
102
{ACAD_REACTORS
330
101A0
102
}
330
101A0
100
AcDbXrecord
280
     1
 40
10.0
  0
XRECORD
  5
101C5
102
{ACAD_REACTORS
330
101A0
102
}
330
101A0
100
AcDbXrecord
280
     1
290
     0
  0
XRECORD
  5
101C6
102
{ACAD_REACTORS
330
101A0
102
}
330
101A0
100
AcDbXrecord
280
     1
 90
        1
  0
XRECORD
  5
101C7
102
{ACAD_REACTORS
330
101A0
102
}
330
101A0
100
AcDbXrecord
280
     1
 40
0.0
  0
XRECORD
  5
101C8
102
{ACAD_REACTORS
330
101A0
102
}
330
101A0
100
AcDbXrecord
280
     1
 40
0.0
  0
XRECORD
  5
101C9
102
{ACAD_REACTORS
330
101A0
102
}
330
101A0
100
AcDbXrecord
280
     1
1000
Portrait
  0
XRECORD
  5
101CA
102
{ACAD_REACTORS
330
101A0
102
}
330
101A0
100
AcDbXrecord
280
     1
 40
297.0
  0
XRECORD
  5
101CB
102
{ACAD_REACTORS
330
101A0
102
}
330
101A0
100
AcDbXrecord
280
     1
 40
210.0
  0
XRECORD
  5
101CC
102
{ACAD_REACTORS
330
101A0
102
}
330
101A0
100
AcDbXrecord
280
     1
1000
1:1
  0
XRECORD
  5
101CD
102
{ACAD_REACTORS
330
101A0
102
}
330
101A0
100
AcDbXrecord
280
     1
290
     1
  0
XRECORD
  5
101CE
102
{ACAD_REACTORS
330
101A0
102
}
330
101A0
100
AcDbXrecord
280
     1
1000
3.15.3
  0
XRECORD
  5
101CF
102
{ACAD_REACTORS
330
101A0
102
}
330
101A0
100
AcDbXrecord
280
     1
 90
        4
  0
XRECORD
  5
101D0
102
{ACAD_REACTORS
330
101A0
102
}
330
101A0
100
AcDbXrecord
280
     1
  0
XRECORD
  5
101D1
102
{ACAD_REACTORS
330
101A0
102
}
330
101A0
100
AcDbXrecord
280
     1
 40
2557.746719160105
  0
XRECORD
  5
101D2
102
{ACAD_REACTORS
330
101A0
102
}
330
101A0
100
AcDbXrecord
280
     1
 40
4690.252296587926
  0
DICTIONARY
  5
10221
330
1019B
100
AcDbDictionary
280
     1
281
     1
  3
ACAD_ROUNDTRIP_2008_TABLESTYLE_CELLSTYLEMAP
360
10222
  0
CELLSTYLEMAP
  5
10222
102
{ACAD_REACTORS
330
10221
102
}
330
10221
100
AcDbCellStyleMap
 90
        3
300
CELLSTYLE
  1
TABLEFORMAT_BEGIN
 90
        5
170
     1
 91
        0
 92
    32768
 62
   257
 93
        1
300
CONTENTFORMAT
  1
CONTENTFORMAT_BEGIN
 90
        0
 91
        0
 92
        4
 93
        0
300

 40
0.0
140
1.0
 94
        5
 62
     0
340
10143
144
0.25
309
CONTENTFORMAT_END
171
     1
301
MARGIN
  1
CELLMARGIN_BEGIN
 40
0.06
 40
0.06
 40
0.06
 40
0.06
 40
0.06
 40
0.06
309
CELLMARGIN_END
 94
        6
 95
        1
302
GRIDFORMAT
  1
GRIDFORMAT_BEGIN
 90
        0
 91
        1
 62
     0
 92
       -2
340
10145
 93
        0
 40
0.045
309
GRIDFORMAT_END
 95
        2
302
GRIDFORMAT
  1
GRIDFORMAT_BEGIN
 90
        0
 91
        1
 62
     0
 92
       -2
340
10145
 93
        0
 40
0.045
309
GRIDFORMAT_END
 95
        4
302
GRIDFORMAT
  1
GRIDFORMAT_BEGIN
 90
        0
 91
        1
 62
     0
 92
       -2
340
10145
 93
        0
 40
0.045
309
GRIDFORMAT_END
 95
        8
302
GRIDFORMAT
  1
GRIDFORMAT_BEGIN
 90
        0
 91
        1
 62
     0
 92
       -2
340
10145
 93
        0
 40
0.045
309
GRIDFORMAT_END
 95
       16
302
GRIDFORMAT
  1
GRIDFORMAT_BEGIN
 90
        0
 91
        1
 62
     0
 92
       -2
340
10145
 93
        0
 40
0.045
309
GRIDFORMAT_END
 95
       32
302
GRIDFORMAT
  1
GRIDFORMAT_BEGIN
 90
        0
 91
        1
 62
     0
 92
       -2
340
10145
 93
        0
 40
0.045
309
GRIDFORMAT_END
309
TABLEFORMAT_END
  1
CELLSTYLE_BEGIN
 90
        1
 91
        1
300
_TITLE
309
CELLSTYLE_END
300
CELLSTYLE
  1
TABLEFORMAT_BEGIN
 90
        5
170
     1
 91
        0
 92
        0
 62
   257
 93
        1
300
CONTENTFORMAT
  1
CONTENTFORMAT_BEGIN
 90
        0
 91
        0
 92
        4
 93
        0
300

 40
0.0
140
1.0
 94
        5
 62
     0
340
10143
144
0.18
309
CONTENTFORMAT_END
171
     1
301
MARGIN
  1
CELLMARGIN_BEGIN
 40
0.06
 40
0.06
 40
0.06
 40
0.06
 40
0.06
 40
0.06
309
CELLMARGIN_END
 94
        6
 95
        1
302
GRIDFORMAT
  1
GRIDFORMAT_BEGIN
 90
        0
 91
        1
 62
     0
 92
       -2
340
10145
 93
        0
 40
0.045
309
GRIDFORMAT_END
 95
        2
302
GRIDFORMAT
  1
GRIDFORMAT_BEGIN
 90
        0
 91
        1
 62
     0
 92
       -2
340
10145
 93
        0
 40
0.045
309
GRIDFORMAT_END
 95
        4
302
GRIDFORMAT
  1
GRIDFORMAT_BEGIN
 90
        0
 91
        1
 62
     0
 92
       -2
340
10145
 93
        0
 40
0.045
309
GRIDFORMAT_END
 95
        8
302
GRIDFORMAT
  1
GRIDFORMAT_BEGIN
 90
        0
 91
        1
 62
     0
 92
       -2
340
10145
 93
        0
 40
0.045
309
GRIDFORMAT_END
 95
       16
302
GRIDFORMAT
  1
GRIDFORMAT_BEGIN
 90
        0
 91
        1
 62
     0
 92
       -2
340
10145
 93
        0
 40
0.045
309
GRIDFORMAT_END
 95
       32
302
GRIDFORMAT
  1
GRIDFORMAT_BEGIN
 90
        0
 91
        1
 62
     0
 92
       -2
340
10145
 93
        0
 40
0.045
309
GRIDFORMAT_END
309
TABLEFORMAT_END
  1
CELLSTYLE_BEGIN
 90
        2
 91
        1
300
_HEADER
309
CELLSTYLE_END
300
CELLSTYLE
  1
TABLEFORMAT_BEGIN
 90
        5
170
     1
 91
        0
 92
        0
 62
   257
 93
        1
300
CONTENTFORMAT
  1
CONTENTFORMAT_BEGIN
 90
        0
 91
        0
 92
        4
 93
        0
300

 40
0.0
140
1.0
 94
        2
 62
     0
340
10143
144
0.18
309
CONTENTFORMAT_END
171
     1
301
MARGIN
  1
CELLMARGIN_BEGIN
 40
0.06
 40
0.06
 40
0.06
 40
0.06
 40
0.06
 40
0.06
309
CELLMARGIN_END
 94
        6
 95
        1
302
GRIDFORMAT
  1
GRIDFORMAT_BEGIN
 90
        0
 91
        1
 62
     0
 92
       -2
340
10145
 93
        0
 40
0.045
309
GRIDFORMAT_END
 95
        2
302
GRIDFORMAT
  1
GRIDFORMAT_BEGIN
 90
        0
 91
        1
 62
     0
 92
       -2
340
10145
 93
        0
 40
0.045
309
GRIDFORMAT_END
 95
        4
302
GRIDFORMAT
  1
GRIDFORMAT_BEGIN
 90
        0
 91
        1
 62
     0
 92
       -2
340
10145
 93
        0
 40
0.045
309
GRIDFORMAT_END
 95
        8
302
GRIDFORMAT
  1
GRIDFORMAT_BEGIN
 90
        0
 91
        1
 62
     0
 92
       -2
340
10145
 93
        0
 40
0.045
309
GRIDFORMAT_END
 95
       16
302
GRIDFORMAT
  1
GRIDFORMAT_BEGIN
 90
        0
 91
        1
 62
     0
 92
       -2
340
10145
 93
        0
 40
0.045
309
GRIDFORMAT_END
 95
       32
302
GRIDFORMAT
  1
GRIDFORMAT_BEGIN
 90
        0
 91
        1
 62
     0
 92
       -2
340
10145
 93
        0
 40
0.045
309
GRIDFORMAT_END
309
TABLEFORMAT_END
  1
CELLSTYLE_BEGIN
 90
        3
 91
        2
300
_DATA
309
CELLSTYLE_END
  0
ENDSEC
  0
EOF
