  0
SECTION
  2
HEADER
  9
$ACADVER
  1
AC1009
  9
$EXTMIN
 10
0.00002410
 20
0.00045601
 30
0.0
  9
$EXTMAX
 10
1087.13076173
 20
879.04589036
 30
0.0
  0
ENDSEC
  0
SECTION
  2
TABLES
  0
TABLE
  2
LAYER
 70
3
 0
LAYER
 2
0
 70
0
 62
1
 6
CONTINUOUS
 0
LAYER
 2
WHITE
 70
0
 62
1
 6
CONTINUOUS
 0
LAYER
 2
CYAN
 70
0
 62
1
 6
CONTINUOUS
 0
ENDTAB
 0
ENDSEC
  0
SECTION
  2
ENTITIES
  0
POLYLINE
  8
0
 66
   1
 39
0.000000
 70
    0
  0
VERTEX
  8
0
 10
360.83206838
 20
57.92401158
  0
VERTEX
  8
0
 10
360.81419449
 20
57.93704090
  0
VERTEX
  8
0
 10
332.76615626
 20
81.92409392
  0
VERTEX
  8
0
 10
328.53376070
 20
77.05225139
  0
VERTEX
  8
0
 10
355.88859074
 20
53.65803918
  0
VERTEX
  8
0
 10
355.99010792
 20
53.56558546
  0
SEQEND
  0
POLYLINE
  8
WHITE
 66
   1
 39
0.000000
 70
    0
  0
VERTEX
  8
0
 10
1049.36033860
 20
815.51795608
  0
VERTEX
  8
0
 10
1040.49171418
 20
816.66696402
  0
SEQEND
  0
POLYLINE
  8
WHITE
 66
   1
 39
0.000000
 70
    0
  0
VERTEX
  8
0
 10
834.20400710
 20
716.76658908
  0
VERTEX
  8
0
 10
839.95218873
 20
721.03433370
  0
SEQEND
  0
POLYLINE
  8
WHITE
 66
   1
 39
0.000000
 70
    0
  0
VERTEX
  8
0
 10
831.08356432
 20
723.98892783
  0
VERTEX
  8
0
 10
829.60378473
 20
719.72118120
  0
SEQEND
  0
POLYLINE
  8
WHITE
 66
   1
 39
0.000000
 70
    0
  0
VERTEX
  8
0
 10
819.54865247
 20
707.98487897
  0
VERTEX
  8
0
 10
819.38441917
 20
710.77532853
  0
VERTEX
  8
0
 10
818.39901735
 20
713.07334642
  0
VERTEX
  8
0
 10
814.62163935
 20
712.74505930
  0
VERTEX
  8
0
 10
807.72382058
 20
709.46217603
  0
VERTEX
  8
0
 10
800.16906458
 20
705.52271853
  0
VERTEX
  8
0
 10
790.14912718
 20
699.12213717
  0
SEQEND
  0
POLYLINE
  8
WHITE
 66
   1
 39
0.000000
 70
    0
  0
VERTEX
  8
0
 10
622.45133502
 20
578.95516167
  0
VERTEX
  8
0
 10
615.55351625
 20
575.67228042
  0
VERTEX
  8
0
 10
615.22504763
 20
572.88286943
  0
VERTEX
  8
0
 10
615.71774955
 20
570.42070900
  0
VERTEX
  8
0
 10
617.68855520
 20
569.43584362
  0
VERTEX
  8
0
 10
623.27250353
 20
571.07728525
  0
SEQEND
  0
POLYLINE
  8
WHITE
 66
   1
 39
0.000000
 70
    0
  0
VERTEX
  8
0
 10
934.64638137
 20
689.47503707
  0
VERTEX
  8
0
 10
941.37996683
 20
690.13161332
  0
SEQEND
  0
POLYLINE
  8
WHITE
 66
   1
 39
0.000000
 70
    0
  0
VERTEX
  8
0
 10
804.15592383
 20
671.89499748
  0
VERTEX
  8
0
 10
796.43693655
 20
664.83783987
  0
SEQEND
  0
POLYLINE
  8
WHITE
 66
   1
 39
0.000000
 70
    0
  0
VERTEX
  8
0
 10
937.76179660
 20
759.44820572
  0
VERTEX
  8
0
 10
934.47544467
 20
752.71933723
  0
SEQEND
  0
POLYLINE
  8
WHITE
 66
   1
 39
0.000000
 70
    0
  0
VERTEX
  8
0
 10
864.50849340
 20
715.62381265
  0
VERTEX
  8
0
 10
859.41557113
 20
714.47480472
  0
VERTEX
  8
0
 10
856.78783027
 20
716.44453347
  0
VERTEX
  8
0
 10
856.95206357
 20
720.38399097
  0
SEQEND
  0
POLYLINE
  8
WHITE
 66
   1
 39
0.000000
 70
    0
  0
VERTEX
  8
0
 10
965.10337203
 20
778.91590177
  0
VERTEX
  8
0
 10
961.16176073
 20
774.97644427
  0
VERTEX
  8
0
 10
963.13256638
 20
766.93338470
  0
VERTEX
  8
0
 10
991.71092315
 20
749.04271795
  0
VERTEX
  8
0
 10
1000.90801618
 20
748.87857338
  0
SEQEND
  0
POLYLINE
  8
WHITE
 66
   1
 39
0.000000
 70
    0
  0
VERTEX
  8
0
 10
1052.39531303
 20
863.20077497
  0
VERTEX
  8
0
 10
1041.22741435
 20
862.73535250
  0
SEQEND
  0
POLYLINE
  8
WHITE
 66
   1
 39
0.000000
 70
    0
  0
VERTEX
  8
0
 10
1057.51504890
 20
831.11164353
  0
VERTEX
  8
0
 10
1063.09899925
 20
834.36751557
  0
SEQEND
  0
POLYLINE
  8
WHITE
 66
   1
 39
0.000000
 70
    0
  0
VERTEX
  8
0
 10
1022.14780362
 20
828.78661643
  0
VERTEX
  8
0
 10
1015.63207865
 20
830.64726167
  0
VERTEX
  8
0
 10
1012.84010448
 20
834.36751557
  0
VERTEX
  8
0
 10
1014.23609157
 20
849.71394758
  0
VERTEX
  8
0
 10
1017.02806573
 20
855.29484672
  0
SEQEND
  0
POLYLINE
  8
WHITE
 66
   1
 39
0.000000
 70
    0
  0
VERTEX
  8
0
 10
850.97261262
 20
657.07631907
  0
VERTEX
  8
0
 10
850.97261262
 20
661.83649738
  0
SEQEND
  0
POLYLINE
  8
WHITE
 66
   1
 39
0.000000
 70
    0
  0
VERTEX
  8
0
 10
854.91422392
 20
638.69322063
  0
VERTEX
  8
0
 10
854.42152200
 20
632.29160068
  0
VERTEX
  8
0
 10
848.50910505
 20
629.17286400
  0
SEQEND
  0
POLYLINE
  8
WHITE
 66
   1
 39
0.000000
 70
    0
  0
VERTEX
  8
0
 10
826.99280237
 20
626.05412530
  0
VERTEX
  8
0
 10
832.74098400
 20
624.90511737
  0
SEQEND
  0
POLYLINE
  8
WHITE
 66
   1
 39
0.000000
 70
    0
  0
VERTEX
  8
0
 10
873.80278573
 20
677.42914625
  0
VERTEX
  8
0
 10
865.75365398
 20
672.99725707
  0
VERTEX
  8
0
 10
863.94708163
 20
672.17653625
  0
VERTEX
  8
0
 10
862.96167982
 20
668.07293418
  0
SEQEND
  0
POLYLINE
  8
WHITE
 66
   1
 39
0.000000
 70
    0
  0
VERTEX
  8
0
 10
911.41400223
 20
680.71202750
  0
VERTEX
  8
0
 10
917.16218588
 20
678.57815620
  0
VERTEX
  8
0
 10
918.96875622
 20
675.45941750
  0
VERTEX
  8
0
 10
918.64028962
 20
672.34068082
  0
SEQEND
  0
POLYLINE
  8
WHITE
 66
   1
 39
0.000000
 70
    0
  0
VERTEX
  8
0
 10
873.14417467
 20
642.13920787
  0
VERTEX
  8
0
 10
868.70986347
 20
641.31848705
  0
VERTEX
  8
0
 10
866.57482250
 20
643.78064748
  0
SEQEND
  0
POLYLINE
  8
WHITE
 66
   1
 39
0.000000
 70
    0
  0
VERTEX
  8
0
 10
981.97755812
 20
740.25061998
  0
VERTEX
  8
0
 10
986.24763602
 20
735.65458623
  0
SEQEND
  0
POLYLINE
  8
WHITE
 66
   1
 39
0.000000
 70
    0
  0
VERTEX
  8
0
 10
984.60529697
 20
728.59742862
  0
VERTEX
  8
0
 10
977.87171150
 20
723.18067405
  0
VERTEX
  8
0
 10
973.76586690
 20
718.91292742
  0
VERTEX
  8
0
 10
967.52330750
 20
717.43563237
  0
SEQEND
  0
POLYLINE
  8
WHITE
 66
   1
 39
0.000000
 70
    0
  0
VERTEX
  8
0
 10
936.15297455
 20
726.79184443
  0
VERTEX
  8
0
 10
935.00333943
 20
731.88031188
  0
SEQEND
  0
POLYLINE
  8
WHITE
 66
   1
 39
0.000000
 70
    0
  0
VERTEX
  8
0
 10
779.57950897
 20
637.61589512
  0
VERTEX
  8
0
 10
787.79120018
 20
638.27247137
  0
VERTEX
  8
0
 10
798.46807280
 20
632.85675538
  0
SEQEND
  0
POLYLINE
  8
WHITE
 66
   1
 39
0.000000
 70
    0
  0
VERTEX
  8
0
 10
769.55957157
 20
601.99870618
  0
VERTEX
  8
0
 10
764.63255845
 20
603.47600325
  0
SEQEND
  0
POLYLINE
  8
WHITE
 66
   1
 39
0.000000
 70
    0
  0
VERTEX
  8
0
 10
759.21284140
 20
623.00810962
  0
VERTEX
  8
0
 10
761.84058227
 20
628.26072163
  0
SEQEND
  0
POLYLINE
  8
WHITE
 66
   1
 39
0.000000
 70
    0
  0
VERTEX
  8
0
 10
703.53423160
 20
595.43294167
  0
VERTEX
  8
0
 10
739.83157767
 20
615.78577087
  0
SEQEND
  0
POLYLINE
  8
WHITE
 66
   1
 39
0.000000
 70
    0
  0
VERTEX
  8
0
 10
748.04494473
 20
616.27820255
  0
VERTEX
  8
0
 10
749.85151507
 20
612.66703217
  0
VERTEX
  8
0
 10
752.80772455
 20
601.67041705
  0
SEQEND
  0
POLYLINE
  8
WHITE
 66
   1
 39
0.000000
 70
    0
  0
VERTEX
  8
0
 10
719.46491212
 20
583.28731862
  0
VERTEX
  8
0
 10
711.91015612
 20
583.28731862
  0
VERTEX
  8
0
 10
701.23495935
 20
589.35961085
  0
VERTEX
  8
0
 10
700.57802413
 20
592.97078123
  0
SEQEND
  0
POLYLINE
  8
WHITE
 66
   1
 39
0.000000
 70
    0
  0
VERTEX
  8
0
 10
996.63458658
 20
846.58274387
  0
VERTEX
  8
0
 10
1000.74043118
 20
844.61301512
  0
SEQEND
  0
POLYLINE
  8
WHITE
 66
   1
 39
0.000000
 70
    0
  0
VERTEX
  8
0
 10
943.09101573
 20
811.62213118
  0
VERTEX
  8
0
 10
937.50706538
 20
812.60699657
  0
VERTEX
  8
0
 10
936.68589687
 20
815.39640553
  0
SEQEND
  0
POLYLINE
  8
WHITE
 66
   1
 39
0.000000
 70
    0
  0
VERTEX
  8
0
 10
745.54121677
 20
675.35137257
  0
VERTEX
  8
0
 10
748.76221055
 20
674.12548728
  0
VERTEX
  8
0
 10
749.52807602
 20
671.06180963
  0
VERTEX
  8
0
 10
746.15457988
 20
666.31202118
  0
SEQEND
  0
POLYLINE
  8
WHITE
 66
   1
 39
0.000000
 70
    0
  0
VERTEX
  8
0
 10
673.72747477
 20
582.24219927
  0
VERTEX
  8
0
 10
633.32260825
 20
563.69495627
  0
VERTEX
  8
0
 10
631.84450250
 20
562.87423545
  0
VERTEX
  8
0
 10
631.68026920
 20
559.59135420
  0
VERTEX
  8
0
 10
632.17297112
 20
556.63676007
  0
VERTEX
  8
0
 10
634.14377677
 20
554.50288675
  0
VERTEX
  8
0
 10
637.92115477
 20
553.51802338
  0
SEQEND
  0
POLYLINE
  8
WHITE
 66
   1
 39
0.000000
 70
    0
  0
VERTEX
  8
0
 10
639.39590680
 20
598.38026370
  0
VERTEX
  8
0
 10
628.97041168
 20
593.63047323
  0
VERTEX
  8
0
 10
624.67687188
 20
592.86481548
  0
VERTEX
  8
0
 10
622.68428018
 20
594.24341688
  0
VERTEX
  8
0
 10
622.68428018
 20
597.76732005
  0
VERTEX
  8
0
 10
628.20454622
 20
605.58182675
  0
SEQEND
  0
POLYLINE
  8
WHITE
 66
   1
 39
0.000000
 70
    0
  0
VERTEX
  8
0
 10
805.08770047
 20
561.78548350
  0
VERTEX
  8
0
 10
828.94658082
 20
570.45558149
  0
VERTEX
  8
0
 10
840.57225525
 20
570.20358055
  0
SEQEND
  0
POLYLINE
  8
WHITE
 66
   1
 39
0.000000
 70
    0
  0
VERTEX
  8
0
 10
769.88971603
 20
468.91733010
  0
VERTEX
  8
0
 10
781.23022727
 20
473.45103070
  0
SEQEND
  0
POLYLINE
  8
WHITE
 66
   1
 39
0.000000
 70
    0
  0
VERTEX
  8
0
 10
760.81663590
 20
511.13560345
  0
VERTEX
  8
0
 10
791.72108053
 20
534.65288112
  0
SEQEND
  0
POLYLINE
  8
WHITE
 66
   1
 39
0.000000
 70
    0
  0
VERTEX
  8
0
 10
1024.01805827
 20
471.55194578
  0
VERTEX
  8
0
 10
989.96635927
 20
470.47773803
  0
VERTEX
  8
0
 10
966.82250269
 20
475.50577466
  0
SEQEND
  0
POLYLINE
  8
WHITE
 66
   1
 39
0.000000
 70
    0
  0
VERTEX
  8
0
 10
910.82410102
 20
492.34837913
  0
VERTEX
  8
0
 10
900.07013930
 20
492.70679525
  0
SEQEND
  0
POLYLINE
  8
WHITE
 66
   1
 39
0.000000
 70
    0
  0
VERTEX
  8
0
 10
938.60139947
 20
466.19960355
  0
VERTEX
  8
0
 10
893.61809663
 20
466.19960355
  0
VERTEX
  8
0
 10
887.88332180
 20
467.45353865
  0
SEQEND
  0
POLYLINE
  8
WHITE
 66
   1
 39
0.000000
 70
    0
  0
VERTEX
  8
0
 10
888.95921952
 20
485.72132207
  0
VERTEX
  8
0
 10
885.73319818
 20
476.94584547
  0
SEQEND
  0
POLYLINE
  8
WHITE
 66
   1
 39
0.000000
 70
    0
  0
VERTEX
  8
0
 10
933.07610588
 20
577.90380880
  0
VERTEX
  8
0
 10
915.15451153
 20
563.39679613
  0
SEQEND
  0
POLYLINE
  8
WHITE
 66
   1
 39
0.000000
 70
    0
  0
VERTEX
  8
0
 10
944.18870152
 20
544.94928537
  0
VERTEX
  8
0
 10
956.19620307
 20
568.76991810
  0
SEQEND
  0
POLYLINE
  8
WHITE
 66
   1
 39
0.000000
 70
    0
  0
VERTEX
  8
0
 10
916.58904317
 20
553.36738443
  0
VERTEX
  8
0
 10
938.45392467
 20
542.26376498
  0
SEQEND
  0
POLYLINE
  8
WHITE
 66
   1
 39
0.000000
 70
    0
  0
VERTEX
  8
0
 10
779.52923347
 20
549.10379415
  0
VERTEX
  8
0
 10
774.42625408
 20
548.82017822
  0
SEQEND
  0
POLYLINE
  8
WHITE
 66
   1
 39
0.000000
 70
    0
  0
VERTEX
  8
0
 10
776.97690585
 20
540.32000687
  0
VERTEX
  8
0
 10
780.66378795
 20
543.15305045
  0
SEQEND
  0
POLYLINE
  8
WHITE
 66
   1
 39
0.000000
 70
    0
  0
VERTEX
  8
0
 10
743.80503012
 20
517.65254043
  0
VERTEX
  8
0
 10
751.17711645
 20
521.05281588
  0
SEQEND
  0
POLYLINE
  8
WHITE
 66
   1
 39
0.000000
 70
    0
  0
VERTEX
  8
0
 10
899.56235473
 20
567.15860345
  0
VERTEX
  8
0
 10
915.69246140
 20
578.44195227
  0
SEQEND
  0
POLYLINE
  8
WHITE
 66
   1
 39
0.000000
 70
    0
  0
VERTEX
  8
0
 10
871.24710642
 20
574.14303805
  0
VERTEX
  8
0
 10
890.60155857
 20
566.80018935
  0
SEQEND
  0
POLYLINE
  8
WHITE
 66
   1
 39
0.000000
 70
    0
  0
VERTEX
  8
0
 10
614.01675575
 20
495.50867125
  0
VERTEX
  8
0
 10
614.01675575
 20
491.82477987
  0
VERTEX
  8
0
 10
612.59898262
 20
489.84154550
  0
VERTEX
  8
0
 10
606.64466942
 20
488.99173628
  0
VERTEX
  8
0
 10
583.39553178
 20
488.42450442
  0
SEQEND
  0
POLYLINE
  8
WHITE
 66
   1
 39
0.000000
 70
    0
  0
VERTEX
  8
0
 10
966.46751797
 20
560.28844730
  0
VERTEX
  8
0
 10
954.08217588
 20
537.88244222
  0
SEQEND
  0
POLYLINE
  8
WHITE
 66
   1
 39
0.000000
 70
    0
  0
VERTEX
  8
0
 10
955.41182321
 20
530.38620333
  0
VERTEX
  8
0
 10
960.77822020
 20
525.72930591
  0
SEQEND
  0
POLYLINE
  8
WHITE
 66
   1
 39
0.000000
 70
    0
  0
VERTEX
  8
0
 10
968.59869783
 20
524.16331258
  0
VERTEX
  8
0
 10
994.42580822
 20
532.70704583
  0
SEQEND
  0
POLYLINE
  8
WHITE
 66
   1
 39
0.000000
 70
    0
  0
VERTEX
  8
0
 10
1007.15057558
 20
516.58768195
  0
VERTEX
  8
0
 10
1009.01286006
 20
506.66870910
  0
SEQEND
  0
POLYLINE
  8
WHITE
 66
   1
 39
0.000000
 70
    0
  0
VERTEX
  8
0
 10
1009.17908956
 20
505.18170143
  0
VERTEX
  8
0
 10
1009.39105657
 20
499.46510978
  0
SEQEND
  0
POLYLINE
  8
WHITE
 66
   1
 39
0.000000
 70
    0
  0
VERTEX
  8
0
 10
1006.27636982
 20
495.38768956
  0
VERTEX
  8
0
 10
999.73328744
 20
493.86205231
  0
SEQEND
  0
POLYLINE
  8
WHITE
 66
   1
 39
0.000000
 70
    0
  0
VERTEX
  8
0
 10
997.70019591
 20
493.91450818
  0
VERTEX
  8
0
 10
973.09887658
 20
501.00645952
  0
SEQEND
  0
POLYLINE
  8
WHITE
 66
   1
 39
0.000000
 70
    0
  0
VERTEX
  8
0
 10
488.47399490
 20
740.24438647
  0
VERTEX
  8
0
 10
487.90085219
 20
749.98810507
  0
SEQEND
  0
POLYLINE
  8
WHITE
 66
   1
 39
0.000000
 70
    0
  0
VERTEX
  8
0
 10
489.04713560
 20
681.58988855
  0
VERTEX
  8
0
 10
488.85608870
 20
690.95129555
  0
SEQEND
  0
POLYLINE
  8
WHITE
 66
   1
 39
0.000000
 70
    0
  0
VERTEX
  8
0
 10
1049.36033860
 20
63.52839029
  0
VERTEX
  8
0
 10
1040.49171418
 20
62.37938235
  0
SEQEND
  0
POLYLINE
  8
WHITE
 66
   1
 39
0.000000
 70
    0
  0
VERTEX
  8
0
 10
834.20400710
 20
162.27975729
  0
VERTEX
  8
0
 10
839.95218873
 20
158.01201267
  0
SEQEND
  0
POLYLINE
  8
WHITE
 66
   1
 39
0.000000
 70
    0
  0
VERTEX
  8
0
 10
831.08356432
 20
155.05741854
  0
VERTEX
  8
0
 10
829.60378473
 20
159.32516517
  0
SEQEND
  0
POLYLINE
  8
WHITE
 66
   1
 39
0.000000
 70
    0
  0
VERTEX
  8
0
 10
819.54865247
 20
171.06146740
  0
VERTEX
  8
0
 10
819.38441917
 20
168.27101784
  0
VERTEX
  8
0
 10
818.39901735
 20
165.97299995
  0
VERTEX
  8
0
 10
814.62163935
 20
166.30128707
  0
VERTEX
  8
0
 10
807.72382058
 20
169.58417034
  0
VERTEX
  8
0
 10
800.16906458
 20
173.52362784
  0
VERTEX
  8
0
 10
790.14912718
 20
179.92420920
  0
SEQEND
  0
POLYLINE
  8
WHITE
 66
   1
 39
0.000000
 70
    0
  0
VERTEX
  8
0
 10
622.45133502
 20
300.09118470
  0
VERTEX
  8
0
 10
615.55351625
 20
303.37406595
  0
VERTEX
  8
0
 10
615.22504763
 20
306.16347693
  0
VERTEX
  8
0
 10
615.71774955
 20
308.62563737
  0
VERTEX
  8
0
 10
617.68855520
 20
309.61050275
  0
VERTEX
  8
0
 10
623.27250353
 20
307.96906112
  0
SEQEND
  0
POLYLINE
  8
WHITE
 66
   1
 39
0.000000
 70
    0
  0
VERTEX
  8
0
 10
934.64638137
 20
189.57130930
  0
VERTEX
  8
0
 10
941.37996683
 20
188.91473305
  0
SEQEND
  0
POLYLINE
  8
WHITE
 66
   1
 39
0.000000
 70
    0
  0
VERTEX
  8
0
 10
804.15592383
 20
207.15134888
  0
VERTEX
  8
0
 10
796.43693655
 20
214.20850650
  0
SEQEND
  0
POLYLINE
  8
WHITE
 66
   1
 39
0.000000
 70
    0
  0
VERTEX
  8
0
 10
934.47544467
 20
126.32700914
  0
VERTEX
  8
0
 10
937.76179660
 20
119.59814065
  0
SEQEND
  0
POLYLINE
  8
WHITE
 66
   1
 39
0.000000
 70
    0
  0
VERTEX
  8
0
 10
864.50849340
 20
163.42253372
  0
VERTEX
  8
0
 10
859.41557113
 20
164.57154165
  0
VERTEX
  8
0
 10
856.78783027
 20
162.60181290
  0
VERTEX
  8
0
 10
856.95206357
 20
158.66235540
  0
SEQEND
  0
POLYLINE
  8
WHITE
 66
   1
 39
0.000000
 70
    0
  0
VERTEX
  8
0
 10
1000.90801618
 20
130.16777299
  0
VERTEX
  8
0
 10
991.71092315
 20
130.00362842
  0
VERTEX
  8
0
 10
963.13256638
 20
112.11296167
  0
VERTEX
  8
0
 10
961.16176073
 20
104.06990210
  0
VERTEX
  8
0
 10
965.10337203
 20
100.13044460
  0
SEQEND
  0
POLYLINE
  8
WHITE
 66
   1
 39
0.000000
 70
    0
  0
VERTEX
  8
0
 10
1052.39531303
 20
15.84557140
  0
VERTEX
  8
0
 10
1041.22741435
 20
16.31099387
  0
SEQEND
  0
POLYLINE
  8
WHITE
 66
   1
 39
0.000000
 70
    0
  0
VERTEX
  8
0
 10
1057.51504890
 20
47.93470284
  0
VERTEX
  8
0
 10
1063.09899925
 20
44.67883080
  0
SEQEND
  0
POLYLINE
  8
WHITE
 66
   1
 39
0.000000
 70
    0
  0
VERTEX
  8
0
 10
1022.14780362
 20
50.25972994
  0
VERTEX
  8
0
 10
1015.63207865
 20
48.39908470
  0
VERTEX
  8
0
 10
1012.84010448
 20
44.67883080
  0
VERTEX
  8
0
 10
1014.23609157
 20
29.33239879
  0
VERTEX
  8
0
 10
1017.02806573
 20
23.75149965
  0
SEQEND
  0
POLYLINE
  8
WHITE
 66
   1
 39
0.000000
 70
    0
  0
VERTEX
  8
0
 10
850.97261262
 20
221.97002730
  0
VERTEX
  8
0
 10
850.97261262
 20
217.20984898
  0
SEQEND
  0
POLYLINE
  8
WHITE
 66
   1
 39
0.000000
 70
    0
  0
VERTEX
  8
0
 10
848.50910505
 20
249.87348237
  0
VERTEX
  8
0
 10
854.42152200
 20
246.75474568
  0
VERTEX
  8
0
 10
854.91422392
 20
240.35312573
  0
SEQEND
  0
POLYLINE
  8
WHITE
 66
   1
 39
0.000000
 70
    0
  0
VERTEX
  8
0
 10
826.99280237
 20
252.99222107
  0
VERTEX
  8
0
 10
832.74098400
 20
254.14122900
  0
SEQEND
  0
POLYLINE
  8
WHITE
 66
   1
 39
0.000000
 70
    0
  0
VERTEX
  8
0
 10
911.41400223
 20
198.33431887
  0
VERTEX
  8
0
 10
917.16218588
 20
200.46819017
  0
VERTEX
  8
0
 10
918.96875622
 20
203.58692887
  0
VERTEX
  8
0
 10
918.64028962
 20
206.70566555
  0
SEQEND
  0
POLYLINE
  8
WHITE
 66
   1
 39
0.000000
 70
    0
  0
VERTEX
  8
0
 10
873.14417467
 20
236.90713850
  0
VERTEX
  8
0
 10
868.70986347
 20
237.72785932
  0
VERTEX
  8
0
 10
866.57482250
 20
235.26569888
  0
SEQEND
  0
POLYLINE
  8
WHITE
 66
   1
 39
0.000000
 70
    0
  0
VERTEX
  8
0
 10
862.96167982
 20
210.97341218
  0
VERTEX
  8
0
 10
863.94708163
 20
206.86981012
  0
VERTEX
  8
0
 10
865.75365398
 20
206.04908930
  0
VERTEX
  8
0
 10
873.80278573
 20
201.61720012
  0
SEQEND
  0
POLYLINE
  8
WHITE
 66
   1
 39
0.000000
 70
    0
  0
VERTEX
  8
0
 10
986.24763602
 20
143.39176014
  0
VERTEX
  8
0
 10
981.97755812
 20
138.79572639
  0
SEQEND
  0
POLYLINE
  8
WHITE
 66
   1
 39
0.000000
 70
    0
  0
VERTEX
  8
0
 10
984.60529697
 20
150.44891775
  0
VERTEX
  8
0
 10
977.87171150
 20
155.86567232
  0
VERTEX
  8
0
 10
973.76586690
 20
160.13341895
  0
VERTEX
  8
0
 10
967.52330750
 20
161.61071400
  0
SEQEND
  0
POLYLINE
  8
WHITE
 66
   1
 39
0.000000
 70
    0
  0
VERTEX
  8
0
 10
935.00333943
 20
147.16603449
  0
VERTEX
  8
0
 10
936.15297455
 20
152.25450194
  0
SEQEND
  0
POLYLINE
  8
WHITE
 66
   1
 39
0.000000
 70
    0
  0
VERTEX
  8
0
 10
798.46807280
 20
246.18959098
  0
VERTEX
  8
0
 10
787.79120018
 20
240.77387500
  0
VERTEX
  8
0
 10
779.57950897
 20
241.43045125
  0
SEQEND
  0
POLYLINE
  8
WHITE
 66
   1
 39
0.000000
 70
    0
  0
VERTEX
  8
0
 10
764.63255845
 20
275.57034312
  0
VERTEX
  8
0
 10
769.55957157
 20
277.04764018
  0
SEQEND
  0
POLYLINE
  8
WHITE
 66
   1
 39
0.000000
 70
    0
  0
VERTEX
  8
0
 10
761.84058227
 20
250.78562473
  0
VERTEX
  8
0
 10
759.21284140
 20
256.03823675
  0
SEQEND
  0
POLYLINE
  8
WHITE
 66
   1
 39
0.000000
 70
    0
  0
VERTEX
  8
0
 10
739.83157767
 20
263.26057550
  0
VERTEX
  8
0
 10
703.53423160
 20
283.61340470
  0
SEQEND
  0
POLYLINE
  8
WHITE
 66
   1
 39
0.000000
 70
    0
  0
VERTEX
  8
0
 10
748.04494473
 20
262.76814382
  0
VERTEX
  8
0
 10
749.85151507
 20
266.37931420
  0
VERTEX
  8
0
 10
752.80772455
 20
277.37592932
  0
SEQEND
  0
POLYLINE
  8
WHITE
 66
   1
 39
0.000000
 70
    0
  0
VERTEX
  8
0
 10
700.57802413
 20
286.07556513
  0
VERTEX
  8
0
 10
701.23495935
 20
289.68673552
  0
VERTEX
  8
0
 10
711.91015612
 20
295.75902775
  0
VERTEX
  8
0
 10
719.46491212
 20
295.75902775
  0
SEQEND
  0
POLYLINE
  8
WHITE
 66
   1
 39
0.000000
 70
    0
  0
VERTEX
  8
0
 10
1000.74043118
 20
34.43333125
  0
VERTEX
  8
0
 10
996.63458658
 20
32.46360250
  0
SEQEND
  0
POLYLINE
  8
WHITE
 66
   1
 39
0.000000
 70
    0
  0
VERTEX
  8
0
 10
943.09101573
 20
67.42421519
  0
VERTEX
  8
0
 10
937.50706538
 20
66.43934980
  0
VERTEX
  8
0
 10
936.68589687
 20
63.64994084
  0
SEQEND
  0
POLYLINE
  8
WHITE
 66
   1
 39
0.000000
 70
    0
  0
VERTEX
  8
0
 10
745.54121677
 20
203.69497380
  0
VERTEX
  8
0
 10
748.76221055
 20
204.92085908
  0
VERTEX
  8
0
 10
749.52807602
 20
207.98453673
  0
VERTEX
  8
0
 10
746.15457988
 20
212.73432518
  0
SEQEND
  0
POLYLINE
  8
WHITE
 66
   1
 39
0.000000
 70
    0
  0
VERTEX
  8
0
 10
637.92115477
 20
325.52832298
  0
VERTEX
  8
0
 10
634.14377677
 20
324.54345962
  0
VERTEX
  8
0
 10
632.17297112
 20
322.40958630
  0
VERTEX
  8
0
 10
631.68026920
 20
319.45499217
  0
VERTEX
  8
0
 10
631.84450250
 20
316.17211092
  0
VERTEX
  8
0
 10
633.32260825
 20
315.35139010
  0
VERTEX
  8
0
 10
673.72747477
 20
296.80414710
  0
SEQEND
  0
POLYLINE
  8
WHITE
 66
   1
 39
0.000000
 70
    0
  0
VERTEX
  8
0
 10
628.20454622
 20
273.46451962
  0
VERTEX
  8
0
 10
622.68428018
 20
281.27902632
  0
VERTEX
  8
0
 10
622.68428018
 20
284.80292948
  0
VERTEX
  8
0
 10
624.67687188
 20
286.18153088
  0
VERTEX
  8
0
 10
628.97041168
 20
285.41587313
  0
VERTEX
  8
0
 10
639.39590680
 20
280.66608267
  0
SEQEND
  0
POLYLINE
  8
WHITE
 66
   1
 39
0.000000
 70
    0
  0
VERTEX
  8
0
 10
805.08770047
 20
317.26086287
  0
VERTEX
  8
0
 10
828.94658082
 20
308.59076487
  0
VERTEX
  8
0
 10
840.57225525
 20
308.84276582
  0
SEQEND
  0
POLYLINE
  8
WHITE
 66
   1
 39
0.000000
 70
    0
  0
VERTEX
  8
0
 10
769.88971603
 20
410.12901627
  0
VERTEX
  8
0
 10
781.23022727
 20
405.59531567
  0
SEQEND
  0
POLYLINE
  8
WHITE
 66
   1
 39
0.000000
 70
    0
  0
VERTEX
  8
0
 10
760.81663590
 20
367.91074292
  0
VERTEX
  8
0
 10
791.72108053
 20
344.39346525
  0
SEQEND
  0
POLYLINE
  8
WHITE
 66
   1
 39
0.000000
 70
    0
  0
VERTEX
  8
0
 10
1024.01805827
 20
407.49440058
  0
VERTEX
  8
0
 10
989.96635927
 20
408.56860833
  0
VERTEX
  8
0
 10
966.82250269
 20
403.54057171
  0
SEQEND
  0
POLYLINE
  8
WHITE
 66
   1
 39
0.000000
 70
    0
  0
VERTEX
  8
0
 10
910.82410102
 20
386.69796723
  0
VERTEX
  8
0
 10
900.07013930
 20
386.33955112
  0
SEQEND
  0
POLYLINE
  8
WHITE
 66
   1
 39
0.000000
 70
    0
  0
VERTEX
  8
0
 10
938.60139947
 20
412.84674282
  0
VERTEX
  8
0
 10
893.61809663
 20
412.84674282
  0
VERTEX
  8
0
 10
887.88332180
 20
411.59280772
  0
SEQEND
  0
POLYLINE
  8
WHITE
 66
   1
 39
0.000000
 70
    0
  0
VERTEX
  8
0
 10
888.95921952
 20
393.32502430
  0
VERTEX
  8
0
 10
885.73319818
 20
402.10050090
  0
SEQEND
  0
POLYLINE
  8
WHITE
 66
   1
 39
0.000000
 70
    0
  0
VERTEX
  8
0
 10
933.07610588
 20
301.14253757
  0
VERTEX
  8
0
 10
915.15451153
 20
315.64955023
  0
SEQEND
  0
POLYLINE
  8
WHITE
 66
   1
 39
0.000000
 70
    0
  0
VERTEX
  8
0
 10
944.18870152
 20
334.09706100
  0
VERTEX
  8
0
 10
956.19620307
 20
310.27642827
  0
SEQEND
  0
POLYLINE
  8
WHITE
 66
   1
 39
0.000000
 70
    0
  0
VERTEX
  8
0
 10
916.58904317
 20
325.67896193
  0
VERTEX
  8
0
 10
938.45392467
 20
336.78258138
  0
SEQEND
  0
POLYLINE
  8
WHITE
 66
   1
 39
0.000000
 70
    0
  0
VERTEX
  8
0
 10
779.52923347
 20
329.94255222
  0
VERTEX
  8
0
 10
774.42625408
 20
330.22616815
  0
SEQEND
  0
POLYLINE
  8
WHITE
 66
   1
 39
0.000000
 70
    0
  0
VERTEX
  8
0
 10
776.97690585
 20
338.72633950
  0
VERTEX
  8
0
 10
780.66378795
 20
335.89329592
  0
SEQEND
  0
POLYLINE
  8
WHITE
 66
   1
 39
0.000000
 70
    0
  0
VERTEX
  8
0
 10
743.80503012
 20
361.39380593
  0
VERTEX
  8
0
 10
751.17711645
 20
357.99353048
  0
SEQEND
  0
POLYLINE
  8
WHITE
 66
   1
 39
0.000000
 70
    0
  0
VERTEX
  8
0
 10
915.69246140
 20
300.60439410
  0
VERTEX
  8
0
 10
899.56235473
 20
311.88774292
  0
SEQEND
  0
POLYLINE
  8
WHITE
 66
   1
 39
0.000000
 70
    0
  0
VERTEX
  8
0
 10
890.60155857
 20
312.24615702
  0
VERTEX
  8
0
 10
871.24710642
 20
304.90330832
  0
SEQEND
  0
POLYLINE
  8
WHITE
 66
   1
 39
0.000000
 70
    0
  0
VERTEX
  8
0
 10
614.01675575
 20
383.53767512
  0
VERTEX
  8
0
 10
614.01675575
 20
387.22156650
  0
VERTEX
  8
0
 10
612.59898262
 20
389.20480087
  0
VERTEX
  8
0
 10
606.64466942
 20
390.05461008
  0
VERTEX
  8
0
 10
583.39553178
 20
390.62184195
  0
SEQEND
  0
POLYLINE
  8
WHITE
 66
   1
 39
0.000000
 70
    0
  0
VERTEX
  8
0
 10
954.08217588
 20
341.16390415
  0
VERTEX
  8
0
 10
966.46751797
 20
318.75789907
  0
SEQEND
  0
POLYLINE
  8
WHITE
 66
   1
 39
0.000000
 70
    0
  0
VERTEX
  8
0
 10
960.77822020
 20
353.31704046
  0
VERTEX
  8
0
 10
955.41182321
 20
348.66014304
  0
SEQEND
  0
POLYLINE
  8
WHITE
 66
   1
 39
0.000000
 70
    0
  0
VERTEX
  8
0
 10
994.42580822
 20
346.33930053
  0
VERTEX
  8
0
 10
968.59869783
 20
354.88303378
  0
SEQEND
  0
POLYLINE
  8
WHITE
 66
   1
 39
0.000000
 70
    0
  0
VERTEX
  8
0
 10
1009.01286006
 20
372.37763726
  0
VERTEX
  8
0
 10
1007.15057558
 20
362.45866442
  0
SEQEND
  0
POLYLINE
  8
WHITE
 66
   1
 39
0.000000
 70
    0
  0
VERTEX
  8
0
 10
1009.39105657
 20
379.58123659
  0
VERTEX
  8
0
 10
1009.17908956
 20
373.86464494
  0
SEQEND
  0
POLYLINE
  8
WHITE
 66
   1
 39
0.000000
 70
    0
  0
VERTEX
  8
0
 10
999.73328744
 20
385.18429406
  0
VERTEX
  8
0
 10
1006.27636982
 20
383.65865681
  0
SEQEND
  0
POLYLINE
  8
WHITE
 66
   1
 39
0.000000
 70
    0
  0
VERTEX
  8
0
 10
973.09887658
 20
378.03988685
  0
VERTEX
  8
0
 10
997.70019591
 20
385.13183819
  0
SEQEND
  0
POLYLINE
  8
CYAN
 66
   1
 39
0.000000
 70
    0
  0
VERTEX
  8
0
 10
628.20454622
 20
605.58182675
 42
-0.05202749
  0
VERTEX
  8
0
 10
673.12751845
 20
631.16960398
 42
-0.26472673
  0
VERTEX
  8
0
 10
679.34502803
 20
627.20261100
 42
-0.26472673
  0
VERTEX
  8
0
 10
679.10696940
 20
619.83119412
  0
VERTEX
  8
0
 10
639.39590680
 20
598.38026370
  0
SEQEND
  0
POLYLINE
  8
CYAN
 66
   1
 39
0.000000
 70
    0
  0
VERTEX
  8
0
 10
745.54121677
 20
675.35137257
  0
VERTEX
  8
0
 10
686.97343350
 20
640.26401642
 42
0.26685055
  0
VERTEX
  8
0
 10
690.07022258
 20
632.16643203
 42
0.26685055
  0
VERTEX
  8
0
 10
698.62565283
 20
630.76443750
 42
0.07035837
  0
VERTEX
  8
0
 10
746.15457988
 20
666.31202118
  0
SEQEND
  0
POLYLINE
  8
CYAN
 66
   1
 39
0.000000
 70
    0
  0
VERTEX
  8
0
 10
622.45133502
 20
578.95516167
 42
0.14212411
  0
VERTEX
  8
0
 10
790.14912718
 20
699.12213717
  0
SEQEND
  0
POLYLINE
  8
CYAN
 66
   1
 39
0.000000
 70
    0
  0
VERTEX
  8
0
 10
623.27250353
 20
571.07728525
 42
0.15031000
  0
VERTEX
  8
0
 10
819.54865247
 20
707.98487897
  0
SEQEND
  0
POLYLINE
  8
CYAN
 66
   1
 39
0.000000
 70
    0
  0
VERTEX
  8
0
 10
637.92115477
 20
553.51802338
 42
-0.01275446
  0
VERTEX
  8
0
 10
692.77859403
 20
573.21531290
 42
0.26409587
  0
VERTEX
  8
0
 10
695.65213493
 20
575.59870263
 42
0.26409587
  0
VERTEX
  8
0
 10
695.07786830
 20
579.28760513
 42
0.20654798
  0
VERTEX
  8
0
 10
685.04013238
 20
585.37130135
 42
0.20654798
  0
VERTEX
  8
0
 10
673.72747477
 20
582.24219927
  0
SEQEND
  0
POLYLINE
  8
CYAN
 66
   1
 39
0.000000
 70
    0
  0
VERTEX
  8
0
 10
748.04494473
 20
616.27820255
 42
0.26142297
  0
VERTEX
  8
0
 10
739.83157767
 20
615.78577087
  0
SEQEND
  0
POLYLINE
  8
CYAN
 66
   1
 39
0.000000
 70
    0
  0
VERTEX
  8
0
 10
700.57802413
 20
592.97078123
  0
VERTEX
  8
0
 10
703.53423160
 20
595.43294167
  0
SEQEND
  0
POLYLINE
  8
CYAN
 66
   1
 39
0.000000
 70
    0
  0
VERTEX
  8
0
 10
752.80772455
 20
601.67041705
 42
-0.24482629
  0
VERTEX
  8
0
 10
748.53764463
 20
593.95564662
  0
VERTEX
  8
0
 10
719.46491212
 20
583.28731862
  0
SEQEND
  0
POLYLINE
  8
CYAN
 66
   1
 39
0.000000
 70
    0
  0
VERTEX
  8
0
 10
761.84058227
 20
628.26072163
  0
VERTEX
  8
0
 10
779.57950897
 20
637.61589512
  0
SEQEND
  0
POLYLINE
  8
CYAN
 66
   1
 39
0.000000
 70
    0
  0
VERTEX
  8
0
 10
764.63255845
 20
603.47600325
  0
VERTEX
  8
0
 10
759.21284140
 20
623.00810962
  0
SEQEND
  0
POLYLINE
  8
CYAN
 66
   1
 39
0.000000
 70
    0
  0
VERTEX
  8
0
 10
798.46807280
 20
632.85675538
 42
-0.03744590
  0
VERTEX
  8
0
 10
810.78560660
 20
621.53081255
 42
-0.20238871
  0
VERTEX
  8
0
 10
810.59426853
 20
616.71213228
 42
-0.20238871
  0
VERTEX
  8
0
 10
807.00823062
 20
613.48775298
  0
VERTEX
  8
0
 10
769.55957157
 20
601.99870618
  0
SEQEND
  0
POLYLINE
  8
CYAN
 66
   1
 39
0.000000
 70
    0
  0
VERTEX
  8
0
 10
850.97261262
 20
661.83649738
 42
0.39320880
  0
VERTEX
  8
0
 10
844.89428652
 20
666.10320543
 42
0.07701319
  0
VERTEX
  8
0
 10
806.29766820
 20
649.52569118
 42
0.30950339
  0
VERTEX
  8
0
 10
804.16262723
 20
642.13920787
  0
VERTEX
  8
0
 10
826.99280237
 20
626.05412530
  0
SEQEND
  0
POLYLINE
  8
CYAN
 66
   1
 39
0.000000
 70
    0
  0
VERTEX
  8
0
 10
854.91422392
 20
638.69322063
  0
VERTEX
  8
0
 10
850.97261262
 20
657.07631907
  0
SEQEND
  0
POLYLINE
  8
CYAN
 66
   1
 39
0.000000
 70
    0
  0
VERTEX
  8
0
 10
832.74098400
 20
624.90511737
  0
VERTEX
  8
0
 10
848.50910505
 20
629.17286400
  0
SEQEND
  0
POLYLINE
  8
CYAN
 66
   1
 39
0.000000
 70
    0
  0
VERTEX
  8
0
 10
911.41400223
 20
680.71202750
 42
0.08663904
  0
VERTEX
  8
0
 10
873.80278573
 20
677.42914625
  0
SEQEND
  0
POLYLINE
  8
CYAN
 66
   1
 39
0.000000
 70
    0
  0
VERTEX
  8
0
 10
862.96167982
 20
668.07293418
  0
VERTEX
  8
0
 10
866.57482250
 20
643.78064748
  0
SEQEND
  0
POLYLINE
  8
CYAN
 66
   1
 39
0.000000
 70
    0
  0
VERTEX
  8
0
 10
873.14417467
 20
642.13920787
  0
VERTEX
  8
0
 10
918.64028962
 20
672.34068082
  0
SEQEND
  0
POLYLINE
  8
CYAN
 66
   1
 39
0.000000
 70
    0
  0
VERTEX
  8
0
 10
934.64638137
 20
689.47503707
 42
0.20205904
  0
VERTEX
  8
0
 10
801.85665158
 20
659.91351900
 42
-0.31429620
  0
VERTEX
  8
0
 10
797.42945654
 20
660.48557514
 42
-0.31429620
  0
VERTEX
  8
0
 10
796.43693655
 20
664.83783987
  0
SEQEND
  0
POLYLINE
  8
CYAN
 66
   1
 39
0.000000
 70
    0
  0
VERTEX
  8
0
 10
804.15592383
 20
671.89499748
 42
-0.16942055
  0
VERTEX
  8
0
 10
931.36170528
 20
713.76732175
  0
VERTEX
  8
0
 10
953.20647658
 20
709.82786425
 42
-0.28760615
  0
VERTEX
  8
0
 10
957.24016823
 20
704.12517371
 42
-0.28760615
  0
VERTEX
  8
0
 10
953.86341180
 20
698.01053033
  0
VERTEX
  8
0
 10
941.37996683
 20
690.13161332
  0
SEQEND
  0
POLYLINE
  8
CYAN
 66
   1
 39
0.000000
 70
    0
  0
VERTEX
  8
0
 10
1040.49171418
 20
816.66696402
 42
0.22083921
  0
VERTEX
  8
0
 10
831.08356432
 20
723.98892783
  0
SEQEND
  0
POLYLINE
  8
CYAN
 66
   1
 39
0.000000
 70
    0
  0
VERTEX
  8
0
 10
839.95218873
 20
721.03433370
 42
-0.22943860
  0
VERTEX
  8
0
 10
1039.01361045
 20
796.31413683
  0
VERTEX
  8
0
 10
1050.34574243
 20
807.31179053
 42
0.23459843
  0
VERTEX
  8
0
 10
1051.89031854
 20
811.65951151
 42
0.23459843
  0
VERTEX
  8
0
 10
1049.36033860
 20
815.51795608
  0
SEQEND
  0
POLYLINE
  8
CYAN
 66
   1
 39
0.000000
 70
    0
  0
VERTEX
  8
0
 10
829.60378473
 20
719.72118120
 42
0.30545694
  0
VERTEX
  8
0
 10
830.90852305
 20
716.69411571
 42
0.30545694
  0
VERTEX
  8
0
 10
834.20400710
 20
716.76658908
  0
SEQEND
  0
POLYLINE
  8
CYAN
 66
   1
 39
0.000000
 70
    0
  0
VERTEX
  8
0
 10
856.95206357
 20
720.38399097
 42
-0.07704206
  0
VERTEX
  8
0
 10
929.38419623
 20
766.01397023
 42
-0.28238626
  0
VERTEX
  8
0
 10
935.58773757
 20
765.30180098
 42
-0.28238626
  0
VERTEX
  8
0
 10
937.76179660
 20
759.44820572
  0
SEQEND
  0
POLYLINE
  8
CYAN
 66
   1
 39
0.000000
 70
    0
  0
VERTEX
  8
0
 10
864.50849340
 20
715.62381265
 42
-0.03864693
  0
VERTEX
  8
0
 10
912.79658252
 20
725.96489010
 42
0.19626861
  0
VERTEX
  8
0
 10
922.81484407
 20
733.67862397
  0
VERTEX
  8
0
 10
934.47544467
 20
752.71933723
  0
SEQEND
  0
POLYLINE
  8
CYAN
 66
   1
 39
0.000000
 70
    0
  0
VERTEX
  8
0
 10
981.97755812
 20
740.25061998
  0
VERTEX
  8
0
 10
961.61089055
 20
753.05385988
 42
0.22240731
  0
VERTEX
  8
0
 10
953.61116705
 20
754.99662105
 42
0.22240731
  0
VERTEX
  8
0
 10
946.99408248
 20
750.09926575
  0
VERTEX
  8
0
 10
935.00333943
 20
731.88031188
  0
SEQEND
  0
POLYLINE
  8
CYAN
 66
   1
 39
0.000000
 70
    0
  0
VERTEX
  8
0
 10
967.52330750
 20
717.43563237
  0
VERTEX
  8
0
 10
936.15297455
 20
726.79184443
  0
SEQEND
  0
POLYLINE
  8
CYAN
 66
   1
 39
0.000000
 70
    0
  0
VERTEX
  8
0
 10
984.60529697
 20
728.59742862
 42
0.38555602
  0
VERTEX
  8
0
 10
986.24763602
 20
735.65458623
  0
SEQEND
  0
POLYLINE
  8
CYAN
 66
   1
 39
0.000000
 70
    0
  0
VERTEX
  8
0
 10
1000.90801618
 20
748.87857338
  0
VERTEX
  8
0
 10
1026.20169687
 20
774.97644427
 42
0.34582059
  0
VERTEX
  8
0
 10
1022.26008557
 20
783.67608008
 42
0.08144652
  0
VERTEX
  8
0
 10
965.10337203
 20
778.91590177
  0
SEQEND
  0
POLYLINE
  8
CYAN
 66
   1
 39
0.000000
 70
    0
  0
VERTEX
  8
0
 10
996.63458658
 20
846.58274387
 42
0.07667446
  0
VERTEX
  8
0
 10
936.68589687
 20
815.39640553
  0
SEQEND
  0
POLYLINE
  8
CYAN
 66
   1
 39
0.000000
 70
    0
  0
VERTEX
  8
0
 10
943.09101573
 20
811.62213118
 42
-0.06902700
  0
VERTEX
  8
0
 10
996.63458658
 20
825.40919587
 42
0.18719413
  0
VERTEX
  8
0
 10
1001.23313310
 20
831.48252668
  0
VERTEX
  8
0
 10
1000.74043118
 20
844.61301512
  0
SEQEND
  0
POLYLINE
  8
CYAN
 66
   1
 39
0.000000
 70
    0
  0
VERTEX
  8
0
 10
1063.09899925
 20
834.36751557
 42
0.41971520
  0
VERTEX
  8
0
 10
1052.39531303
 20
863.20077497
  0
SEQEND
  0
POLYLINE
  8
CYAN
 66
   1
 39
0.000000
 70
    0
  0
VERTEX
  8
0
 10
1041.22741435
 20
862.73535250
  0
VERTEX
  8
0
 10
1017.02806573
 20
855.29484672
  0
SEQEND
  0
POLYLINE
  8
CYAN
 66
   1
 39
0.000000
 70
    0
  0
VERTEX
  8
0
 10
1022.14780362
 20
828.78661643
  0
VERTEX
  8
0
 10
1057.51504890
 20
831.11164353
  0
SEQEND
  0
POLYLINE
  8
CYAN
 66
   1
 39
0.000000
 70
    0
  0
VERTEX
  8
0
 10
614.01675575
 20
495.50867125
 42
0.10719547
  0
VERTEX
  8
0
 10
601.54169205
 20
505.99207697
 42
0.14263903
  0
VERTEX
  8
0
 10
583.67875245
 20
501.74199230
  0
VERTEX
  8
0
 10
583.39553178
 20
488.42450442
  0
SEQEND
  0
POLYLINE
  8
CYAN
 66
   1
 39
0.000000
 70
    0
  0
VERTEX
  8
0
 10
751.17711645
 20
521.05281588
 42
0.03371772
  0
VERTEX
  8
0
 10
776.97690585
 20
540.32000687
  0
SEQEND
  0
POLYLINE
  8
CYAN
 66
   1
 39
0.000000
 70
    0
  0
VERTEX
  8
0
 10
780.66378795
 20
543.15305045
 42
0.26825136
  0
VERTEX
  8
0
 10
781.81657986
 20
546.45636655
 42
0.26825136
  0
VERTEX
  8
0
 10
779.52923347
 20
549.10379415
  0
SEQEND
  0
POLYLINE
  8
CYAN
 66
   1
 39
0.000000
 70
    0
  0
VERTEX
  8
0
 10
791.72108053
 20
534.65288112
 42
-0.16538136
  0
VERTEX
  8
0
 10
804.19614423
 20
539.75277500
 42
-0.07120410
  0
VERTEX
  8
0
 10
872.52745985
 20
531.25260567
 42
-0.30073852
  0
VERTEX
  8
0
 10
875.01105826
 20
527.80468549
 42
-0.30073852
  0
VERTEX
  8
0
 10
872.81068052
 20
524.16947540
 42
0.08316618
  0
VERTEX
  8
0
 10
765.63639462
 20
501.21839303
 42
-0.33770767
  0
VERTEX
  8
0
 10
759.44627405
 20
504.33980313
 42
-0.33770767
  0
VERTEX
  8
0
 10
760.81663590
 20
511.13560345
  0
SEQEND
  0
POLYLINE
  8
CYAN
 66
   1
 39
0.000000
 70
    0
  0
VERTEX
  8
0
 10
774.42625408
 20
548.82017822
 42
-0.06852291
  0
VERTEX
  8
0
 10
727.07664500
 20
531.53622160
 42
0.19305594
  0
VERTEX
  8
0
 10
721.68877112
 20
527.00251898
  0
VERTEX
  8
0
 10
732.74606370
 20
516.23549935
 42
0.21024424
  0
VERTEX
  8
0
 10
743.80503012
 20
517.65254043
  0
SEQEND
  0
POLYLINE
  8
CYAN
 66
   1
 39
0.000000
 70
    0
  0
VERTEX
  8
0
 10
781.23022727
 20
473.45103070
 42
-0.09921435
  0
VERTEX
  8
0
 10
891.80649673
 20
503.76885927
 42
0.31813437
  0
VERTEX
  8
0
 10
895.06787454
 20
510.17935486
 42
0.31813437
  0
VERTEX
  8
0
 10
890.10550495
 20
515.38569013
 42
0.09221194
  0
VERTEX
  8
0
 10
732.17962438
 20
471.46779633
 42
0.26048258
  0
VERTEX
  8
0
 10
732.40591693
 20
466.87896005
 42
0.26048258
  0
VERTEX
  8
0
 10
736.43294378
 20
464.66724543
 42
0.10598130
  0
VERTEX
  8
0
 10
769.88971603
 20
468.91733010
  0
SEQEND
  0
POLYLINE
  8
CYAN
 66
   1
 39
0.000000
 70
    0
  0
VERTEX
  8
0
 10
910.82410102
 20
492.34837913
 42
-0.00443416
  0
VERTEX
  8
0
 10
944.87412618
 20
474.79638937
 42
-0.37120392
  0
VERTEX
  8
0
 10
945.43891374
 20
467.79741641
 42
-0.37120392
  0
VERTEX
  8
0
 10
938.60139947
 20
466.19960355
  0
SEQEND
  0
POLYLINE
  8
CYAN
 66
   1
 39
0.000000
 70
    0
  0
VERTEX
  8
0
 10
885.73319818
 20
476.94584547
 42
0.20727355
  0
VERTEX
  8
0
 10
884.75243277
 20
471.73402204
 42
0.20727355
  0
VERTEX
  8
0
 10
887.88332180
 20
467.45353865
  0
SEQEND
  0
POLYLINE
  8
CYAN
 66
   1
 39
0.000000
 70
    0
  0
VERTEX
  8
0
 10
900.07013930
 20
492.70679525
 42
0.33655764
  0
VERTEX
  8
0
 10
888.95921952
 20
485.72132207
  0
SEQEND
  0
POLYLINE
  8
CYAN
 66
   1
 39
0.000000
 70
    0
  0
VERTEX
  8
0
 10
1024.01805827
 20
471.55194578
 42
0.25380560
  0
VERTEX
  8
0
 10
1026.83967649
 20
475.46912441
 42
0.25380560
  0
VERTEX
  8
0
 10
1025.09395800
 20
479.97004485
 42
-0.06825163
  0
VERTEX
  8
0
 10
976.70531788
 20
487.13420680
 42
-0.06498651
  0
VERTEX
  8
0
 10
912.43627477
 20
513.48244887
 42
0.37107599
  0
VERTEX
  8
0
 10
908.62411858
 20
510.68348146
 42
0.37107599
  0
VERTEX
  8
0
 10
910.82410102
 20
506.49697568
  0
VERTEX
  8
0
 10
966.82250269
 20
475.50577466
  0
SEQEND
  0
POLYLINE
  8
CYAN
 66
   1
 39
0.000000
 70
    0
  0
VERTEX
  8
0
 10
840.57225525
 20
570.20358055
 42
-0.10015556
  0
VERTEX
  8
0
 10
949.89666275
 20
517.54761327
 42
-0.23054239
  0
VERTEX
  8
0
 10
952.06734506
 20
514.18903806
 42
-0.23054239
  0
VERTEX
  8
0
 10
950.76183324
 20
510.40915341
 42
-0.23054239
  0
VERTEX
  8
0
 10
946.98109960
 20
509.10610227
 42
-0.23054239
  0
VERTEX
  8
0
 10
943.62393805
 20
511.27897030
 42
0.12109699
  0
VERTEX
  8
0
 10
804.54975060
 20
553.18869567
 42
-0.27292200
  0
VERTEX
  8
0
 10
802.28364384
 20
557.64572405
 42
-0.27292200
  0
VERTEX
  8
0
 10
805.08770047
 20
561.78548350
  0
SEQEND
  0
POLYLINE
  8
CYAN
 66
   1
 39
0.000000
 70
    0
  0
VERTEX
  8
0
 10
915.69246140
 20
578.44195227
 42
0.26929713
  0
VERTEX
  8
0
 10
915.99438389
 20
583.29560561
 42
0.26929713
  0
VERTEX
  8
0
 10
911.92849020
 20
585.96349175
 42
0.07760588
  0
VERTEX
  8
0
 10
870.70915857
 20
581.84430488
 42
0.35959938
  0
VERTEX
  8
0
 10
867.79746397
 20
577.77149584
 42
0.35959938
  0
VERTEX
  8
0
 10
871.24710642
 20
574.14303805
  0
SEQEND
  0
POLYLINE
  8
CYAN
 66
   1
 39
0.000000
 70
    0
  0
VERTEX
  8
0
 10
890.60155857
 20
566.80018935
 42
0.24130899
  0
VERTEX
  8
0
 10
899.56235473
 20
567.15860345
  0
SEQEND
  0
POLYLINE
  8
CYAN
 66
   1
 39
0.000000
 70
    0
  0
VERTEX
  8
0
 10
933.07610588
 20
577.90380880
 42
-0.20521430
  0
VERTEX
  8
0
 10
941.67994600
 20
578.97905715
 42
-0.12964597
  0
VERTEX
  8
0
 10
954.58235347
 20
574.85987028
 42
-0.36726450
  0
VERTEX
  8
0
 10
956.19620307
 20
568.76991810
  0
SEQEND
  0
POLYLINE
  8
CYAN
 66
   1
 39
0.000000
 70
    0
  0
VERTEX
  8
0
 10
938.45392467
 20
542.26376498
 42
0.34038786
  0
VERTEX
  8
0
 10
944.18870152
 20
544.94928537
  0
SEQEND
  0
POLYLINE
  8
CYAN
 66
   1
 39
0.000000
 70
    0
  0
VERTEX
  8
0
 10
915.15451153
 20
563.39679613
 42
0.25645386
  0
VERTEX
  8
0
 10
913.11862507
 20
557.98830008
 42
0.25645386
  0
VERTEX
  8
0
 10
916.58904317
 20
553.36738443
  0
SEQEND
  0
POLYLINE
  8
CYAN
 66
   1
 39
0.000000
 70
    0
  0
VERTEX
  8
0
 10
966.46751797
 20
560.28844730
 42
-0.23144215
  0
VERTEX
  8
0
 10
972.57324620
 20
564.60645495
 42
-0.23144215
  0
VERTEX
  8
0
 10
979.73023520
 20
562.43790340
  0
VERTEX
  8
0
 10
996.75524778
 20
541.84093653
 42
-0.25651587
  0
VERTEX
  8
0
 10
998.09854439
 20
536.63436533
 42
-0.25651587
  0
VERTEX
  8
0
 10
994.42580822
 20
532.70704583
  0
SEQEND
  0
POLYLINE
  8
CYAN
 66
   1
 39
0.000000
 70
    0
  0
VERTEX
  8
0
 10
954.08217588
 20
537.88244222
 42
0.35402716
  0
VERTEX
  8
0
 10
955.41182321
 20
530.38620333
  0
SEQEND
  0
POLYLINE
  8
CYAN
 66
   1
 39
0.000000
 70
    0
  0
VERTEX
  8
0
 10
960.77822020
 20
525.72930591
 42
0.26447064
  0
VERTEX
  8
0
 10
968.59869783
 20
524.16331258
  0
SEQEND
  0
POLYLINE
  8
CYAN
 66
   1
 39
0.000000
 70
    0
  0
VERTEX
  8
0
 10
973.09887658
 20
501.00645952
 42
-0.35392015
  0
VERTEX
  8
0
 10
967.72301389
 20
506.73313630
 42
-0.35392015
  0
VERTEX
  8
0
 10
972.20229482
 20
513.18532732
  0
VERTEX
  8
0
 10
999.62263520
 20
520.16976192
 42
-0.32713712
  0
VERTEX
  8
0
 10
1007.15057558
 20
516.58768195
  0
SEQEND
  0
POLYLINE
  8
CYAN
 66
   1
 39
0.000000
 70
    0
  0
VERTEX
  8
0
 10
1009.17908956
 20
505.18170143
 42
0.03714880
  0
VERTEX
  8
0
 10
1009.01286006
 20
506.66870910
  0
SEQEND
  0
POLYLINE
  8
CYAN
 66
   1
 39
0.000000
 70
    0
  0
VERTEX
  8
0
 10
1006.27636982
 20
495.38768956
 42
0.35902918
  0
VERTEX
  8
0
 10
1009.39105657
 20
499.46510978
  0
SEQEND
  0
POLYLINE
  8
CYAN
 66
   1
 39
0.000000
 70
    0
  0
VERTEX
  8
0
 10
997.70019591
 20
493.91450818
 42
0.12812956
  0
VERTEX
  8
0
 10
999.73328744
 20
493.86205231
  0
SEQEND
  0
POLYLINE
  8
CYAN
 66
   1
 39
0.000000
 70
    0
  0
VERTEX
  8
0
 10
488.47399490
 20
740.24438647
 42
0.05714337
  0
VERTEX
  8
0
 10
486.37079509
 20
727.25207197
 42
0.04872741
  0
VERTEX
  8
0
 10
488.85608870
 20
690.95129555
  0
SEQEND
  0
POLYLINE
  8
CYAN
 66
   1
 39
0.000000
 70
    0
  0
VERTEX
  8
0
 10
489.04713560
 20
681.58988855
 42
-0.40519383
  0
VERTEX
  8
0
 10
468.78269690
 20
669.17103742
 42
-0.30623135
  0
VERTEX
  8
0
 10
439.91441607
 20
712.15912688
 42
-0.30267762
  0
VERTEX
  8
0
 10
466.67949910
 20
759.54066787
 42
-0.21375950
  0
VERTEX
  8
0
 10
479.42989730
 20
759.51785312
 42
-0.21375950
  0
VERTEX
  8
0
 10
487.90085219
 20
749.98810507
  0
SEQEND
  0
POLYLINE
  8
CYAN
 66
   1
 39
0.000000
 70
    0
  0
VERTEX
  8
0
 10
639.39590680
 20
280.66608267
  0
VERTEX
  8
0
 10
679.10696940
 20
259.21515225
 42
-0.26472673
  0
VERTEX
  8
0
 10
679.34502803
 20
251.84373537
 42
-0.26472673
  0
VERTEX
  8
0
 10
673.12751845
 20
247.87674238
 42
-0.05202749
  0
VERTEX
  8
0
 10
628.20454622
 20
273.46451962
  0
SEQEND
  0
POLYLINE
  8
CYAN
 66
   1
 39
0.000000
 70
    0
  0
VERTEX
  8
0
 10
746.15457988
 20
212.73432519
 42
0.07035837
  0
VERTEX
  8
0
 10
698.62565283
 20
248.28190887
 42
0.26685055
  0
VERTEX
  8
0
 10
690.07022258
 20
246.87991434
 42
0.26685055
  0
VERTEX
  8
0
 10
686.97343350
 20
238.78232995
  0
VERTEX
  8
0
 10
745.54121677
 20
203.69497380
  0
SEQEND
  0
POLYLINE
  8
CYAN
 66
   1
 39
0.000000
 70
    0
  0
VERTEX
  8
0
 10
790.14912718
 20
179.92420920
 42
0.14212411
  0
VERTEX
  8
0
 10
622.45133502
 20
300.09118470
  0
SEQEND
  0
POLYLINE
  8
CYAN
 66
   1
 39
0.000000
 70
    0
  0
VERTEX
  8
0
 10
819.54865247
 20
171.06146740
 42
0.15031000
  0
VERTEX
  8
0
 10
623.27250353
 20
307.96906112
  0
SEQEND
  0
POLYLINE
  8
CYAN
 66
   1
 39
0.000000
 70
    0
  0
VERTEX
  8
0
 10
673.72747477
 20
296.80414710
 42
0.20654798
  0
VERTEX
  8
0
 10
685.04013238
 20
293.67504502
 42
0.20654798
  0
VERTEX
  8
0
 10
695.07786830
 20
299.75874123
 42
0.26409587
  0
VERTEX
  8
0
 10
695.65213493
 20
303.44764374
 42
0.26409587
  0
VERTEX
  8
0
 10
692.77859403
 20
305.83103347
 42
-0.01275446
  0
VERTEX
  8
0
 10
637.92115477
 20
325.52832299
  0
SEQEND
  0
POLYLINE
  8
CYAN
 66
   1
 39
0.000000
 70
    0
  0
VERTEX
  8
0
 10
739.83157767
 20
263.26057550
 42
0.26142297
  0
VERTEX
  8
0
 10
748.04494473
 20
262.76814382
  0
SEQEND
  0
POLYLINE
  8
CYAN
 66
   1
 39
0.000000
 70
    0
  0
VERTEX
  8
0
 10
703.53423160
 20
283.61340470
  0
VERTEX
  8
0
 10
700.57802413
 20
286.07556513
  0
SEQEND
  0
POLYLINE
  8
CYAN
 66
   1
 39
0.000000
 70
    0
  0
VERTEX
  8
0
 10
719.46491212
 20
295.75902775
  0
VERTEX
  8
0
 10
748.53764463
 20
285.09069975
 42
-0.24482629
  0
VERTEX
  8
0
 10
752.80772455
 20
277.37592932
  0
SEQEND
  0
POLYLINE
  8
CYAN
 66
   1
 39
0.000000
 70
    0
  0
VERTEX
  8
0
 10
779.57950897
 20
241.43045125
  0
VERTEX
  8
0
 10
761.84058227
 20
250.78562473
  0
SEQEND
  0
POLYLINE
  8
CYAN
 66
   1
 39
0.000000
 70
    0
  0
VERTEX
  8
0
 10
759.21284140
 20
256.03823675
  0
VERTEX
  8
0
 10
764.63255845
 20
275.57034312
  0
SEQEND
  0
POLYLINE
  8
CYAN
 66
   1
 39
0.000000
 70
    0
  0
VERTEX
  8
0
 10
769.55957157
 20
277.04764018
  0
VERTEX
  8
0
 10
807.00823062
 20
265.55859338
 42
-0.20238871
  0
VERTEX
  8
0
 10
810.59426853
 20
262.33421409
 42
-0.20238871
  0
VERTEX
  8
0
 10
810.78560660
 20
257.51553382
 42
-0.03744590
  0
VERTEX
  8
0
 10
798.46807280
 20
246.18959098
  0
SEQEND
  0
POLYLINE
  8
CYAN
 66
   1
 39
0.000000
 70
    0
  0
VERTEX
  8
0
 10
850.97261262
 20
217.20984899
 42
-0.39320880
  0
VERTEX
  8
0
 10
844.89428652
 20
212.94314094
 42
-0.07701319
  0
VERTEX
  8
0
 10
806.29766820
 20
229.52065518
 42
-0.30950339
  0
VERTEX
  8
0
 10
804.16262723
 20
236.90713850
  0
VERTEX
  8
0
 10
826.99280237
 20
252.99222107
  0
SEQEND
  0
POLYLINE
  8
CYAN
 66
   1
 39
0.000000
 70
    0
  0
VERTEX
  8
0
 10
854.91422392
 20
240.35312573
  0
VERTEX
  8
0
 10
850.97261262
 20
221.97002730
  0
SEQEND
  0
POLYLINE
  8
CYAN
 66
   1
 39
0.000000
 70
    0
  0
VERTEX
  8
0
 10
832.74098400
 20
254.14122900
  0
VERTEX
  8
0
 10
848.50910505
 20
249.87348237
  0
SEQEND
  0
POLYLINE
  8
CYAN
 66
   1
 39
0.000000
 70
    0
  0
VERTEX
  8
0
 10
873.80278573
 20
201.61720012
 42
0.08663904
  0
VERTEX
  8
0
 10
911.41400223
 20
198.33431887
  0
SEQEND
  0
POLYLINE
  8
CYAN
 66
   1
 39
0.000000
 70
    0
  0
VERTEX
  8
0
 10
866.57482250
 20
235.26569888
  0
VERTEX
  8
0
 10
862.96167982
 20
210.97341218
  0
SEQEND
  0
POLYLINE
  8
CYAN
 66
   1
 39
0.000000
 70
    0
  0
VERTEX
  8
0
 10
918.64028962
 20
206.70566555
  0
VERTEX
  8
0
 10
873.14417467
 20
236.90713850
  0
SEQEND
  0
POLYLINE
  8
CYAN
 66
   1
 39
0.000000
 70
    0
  0
VERTEX
  8
0
 10
934.64638137
 20
189.57130930
 42
-0.20205904
  0
VERTEX
  8
0
 10
801.85665158
 20
219.13282737
 42
0.31429620
  0
VERTEX
  8
0
 10
797.42945654
 20
218.56077123
 42
0.31429620
  0
VERTEX
  8
0
 10
796.43693655
 20
214.20850650
  0
SEQEND
  0
POLYLINE
  8
CYAN
 66
   1
 39
0.000000
 70
    0
  0
VERTEX
  8
0
 10
804.15592383
 20
207.15134889
 42
0.16942055
  0
VERTEX
  8
0
 10
931.36170528
 20
165.27902462
  0
VERTEX
  8
0
 10
953.20647658
 20
169.21848212
 42
0.28760615
  0
VERTEX
  8
0
 10
957.24016823
 20
174.92117265
 42
0.28760615
  0
VERTEX
  8
0
 10
953.86341180
 20
181.03581604
  0
VERTEX
  8
0
 10
941.37996683
 20
188.91473305
  0
SEQEND
  0
POLYLINE
  8
CYAN
 66
   1
 39
0.000000
 70
    0
  0
VERTEX
  8
0
 10
831.08356432
 20
155.05741854
 42
0.22083921
  0
VERTEX
  8
0
 10
1040.49171418
 20
62.37938235
  0
SEQEND
  0
POLYLINE
  8
CYAN
 66
   1
 39
0.000000
 70
    0
  0
VERTEX
  8
0
 10
1049.36033860
 20
63.52839029
 42
0.23459843
  0
VERTEX
  8
0
 10
1051.89031854
 20
67.38683486
 42
0.23459843
  0
VERTEX
  8
0
 10
1050.34574243
 20
71.73455584
  0
VERTEX
  8
0
 10
1039.01361045
 20
82.73220954
 42
-0.22943860
  0
VERTEX
  8
0
 10
839.95218873
 20
158.01201267
  0
SEQEND
  0
POLYLINE
  8
CYAN
 66
   1
 39
0.000000
 70
    0
  0
VERTEX
  8
0
 10
834.20400710
 20
162.27975728
 42
0.30545694
  0
VERTEX
  8
0
 10
830.90852305
 20
162.35223066
 42
0.30545694
  0
VERTEX
  8
0
 10
829.60378473
 20
159.32516517
  0
SEQEND
  0
POLYLINE
  8
CYAN
 66
   1
 39
0.000000
 70
    0
  0
VERTEX
  8
0
 10
856.95206357
 20
158.66235540
 42
0.07704206
  0
VERTEX
  8
0
 10
929.38419623
 20
113.03237614
 42
0.28238626
  0
VERTEX
  8
0
 10
935.58773757
 20
113.74454539
 42
0.28238626
  0
VERTEX
  8
0
 10
937.76179660
 20
119.59814065
  0
SEQEND
  0
POLYLINE
  8
CYAN
 66
   1
 39
0.000000
 70
    0
  0
VERTEX
  8
0
 10
934.47544467
 20
126.32700914
  0
VERTEX
  8
0
 10
922.81484407
 20
145.36772240
 42
0.19626861
  0
VERTEX
  8
0
 10
912.79658252
 20
153.08145627
 42
-0.03864693
  0
VERTEX
  8
0
 10
864.50849340
 20
163.42253372
  0
SEQEND
  0
POLYLINE
  8
CYAN
 66
   1
 39
0.000000
 70
    0
  0
VERTEX
  8
0
 10
935.00333943
 20
147.16603449
  0
VERTEX
  8
0
 10
946.99408248
 20
128.94708062
 42
0.22240731
  0
VERTEX
  8
0
 10
953.61116705
 20
124.04972532
 42
0.22240731
  0
VERTEX
  8
0
 10
961.61089055
 20
125.99248648
  0
VERTEX
  8
0
 10
981.97755812
 20
138.79572639
  0
SEQEND
  0
POLYLINE
  8
CYAN
 66
   1
 39
0.000000
 70
    0
  0
VERTEX
  8
0
 10
936.15297455
 20
152.25450194
  0
VERTEX
  8
0
 10
967.52330750
 20
161.61071400
  0
SEQEND
  0
POLYLINE
  8
CYAN
 66
   1
 39
0.000000
 70
    0
  0
VERTEX
  8
0
 10
986.24763602
 20
143.39176013
 42
0.38555602
  0
VERTEX
  8
0
 10
984.60529697
 20
150.44891775
  0
SEQEND
  0
POLYLINE
  8
CYAN
 66
   1
 39
0.000000
 70
    0
  0
VERTEX
  8
0
 10
1000.90801618
 20
130.16777299
  0
VERTEX
  8
0
 10
1026.20169687
 20
104.06990210
 42
-0.34582059
  0
VERTEX
  8
0
 10
1022.26008557
 20
95.37026629
 42
-0.08144652
  0
VERTEX
  8
0
 10
965.10337203
 20
100.13044460
  0
SEQEND
  0
POLYLINE
  8
CYAN
 66
   1
 39
0.000000
 70
    0
  0
VERTEX
  8
0
 10
936.68589687
 20
63.64994084
 42
0.07667446
  0
VERTEX
  8
0
 10
996.63458658
 20
32.46360250
  0
SEQEND
  0
POLYLINE
  8
CYAN
 66
   1
 39
0.000000
 70
    0
  0
VERTEX
  8
0
 10
943.09101573
 20
67.42421519
 42
0.06902700
  0
VERTEX
  8
0
 10
996.63458658
 20
53.63715050
 42
-0.18719413
  0
VERTEX
  8
0
 10
1001.23313310
 20
47.56381969
  0
VERTEX
  8
0
 10
1000.74043118
 20
34.43333125
  0
SEQEND
  0
POLYLINE
  8
CYAN
 66
   1
 39
0.000000
 70
    0
  0
VERTEX
  8
0
 10
1052.39531303
 20
15.84557140
 42
0.41971520
  0
VERTEX
  8
0
 10
1063.09899925
 20
44.67883080
  0
SEQEND
  0
POLYLINE
  8
CYAN
 66
   1
 39
0.000000
 70
    0
  0
VERTEX
  8
0
 10
1041.22741435
 20
16.31099387
  0
VERTEX
  8
0
 10
1017.02806573
 20
23.75149965
  0
SEQEND
  0
POLYLINE
  8
CYAN
 66
   1
 39
0.000000
 70
    0
  0
VERTEX
  8
0
 10
1022.14780362
 20
50.25972994
  0
VERTEX
  8
0
 10
1057.51504890
 20
47.93470284
  0
SEQEND
  0
POLYLINE
  8
CYAN
 66
   1
 39
0.000000
 70
    0
  0
VERTEX
  8
0
 10
583.39553178
 20
390.62184195
  0
VERTEX
  8
0
 10
583.67875245
 20
377.30435407
 42
0.14263903
  0
VERTEX
  8
0
 10
601.54169205
 20
373.05426940
 42
0.10719547
  0
VERTEX
  8
0
 10
614.01675575
 20
383.53767512
  0
SEQEND
  0
POLYLINE
  8
CYAN
 66
   1
 39
0.000000
 70
    0
  0
VERTEX
  8
0
 10
776.97690585
 20
338.72633950
 42
0.03371772
  0
VERTEX
  8
0
 10
751.17711645
 20
357.99353048
  0
SEQEND
  0
POLYLINE
  8
CYAN
 66
   1
 39
0.000000
 70
    0
  0
VERTEX
  8
0
 10
779.52923347
 20
329.94255222
 42
0.26825136
  0
VERTEX
  8
0
 10
781.81657986
 20
332.58997982
 42
0.26825136
  0
VERTEX
  8
0
 10
780.66378795
 20
335.89329592
  0
SEQEND
  0
POLYLINE
  8
CYAN
 66
   1
 39
0.000000
 70
    0
  0
VERTEX
  8
0
 10
791.72108053
 20
344.39346525
 42
0.16538136
  0
VERTEX
  8
0
 10
804.19614423
 20
339.29357137
 42
0.07120410
  0
VERTEX
  8
0
 10
872.52745985
 20
347.79374070
 42
0.30073852
  0
VERTEX
  8
0
 10
875.01105826
 20
351.24166088
 42
0.30073852
  0
VERTEX
  8
0
 10
872.81068052
 20
354.87687097
 42
-0.08316618
  0
VERTEX
  8
0
 10
765.63639462
 20
377.82795333
 42
0.33770767
  0
VERTEX
  8
0
 10
759.44627405
 20
374.70654324
 42
0.33770767
  0
VERTEX
  8
0
 10
760.81663590
 20
367.91074292
  0
SEQEND
  0
POLYLINE
  8
CYAN
 66
   1
 39
0.000000
 70
    0
  0
VERTEX
  8
0
 10
774.42625408
 20
330.22616815
 42
0.06852291
  0
VERTEX
  8
0
 10
727.07664500
 20
347.51012477
 42
-0.19305594
  0
VERTEX
  8
0
 10
721.68877112
 20
352.04382738
  0
VERTEX
  8
0
 10
732.74606370
 20
362.81084702
 42
-0.21024424
  0
VERTEX
  8
0
 10
743.80503012
 20
361.39380593
  0
SEQEND
  0
POLYLINE
  8
CYAN
 66
   1
 39
0.000000
 70
    0
  0
VERTEX
  8
0
 10
769.88971603
 20
410.12901627
 42
0.10598130
  0
VERTEX
  8
0
 10
736.43294378
 20
414.37910093
 42
0.26048258
  0
VERTEX
  8
0
 10
732.40591693
 20
412.16738632
 42
0.26048258
  0
VERTEX
  8
0
 10
732.17962438
 20
407.57855003
 42
0.09221194
  0
VERTEX
  8
0
 10
890.10550495
 20
363.66065623
 42
0.31813437
  0
VERTEX
  8
0
 10
895.06787454
 20
368.86699151
 42
0.31813437
  0
VERTEX
  8
0
 10
891.80649673
 20
375.27748710
 42
-0.09921435
  0
VERTEX
  8
0
 10
781.23022727
 20
405.59531567
  0
SEQEND
  0
POLYLINE
  8
CYAN
 66
   1
 39
0.000000
 70
    0
  0
VERTEX
  8
0
 10
910.82410102
 20
386.69796723
 42
0.00443416
  0
VERTEX
  8
0
 10
944.87412618
 20
404.24995700
 42
0.37120392
  0
VERTEX
  8
0
 10
945.43891374
 20
411.24892995
 42
0.37120392
  0
VERTEX
  8
0
 10
938.60139947
 20
412.84674282
  0
SEQEND
  0
POLYLINE
  8
CYAN
 66
   1
 39
0.000000
 70
    0
  0
VERTEX
  8
0
 10
887.88332180
 20
411.59280772
 42
0.20727355
  0
VERTEX
  8
0
 10
884.75243277
 20
407.31232433
 42
0.20727355
  0
VERTEX
  8
0
 10
885.73319818
 20
402.10050090
  0
SEQEND
  0
POLYLINE
  8
CYAN
 66
   1
 39
0.000000
 70
    0
  0
VERTEX
  8
0
 10
888.95921952
 20
393.32502430
 42
0.33655764
  0
VERTEX
  8
0
 10
900.07013930
 20
386.33955112
  0
SEQEND
  0
POLYLINE
  8
CYAN
 66
   1
 39
0.000000
 70
    0
  0
VERTEX
  8
0
 10
1024.01805827
 20
407.49440058
 42
-0.25380560
  0
VERTEX
  8
0
 10
1026.83967649
 20
403.57722195
 42
-0.25380560
  0
VERTEX
  8
0
 10
1025.09395800
 20
399.07630152
 42
0.06825163
  0
VERTEX
  8
0
 10
976.70531788
 20
391.91213957
 42
0.06498651
  0
VERTEX
  8
0
 10
912.43627477
 20
365.56389750
 42
-0.37107599
  0
VERTEX
  8
0
 10
908.62411858
 20
368.36286491
 42
-0.37107599
  0
VERTEX
  8
0
 10
910.82410102
 20
372.54937068
  0
VERTEX
  8
0
 10
966.82250269
 20
403.54057171
  0
SEQEND
  0
POLYLINE
  8
CYAN
 66
   1
 39
0.000000
 70
    0
  0
VERTEX
  8
0
 10
805.08770047
 20
317.26086287
 42
-0.27292200
  0
VERTEX
  8
0
 10
802.28364384
 20
321.40062232
 42
-0.27292200
  0
VERTEX
  8
0
 10
804.54975060
 20
325.85765070
 42
0.12109699
  0
VERTEX
  8
0
 10
943.62393805
 20
367.76737607
 42
-0.23054239
  0
VERTEX
  8
0
 10
946.98109960
 20
369.94024409
 42
-0.23054239
  0
VERTEX
  8
0
 10
950.76183324
 20
368.63719296
 42
-0.23054239
  0
VERTEX
  8
0
 10
952.06734506
 20
364.85730831
 42
-0.23054239
  0
VERTEX
  8
0
 10
949.89666275
 20
361.49873310
 42
-0.10015556
  0
VERTEX
  8
0
 10
840.57225525
 20
308.84276582
  0
SEQEND
  0
POLYLINE
  8
CYAN
 66
   1
 39
0.000000
 70
    0
  0
VERTEX
  8
0
 10
871.24710642
 20
304.90330832
 42
0.35959938
  0
VERTEX
  8
0
 10
867.79746397
 20
301.27485053
 42
0.35959938
  0
VERTEX
  8
0
 10
870.70915857
 20
297.20204148
 42
0.07760588
  0
VERTEX
  8
0
 10
911.92849020
 20
293.08285462
 42
0.26929713
  0
VERTEX
  8
0
 10
915.99438389
 20
295.75074076
 42
0.26929713
  0
VERTEX
  8
0
 10
915.69246140
 20
300.60439410
  0
SEQEND
  0
POLYLINE
  8
CYAN
 66
   1
 39
0.000000
 70
    0
  0
VERTEX
  8
0
 10
899.56235473
 20
311.88774292
 42
0.24130899
  0
VERTEX
  8
0
 10
890.60155857
 20
312.24615702
  0
SEQEND
  0
POLYLINE
  8
CYAN
 66
   1
 39
0.000000
 70
    0
  0
VERTEX
  8
0
 10
956.19620307
 20
310.27642827
 42
-0.36726450
  0
VERTEX
  8
0
 10
954.58235347
 20
304.18647608
 42
-0.12964597
  0
VERTEX
  8
0
 10
941.67994600
 20
300.06728922
 42
-0.20521430
  0
VERTEX
  8
0
 10
933.07610588
 20
301.14253757
  0
SEQEND
  0
POLYLINE
  8
CYAN
 66
   1
 39
0.000000
 70
    0
  0
VERTEX
  8
0
 10
944.18870152
 20
334.09706100
 42
0.34038786
  0
VERTEX
  8
0
 10
938.45392467
 20
336.78258138
  0
SEQEND
  0
POLYLINE
  8
CYAN
 66
   1
 39
0.000000
 70
    0
  0
VERTEX
  8
0
 10
916.58904317
 20
325.67896193
 42
0.25645386
  0
VERTEX
  8
0
 10
913.11862507
 20
321.05804628
 42
0.25645386
  0
VERTEX
  8
0
 10
915.15451153
 20
315.64955023
  0
SEQEND
  0
POLYLINE
  8
CYAN
 66
   1
 39
0.000000
 70
    0
  0
VERTEX
  8
0
 10
966.46751797
 20
318.75789907
 42
0.23144215
  0
VERTEX
  8
0
 10
972.57324620
 20
314.43989142
 42
0.23144215
  0
VERTEX
  8
0
 10
979.73023520
 20
316.60844297
  0
VERTEX
  8
0
 10
996.75524778
 20
337.20540983
 42
0.25651587
  0
VERTEX
  8
0
 10
998.09854440
 20
342.41198104
 42
0.25651587
  0
VERTEX
  8
0
 10
994.42580822
 20
346.33930053
  0
SEQEND
  0
POLYLINE
  8
CYAN
 66
   1
 39
0.000000
 70
    0
  0
VERTEX
  8
0
 10
955.41182321
 20
348.66014304
 42
0.35402716
  0
VERTEX
  8
0
 10
954.08217588
 20
341.16390415
  0
SEQEND
  0
POLYLINE
  8
CYAN
 66
   1
 39
0.000000
 70
    0
  0
VERTEX
  8
0
 10
968.59869783
 20
354.88303378
 42
0.26447064
  0
VERTEX
  8
0
 10
960.77822020
 20
353.31704046
  0
SEQEND
  0
POLYLINE
  8
CYAN
 66
   1
 39
0.000000
 70
    0
  0
VERTEX
  8
0
 10
973.09887658
 20
378.03988685
 42
0.35392015
  0
VERTEX
  8
0
 10
967.72301389
 20
372.31321007
 42
0.35392015
  0
VERTEX
  8
0
 10
972.20229482
 20
365.86101905
  0
VERTEX
  8
0
 10
999.62263520
 20
358.87658445
 42
0.32713712
  0
VERTEX
  8
0
 10
1007.15057558
 20
362.45866442
  0
SEQEND
  0
POLYLINE
  8
CYAN
 66
   1
 39
0.000000
 70
    0
  0
VERTEX
  8
0
 10
1009.01286006
 20
372.37763726
 42
0.03714880
  0
VERTEX
  8
0
 10
1009.17908956
 20
373.86464494
  0
SEQEND
  0
POLYLINE
  8
CYAN
 66
   1
 39
0.000000
 70
    0
  0
VERTEX
  8
0
 10
1009.39105657
 20
379.58123659
 42
0.35902918
  0
VERTEX
  8
0
 10
1006.27636982
 20
383.65865681
  0
SEQEND
  0
POLYLINE
  8
CYAN
 66
   1
 39
0.000000
 70
    0
  0
VERTEX
  8
0
 10
999.73328744
 20
385.18429406
 42
0.12812956
  0
VERTEX
  8
0
 10
997.70019591
 20
385.13183819
  0
SEQEND
  0
POLYLINE
  8
CYAN
 66
   1
 39
0.000000
 70
    1
  0
VERTEX
  8
0
 10
724.94495775
 20
718.88383902
  0
VERTEX
  8
0
 10
723.41154895
 20
731.91667238
 42
-0.09454264
  0
VERTEX
  8
0
 10
748.34324603
 20
834.26466557
 42
-0.33315167
  0
VERTEX
  8
0
 10
761.76852072
 20
840.78160053
 42
-0.06863355
  0
VERTEX
  8
0
 10
815.08585182
 20
814.71489723
 42
0.08536109
  0
VERTEX
  8
0
 10
835.79942033
 20
801.29871570
 42
0.15405512
  0
VERTEX
  8
0
 10
907.14392433
 20
841.93164907
  0
VERTEX
  8
0
 10
912.12959220
 20
857.64792565
  0
VERTEX
  8
0
 10
914.81598782
 20
871.44745535
  0
VERTEX
  8
0
 10
919.41788603
 20
870.68075700
  0
VERTEX
  8
0
 10
921.33674033
 20
866.84726525
 42
-0.04993023
  0
VERTEX
  8
0
 10
920.18542735
 20
843.46400517
  0
VERTEX
  8
0
 10
915.96562495
 20
835.03136392
 42
-0.13733760
  0
VERTEX
  8
0
 10
843.08603832
 20
785.58243710
 42
-0.23524199
  0
VERTEX
  8
0
 10
823.52378077
 20
785.58243710
 42
0.09743647
  0
VERTEX
  8
0
 10
771.74153432
 20
814.71489723
  0
VERTEX
  8
0
 10
763.68737502
 20
814.33154705
 42
0.17012226
  0
VERTEX
  8
0
 10
756.78285285
 20
771.01620905
  0
VERTEX
  8
0
 10
773.65871277
 20
760.66682092
 42
-0.34646856
  0
VERTEX
  8
0
 10
767.90550358
 20
731.91667238
  0
VERTEX
  8
0
 10
765.22078382
 20
715.43473603
 42
-0.33685199
  0
VERTEX
  8
0
 10
754.09645723
 20
706.61770602
  0
VERTEX
  8
0
 10
746.80983925
 20
706.61770602
  0
VERTEX
  8
0
 10
747.19360890
 20
732.30002055
  0
VERTEX
  8
0
 10
741.14293332
 20
732.30002055
  0
VERTEX
  8
0
 10
740.76534677
 20
707.03152602
  0
VERTEX
  8
0
 10
733.76833422
 20
707.76775253
 42
-0.16651817
  0
VERTEX
  8
0
 10
724.94495775
 20
718.88383902
  0
SEQEND
  0
POLYLINE
  8
CYAN
 66
   1
 39
0.000000
 70
    1
  0
VERTEX
  8
0
 10
1047.18507925
 20
526.91109743
 42
0.17830926
  0
VERTEX
  8
0
 10
1063.62856987
 20
527.86687442
  0
VERTEX
  8
0
 10
1067.07077585
 20
531.30662612
  0
VERTEX
  8
0
 10
1049.86141977
 20
548.88666570
  0
VERTEX
  8
0
 10
1054.24111762
 20
553.06126048
  0
VERTEX
  8
0
 10
1070.78690163
 20
536.15908710
  0
VERTEX
  8
0
 10
1076.82257725
 20
541.43473348
  0
VERTEX
  8
0
 10
1078.16158543
 20
549.84244268
 42
0.13485845
  0
VERTEX
  8
0
 10
1065.44701491
 20
566.52603202
  0
VERTEX
  8
0
 10
1063.56153587
 20
579.07255587
 42
0.17339692
  0
VERTEX
  8
0
 10
1046.87169328
 20
589.29520053
  0
VERTEX
  8
0
 10
1030.18352857
 20
584.45294993
  0
VERTEX
  8
0
 10
1023.72310665
 20
585.52923687
  0
VERTEX
  8
0
 10
1001.64874390
 20
609.73944927
 42
-0.20144426
  0
VERTEX
  8
0
 10
1001.64874390
 20
621.03838087
 42
-0.12407804
  0
VERTEX
  8
0
 10
1054.40969078
 20
640.94448815
  0
VERTEX
  8
0
 10
1066.25463488
 20
646.32488222
  0
VERTEX
  8
0
 10
1070.02195577
 20
650.09084588
 42
0.00004109
  0
VERTEX
  8
0
 10
1080.78932630
 20
687.75256374
 42
0.08631363
  0
VERTEX
  8
0
 10
1079.71342657
 20
749.62449402
  0
VERTEX
  8
0
 10
1073.25300465
 20
756.08117502
 42
0.13198197
  0
VERTEX
  8
0
 10
1059.25458725
 20
770.60688823
  0
VERTEX
  8
0
 10
1056.56316408
 20
770.06978335
  0
VERTEX
  8
0
 10
1052.79416533
 20
767.91720948
  0
VERTEX
  8
0
 10
1056.34530358
 20
762.41942122
  0
VERTEX
  8
0
 10
1063.61181137
 20
751.71785048
 42
-0.08546598
  0
VERTEX
  8
0
 10
1070.11245167
 20
738.34114722
 42
-0.11726325
  0
VERTEX
  8
0
 10
1055.91125642
 20
661.74611442
  0
VERTEX
  8
0
 10
1049.60166302
 20
658.68867028
 42
0.09013299
  0
VERTEX
  8
0
 10
977.70412650
 20
631.17168115
 42
0.22373064
  0
VERTEX
  8
0
 10
975.02611013
 20
616.83920090
 42
0.11939769
  0
VERTEX
  8
0
 10
1047.18507925
 20
526.91109743
  0
SEQEND
  0
POLYLINE
  8
CYAN
 66
   1
 39
0.000000
 70
    1
  0
VERTEX
  8
0
 10
568.01285825
 20
521.54732675
 42
-0.02567393
  0
VERTEX
  8
0
 10
593.60651810
 20
526.19842155
  0
VERTEX
  8
0
 10
603.37842768
 20
529.45325298
  0
VERTEX
  8
0
 10
638.28146252
 20
542.01027603
 42
0.00487921
  0
VERTEX
  8
0
 10
859.57980442
 20
620.66853630
 42
0.07506705
  0
VERTEX
  8
0
 10
985.38121955
 20
711.61682707
 42
0.05936632
  0
VERTEX
  8
0
 10
1076.59130793
 20
823.69399465
 42
0.31940173
  0
VERTEX
  8
0
 10
1074.90526752
 20
865.16598007
 42
0.31940173
  0
VERTEX
  8
0
 10
1035.17422600
 20
877.17483708
 42
0.07169515
  0
VERTEX
  8
0
 10
942.56982437
 20
834.85475232
 42
0.06374060
  0
VERTEX
  8
0
 10
821.42058297
 20
733.36280187
  0
VERTEX
  8
0
 10
642.46942377
 20
629.90423842
 42
0.14578864
  0
VERTEX
  8
0
 10
611.29013973
 20
605.25665337
 42
-0.25252579
  0
VERTEX
  8
0
 10
603.71052156
 20
582.55582277
 42
-0.25252579
  0
VERTEX
  8
0
 10
580.57674402
 20
576.42339598
 42
0.11534477
  0
VERTEX
  8
0
 10
563.35900868
 20
582.46971557
 42
0.36200514
  0
VERTEX
  8
0
 10
551.72522168
 20
570.84353543
  0
VERTEX
  8
0
 10
552.18943415
 20
560.14715762
  0
VERTEX
  8
0
 10
555.91318495
 20
545.26510747
  0
VERTEX
  8
0
 10
578.71486862
 20
548.52097748
  0
VERTEX
  8
0
 10
579.51586442
 20
542.52398758
  0
VERTEX
  8
0
 10
557.11424507
 20
539.32524167
  0
VERTEX
  8
0
 10
557.30917203
 20
534.10434778
  0
VERTEX
  8
0
 10
558.23927080
 20
528.52345067
  0
VERTEX
  8
0
 10
559.08343733
 20
526.95701697
 42
0.23799862
  0
VERTEX
  8
0
 10
566.53382603
 20
521.75862230
  0
VERTEX
  8
0
 10
568.01285825
 20
521.54732675
  0
SEQEND
  0
POLYLINE
  8
CYAN
 66
   1
 39
0.000000
 70
    1
  0
VERTEX
  8
0
 10
297.10307304
 20
856.65786533
 42
0.27821112
  0
VERTEX
  8
0
 10
298.50241182
 20
779.80830702
 42
0.30057501
  0
VERTEX
  8
0
 10
377.35977355
 20
746.27408468
 42
0.23527675
  0
VERTEX
  8
0
 10
438.04081174
 20
791.82406883
 42
0.08165211
  0
VERTEX
  8
0
 10
438.60054564
 20
804.67925202
 42
0.13575831
  0
VERTEX
  8
0
 10
402.24789854
 20
846.03836688
 42
-0.03203418
  0
VERTEX
  8
0
 10
389.66390257
 20
864.20330030
 42
0.16039912
  0
VERTEX
  8
0
 10
371.48757700
 20
870.90931188
 42
0.00384923
  0
VERTEX
  8
0
 10
353.31125345
 20
868.95412733
 42
-0.06557939
  0
VERTEX
  8
0
 10
333.45572215
 20
872.58607543
  0
VERTEX
  8
0
 10
318.07640032
 20
873.70391780
 42
0.26673715
  0
VERTEX
  8
0
 10
301.62194307
 20
863.40243760
  0
VERTEX
  8
0
 10
356.04336085
 20
839.27283943
  0
VERTEX
  8
0
 10
353.59112040
 20
833.74210488
  0
VERTEX
  8
0
 10
298.12907640
 20
858.32476537
  0
VERTEX
  8
0
 10
297.10307304
 20
856.65786533
  0
SEQEND
  0
POLYLINE
  8
CYAN
 66
   1
 39
0.000000
 70
    1
  0
VERTEX
  8
0
 10
597.32021178
 20
359.71808298
  0
VERTEX
  8
0
 10
582.57771497
 20
363.68455172
 42
-0.36670501
  0
VERTEX
  8
0
 10
558.52953554
 20
399.79138116
 42
-0.36670501
  0
VERTEX
  8
0
 10
590.19950495
 20
429.43983985
 42
-0.00175981
  0
VERTEX
  8
0
 10
904.32345870
 20
425.15962820
 42
-0.01927182
  0
VERTEX
  8
0
 10
1003.13690273
 20
420.31425983
 42
0.05409093
  0
VERTEX
  8
0
 10
1067.21489895
 20
419.46445062
  0
VERTEX
  8
0
 10
1079.97318332
 20
418.33102547
  0
VERTEX
  8
0
 10
1083.94328407
 20
412.38028378
  0
VERTEX
  8
0
 10
1084.79461990
 20
402.46410993
  0
VERTEX
  8
0
 10
1060.69414643
 20
400.19725963
  0
VERTEX
  8
0
 10
1061.45226588
 20
394.19186427
  0
VERTEX
  8
0
 10
1085.36117215
 20
396.44069767
  0
VERTEX
  8
0
 10
1086.11017425
 20
388.39635147
 42
-0.03959939
  0
VERTEX
  8
0
 10
1087.06205100
 20
367.32896484
 42
-0.22226842
  0
VERTEX
  8
0
 10
1078.18115209
 20
357.13291603
 42
-0.22226842
  0
VERTEX
  8
0
 10
1064.66257133
 20
357.41175442
 42
-0.09948294
  0
VERTEX
  8
0
 10
1055.30627255
 20
371.29543357
  0
VERTEX
  8
0
 10
1050.48651383
 20
373.84590182
 42
-0.05030768
  0
VERTEX
  8
0
 10
1028.93836798
 20
372.14628338
 42
0.10499141
  0
VERTEX
  8
0
 10
1017.59785675
 20
361.94545502
 42
-0.21696868
  0
VERTEX
  8
0
 10
983.28975270
 20
302.15960710
 42
-0.13912166
  0
VERTEX
  8
0
 10
912.81669272
 20
280.81983737
 42
-0.10393619
  0
VERTEX
  8
0
 10
829.74288028
 20
293.57009338
 42
-0.01245058
  0
VERTEX
  8
0
 10
762.90139935
 20
320.90008307
 42
0.04080703
  0
VERTEX
  8
0
 10
597.32021178
 20
359.71808298
  0
SEQEND
  0
POLYLINE
  8
CYAN
 66
   1
 39
0.000000
 70
    1
  0
VERTEX
  8
0
 10
132.03344507
 20
392.61888438
 42
-0.31861792
  0
VERTEX
  8
0
 10
135.30973988
 20
412.64654019
  0
VERTEX
  8
0
 10
137.49676274
 20
414.88668415
  0
VERTEX
  8
0
 10
154.19232143
 20
395.20836093
  0
VERTEX
  8
0
 10
158.63950843
 20
399.31822349
  0
VERTEX
  8
0
 10
142.44045103
 20
418.41134239
 42
-0.35843933
  0
VERTEX
  8
0
 10
163.36858315
 20
418.56715489
  0
VERTEX
  8
0
 10
169.64130785
 20
411.42688641
 42
0.11778054
  0
VERTEX
  8
0
 10
181.14437855
 20
407.07291316
 42
-0.29804616
  0
VERTEX
  8
0
 10
193.51721540
 20
387.74131186
 42
-0.11675327
  0
VERTEX
  8
0
 10
188.11425887
 20
371.71856244
 42
0.19332478
  0
VERTEX
  8
0
 10
192.64577138
 20
360.92141381
  0
VERTEX
  8
0
 10
212.51303363
 20
343.33098638
  0
VERTEX
  8
0
 10
217.83695573
 20
342.12193061
 42
0.29807936
  0
VERTEX
  8
0
 10
224.04627835
 20
344.43136434
  0
VERTEX
  8
0
 10
228.37165058
 20
350.29775901
  0
VERTEX
  8
0
 10
239.52446662
 20
372.24112313
 42
0.01679573
  0
VERTEX
  8
0
 10
246.58819453
 20
393.64114884
 42
-0.20558220
  0
VERTEX
  8
0
 10
254.84345785
 20
406.17947134
 42
-0.15298063
  0
VERTEX
  8
0
 10
352.32124540
 20
412.54472878
 42
-0.12534428
  0
VERTEX
  8
0
 10
374.19953370
 20
389.57494586
  0
VERTEX
  8
0
 10
372.53708445
 20
385.14721101
  0
VERTEX
  8
0
 10
368.93734857
 20
384.59348476
 42
0.04202665
  0
VERTEX
  8
0
 10
346.50602775
 20
401.47539266
 42
0.15594338
  0
VERTEX
  8
0
 10
269.52059652
 20
393.72633688
 42
0.18944243
  0
VERTEX
  8
0
 10
262.59763798
 20
384.31714093
 42
-0.11279133
  0
VERTEX
  8
0
 10
228.81407498
 20
316.51524468
 42
-0.18821124
  0
VERTEX
  8
0
 10
217.18196585
 20
315.96151843
 42
-0.10443341
  0
VERTEX
  8
0
 10
132.03344507
 20
392.61888438
  0
SEQEND
  0
POLYLINE
  8
CYAN
 66
   1
 39
0.000000
 70
    1
  0
VERTEX
  8
0
 10
280.09356643
 20
298.12487414
 42
-0.31170167
  0
VERTEX
  8
0
 10
257.27184561
 20
298.30554297
 42
-0.31170167
  0
VERTEX
  8
0
 10
249.35503095
 20
319.71086073
 42
-0.03303140
  0
VERTEX
  8
0
 10
288.35217943
 20
371.86400646
 42
-0.29245298
  0
VERTEX
  8
0
 10
296.81537823
 20
387.61081488
 42
-0.29245298
  0
VERTEX
  8
0
 10
314.65975340
 20
386.53100734
  0
VERTEX
  8
0
 10
319.23374763
 20
383.06054603
  0
VERTEX
  8
0
 10
291.52211917
 20
351.38221890
  0
VERTEX
  8
0
 10
296.07570022
 20
347.39882844
  0
VERTEX
  8
0
 10
323.50249426
 20
378.75154936
  0
VERTEX
  8
0
 10
331.26077392
 20
374.35525731
 42
0.15655360
  0
VERTEX
  8
0
 10
352.07321758
 20
374.00826964
 42
-0.29993858
  0
VERTEX
  8
0
 10
382.25369300
 20
354.59459404
 42
0.24592848
  0
VERTEX
  8
0
 10
391.41726903
 20
332.99406326
  0
VERTEX
  8
0
 10
397.87761175
 20
329.19593572
  0
VERTEX
  8
0
 10
378.63811188
 20
292.44028464
  0
VERTEX
  8
0
 10
383.99819926
 20
289.63458273
  0
VERTEX
  8
0
 10
403.20128436
 20
326.32066606
  0
VERTEX
  8
0
 10
409.14111308
 20
322.20107098
 42
-0.27530589
  0
VERTEX
  8
0
 10
414.54212119
 20
305.66622454
 42
-0.27530589
  0
VERTEX
  8
0
 10
402.57268562
 20
293.04463006
  0
VERTEX
  8
0
 10
375.63238948
 20
244.98997878
 42
-0.32373997
  0
VERTEX
  8
0
 10
355.61599648
 20
233.88444168
 42
-0.32373997
  0
VERTEX
  8
0
 10
338.80212110
 20
249.41771363
 42
0.26852642
  0
VERTEX
  8
0
 10
322.46253520
 20
283.73421709
  0
VERTEX
  8
0
 10
318.73147406
 20
285.94357255
  0
VERTEX
  8
0
 10
345.19990488
 20
326.05521197
  0
VERTEX
  8
0
 10
340.25925248
 20
329.55258933
  0
VERTEX
  8
0
 10
313.68075836
 20
289.27415425
  0
VERTEX
  8
0
 10
305.01688225
 20
294.80355321
 42
0.10368385
  0
VERTEX
  8
0
 10
280.09356643
 20
298.12487414
  0
SEQEND
  0
POLYLINE
  8
CYAN
 66
   1
 39
0.000000
 70
    1
  0
VERTEX
  8
0
 10
480.12530732
 20
159.19248861
 42
-0.07439781
  0
VERTEX
  8
0
 10
411.86772910
 20
200.67107485
  0
VERTEX
  8
0
 10
411.86772910
 20
204.72169505
  0
VERTEX
  8
0
 10
414.71435444
 20
211.40011254
  0
VERTEX
  8
0
 10
464.00061777
 20
192.99644231
  0
VERTEX
  8
0
 10
466.11698021
 20
198.66420289
  0
VERTEX
  8
0
 10
417.10028678
 20
216.96721474
  0
VERTEX
  8
0
 10
419.97383975
 20
223.84136283
  0
VERTEX
  8
0
 10
424.51373152
 20
225.13789396
 42
-0.06182438
  0
VERTEX
  8
0
 10
493.09642463
 20
211.36537348
 42
-0.11528694
  0
VERTEX
  8
0
 10
521.14688663
 20
191.43537273
  0
VERTEX
  8
0
 10
537.04304592
 20
181.34573904
 42
-0.38815909
  0
VERTEX
  8
0
 10
538.25446983
 20
174.31558715
 42
-0.38815909
  0
VERTEX
  8
0
 10
531.36122465
 20
172.47880891
  0
VERTEX
  8
0
 10
517.25555285
 20
179.93178173
 42
0.41690789
  0
VERTEX
  8
0
 10
506.91126296
 20
178.92485540
 42
0.41690789
  0
VERTEX
  8
0
 10
508.01321187
 20
168.59025611
  0
VERTEX
  8
0
 10
524.87566498
 20
162.27071046
 42
-0.21035966
  0
VERTEX
  8
0
 10
528.59963455
 20
161.00855620
 42
-0.21035966
  0
VERTEX
  8
0
 10
530.18382004
 20
157.40975931
 42
-0.21035966
  0
VERTEX
  8
0
 10
528.59963455
 20
153.81096242
 42
-0.21035966
  0
VERTEX
  8
0
 10
524.87566498
 20
152.54880816
 42
0.08464462
  0
VERTEX
  8
0
 10
480.12530732
 20
159.19248861
  0
SEQEND
  0
POLYLINE
  8
CYAN
 66
   1
 39
0.000000
 70
    1
  0
VERTEX
  8
0
 10
46.70015544
 20
486.13687640
 42
0.24374995
  0
VERTEX
  8
0
 10
44.48635154
 20
500.04652820
  0
VERTEX
  8
0
 10
10.12294242
 20
528.97120915
 42
-0.34119707
  0
VERTEX
  8
0
 10
7.19354855
 20
555.75682387
  0
VERTEX
  8
0
 10
11.95870993
 20
562.76103355
  0
VERTEX
  8
0
 10
44.09755232
 20
539.10139368
  0
VERTEX
  8
0
 10
47.74756572
 20
543.92182798
  0
VERTEX
  8
0
 10
16.29307727
 20
567.08279897
 42
-0.38714950
  0
VERTEX
  8
0
 10
48.66090599
 20
577.53396423
  0
VERTEX
  8
0
 10
85.29342205
 20
553.30193553
 42
0.32596859
  0
VERTEX
  8
0
 10
101.04143290
 20
556.11316080
  0
VERTEX
  8
0
 10
105.75058552
 20
562.60516372
 42
-0.39614940
  0
VERTEX
  8
0
 10
125.60276512
 20
562.91267513
  0
VERTEX
  8
0
 10
131.25374947
 20
556.68974395
  0
VERTEX
  8
0
 10
107.26891167
 20
534.79520737
  0
VERTEX
  8
0
 10
111.50039460
 20
530.46626498
  0
VERTEX
  8
0
 10
135.46506775
 20
552.34239343
  0
VERTEX
  8
0
 10
137.24995892
 20
550.81276185
  0
VERTEX
  8
0
 10
140.94019070
 20
544.93577975
 42
-0.25228173
  0
VERTEX
  8
0
 10
142.46577170
 20
532.30076368
 42
-0.25228173
  0
VERTEX
  8
0
 10
132.75196340
 20
524.07805385
 42
0.22766082
  0
VERTEX
  8
0
 10
124.00323956
 20
515.61042286
 42
0.22766082
  0
VERTEX
  8
0
 10
125.14190637
 20
503.48836110
 42
-0.21491708
  0
VERTEX
  8
0
 10
121.02763069
 20
485.06725509
 42
-0.21491708
  0
VERTEX
  8
0
 10
104.50207324
 20
475.94747648
 42
0.41748057
  0
VERTEX
  8
0
 10
87.05977400
 20
466.20064213
 42
-0.35890629
  0
VERTEX
  8
0
 10
74.49086069
 20
449.60650652
  0
VERTEX
  8
0
 10
65.54183480
 20
449.60650652
  0
VERTEX
  8
0
 10
58.53383444
 20
452.81248622
  0
VERTEX
  8
0
 10
72.98706059
 20
481.00641590
  0
VERTEX
  8
0
 10
67.34166240
 20
483.25604387
  0
VERTEX
  8
0
 10
52.92763420
 20
455.13857610
  0
VERTEX
  8
0
 10
46.35493034
 20
458.71026822
 42
-0.31157386
  0
VERTEX
  8
0
 10
39.43532350
 20
475.18908882
  0
VERTEX
  8
0
 10
46.70015544
 20
486.13687640
  0
SEQEND
  0
POLYLINE
  8
CYAN
 66
   1
 39
0.000000
 70
    1
  0
VERTEX
  8
0
 10
11.72841075
 20
643.76090835
 42
0.22207247
  0
VERTEX
  8
0
 10
19.92034343
 20
653.88613006
 42
0.22207247
  0
VERTEX
  8
0
 10
17.41123625
 20
666.66628095
 42
-0.20165180
  0
VERTEX
  8
0
 10
22.67171927
 20
683.09355295
 42
-0.20165180
  0
VERTEX
  8
0
 10
38.08961192
 20
690.82766783
 42
0.11463781
  0
VERTEX
  8
0
 10
49.26588985
 20
693.28878968
 42
0.07869083
  0
VERTEX
  8
0
 10
54.75934229
 20
703.32131713
 42
-0.25409403
  0
VERTEX
  8
0
 10
61.96811696
 20
716.92180312
 42
-0.25409403
  0
VERTEX
  8
0
 10
77.30126920
 20
718.27609030
  0
VERTEX
  8
0
 10
81.28763034
 20
716.98778515
  0
VERTEX
  8
0
 10
68.58682299
 20
687.42012028
  0
VERTEX
  8
0
 10
74.11499839
 20
684.96088603
  0
VERTEX
  8
0
 10
86.84648529
 20
714.59997518
  0
VERTEX
  8
0
 10
94.16037264
 20
710.70468470
 42
-0.25918665
  0
VERTEX
  8
0
 10
102.12392000
 20
699.27321323
 42
-0.25918665
  0
VERTEX
  8
0
 10
96.62220234
 20
686.47369257
 42
0.30037844
  0
VERTEX
  8
0
 10
97.94780372
 20
669.43699138
  0
VERTEX
  8
0
 10
154.07554334
 20
627.53038378
 42
-0.35669099
  0
VERTEX
  8
0
 10
159.75836884
 20
597.88990918
  0
VERTEX
  8
0
 10
156.16611277
 20
592.35570193
  0
VERTEX
  8
0
 10
101.57708982
 20
630.60226322
  0
VERTEX
  8
0
 10
98.00478464
 20
625.71752548
  0
VERTEX
  8
0
 10
152.69460664
 20
587.40079025
  0
VERTEX
  8
0
 10
146.30795439
 20
580.85320800
 42
-0.33154663
  0
VERTEX
  8
0
 10
117.51676467
 20
578.39208615
  0
VERTEX
  8
0
 10
58.98417425
 20
614.92764895
 42
0.28131836
  0
VERTEX
  8
0
 10
42.79708869
 20
611.74242277
  0
VERTEX
  8
0
 10
39.00798175
 20
605.68467473
 42
-0.20490919
  0
VERTEX
  8
0
 10
27.92638935
 20
600.94419206
 42
-0.20490919
  0
VERTEX
  8
0
 10
16.84479694
 20
605.68467473
  0
VERTEX
  8
0
 10
12.73658275
 20
610.67232498
  0
VERTEX
  8
0
 10
37.04466600
 20
632.47692832
  0
VERTEX
  8
0
 10
32.75536524
 20
636.75673462
  0
VERTEX
  8
0
 10
8.69679004
 20
615.17594297
  0
VERTEX
  8
0
 10
4.71998589
 20
619.34083960
  0
VERTEX
  8
0
 10
1.87773622
 20
625.02043440
 42
-0.29398508
  0
VERTEX
  8
0
 10
6.42432937
 20
640.35336080
  0
VERTEX
  8
0
 10
11.72841075
 20
643.76090835
  0
SEQEND
  0
POLYLINE
  8
CYAN
 66
   1
 39
0.000000
 70
    1
  0
VERTEX
  8
0
 10
349.82044580
 20
496.49561380
 42
-0.02865761
  0
VERTEX
  8
0
 10
334.02216147
 20
512.46330217
 42
-0.12546471
  0
VERTEX
  8
0
 10
332.37718865
 20
528.05757647
  0
VERTEX
  8
0
 10
389.79144464
 20
503.72645885
  0
VERTEX
  8
0
 10
392.17935947
 20
509.28534808
  0
VERTEX
  8
0
 10
333.65243992
 20
534.08799262
  0
VERTEX
  8
0
 10
335.44998970
 20
537.99082342
 42
-0.16738100
  0
VERTEX
  8
0
 10
370.69992549
 20
577.93601497
 42
-0.26449460
  0
VERTEX
  8
0
 10
445.56204872
 20
574.88584293
 42
-0.21714015
  0
VERTEX
  8
0
 10
482.40907359
 20
515.35348397
  0
VERTEX
  8
0
 10
483.66596512
 20
504.76826885
  0
VERTEX
  8
0
 10
482.22975764
 20
492.21020722
 42
-0.16568094
  0
VERTEX
  8
0
 10
472.71425310
 20
468.70747577
 42
-0.15736006
  0
VERTEX
  8
0
 10
451.35045277
 20
461.71057413
  0
VERTEX
  8
0
 10
434.11595894
 20
461.71057413
 42
0.16673630
  0
VERTEX
  8
0
 10
394.34288989
 20
461.33138030
 42
-0.31505357
  0
VERTEX
  8
0
 10
368.67046509
 20
479.63136787
 42
0.10200051
  0
VERTEX
  8
0
 10
349.82044580
 20
496.49561380
  0
SEQEND
  0
POLYLINE
  8
CYAN
 66
   1
 39
0.000000
 70
    1
  0
VERTEX
  8
0
 10
580.57674402
 20
302.62295038
 42
-0.25252579
  0
VERTEX
  8
0
 10
603.71052156
 20
296.49052360
 42
-0.25252579
  0
VERTEX
  8
0
 10
611.29013973
 20
273.78969300
 42
0.14578864
  0
VERTEX
  8
0
 10
642.46942377
 20
249.14210795
  0
VERTEX
  8
0
 10
821.42058297
 20
145.68354450
 42
0.06374060
  0
VERTEX
  8
0
 10
942.56982437
 20
44.19159405
 42
0.07169515
  0
VERTEX
  8
0
 10
1035.17422600
 20
1.87150929
 42
0.31940173
  0
VERTEX
  8
0
 10
1074.90526752
 20
13.88036630
 42
0.31940173
  0
VERTEX
  8
0
 10
1076.59130793
 20
55.35235172
 42
0.05936632
  0
VERTEX
  8
0
 10
985.38121955
 20
167.42951930
 42
0.07506705
  0
VERTEX
  8
0
 10
859.57980443
 20
258.37781007
 42
0.00487921
  0
VERTEX
  8
0
 10
638.28146252
 20
337.03607033
  0
VERTEX
  8
0
 10
603.37842768
 20
349.59309338
  0
VERTEX
  8
0
 10
593.60651810
 20
352.84792482
 42
-0.02512097
  0
VERTEX
  8
0
 10
568.55836780
 20
357.37129335
 42
0.29186258
  0
VERTEX
  8
0
 10
559.08343733
 20
352.08932940
  0
VERTEX
  8
0
 10
558.23927080
 20
350.52289570
  0
VERTEX
  8
0
 10
557.30917203
 20
344.94199858
  0
VERTEX
  8
0
 10
557.11424507
 20
339.72110470
  0
VERTEX
  8
0
 10
579.51586442
 20
336.52235878
  0
VERTEX
  8
0
 10
578.71486862
 20
330.52536888
  0
VERTEX
  8
0
 10
555.91318495
 20
333.78123890
  0
VERTEX
  8
0
 10
552.18943415
 20
318.89918875
  0
VERTEX
  8
0
 10
551.72522168
 20
308.20281093
 42
0.36200514
  0
VERTEX
  8
0
 10
563.35900868
 20
296.57663080
 42
0.11534477
  0
VERTEX
  8
0
 10
580.57674402
 20
302.62295038
  0
SEQEND
  0
POLYLINE
  8
CYAN
 66
   1
 39
0.000000
 70
    0
  0
VERTEX
  8
0
 10
360.83206838
 20
57.92401158
 42
-0.22992432
  0
VERTEX
  8
0
 10
369.87871787
 20
60.66144057
 42
-0.22992432
  0
VERTEX
  8
0
 10
377.62498118
 20
55.24564983
 42
0.14341674
  0
VERTEX
  8
0
 10
416.14451040
 20
14.38104381
  0
VERTEX
  8
0
 10
422.35187695
 20
14.92749796
 42
0.22555848
  0
VERTEX
  8
0
 10
423.93768561
 20
18.30716960
 42
0.22555848
  0
VERTEX
  8
0
 10
422.31835995
 20
21.67091065
 42
-0.14392299
  0
VERTEX
  8
0
 10
384.72725567
 20
78.64553128
 42
0.11573479
  0
VERTEX
  8
0
 10
316.47638085
 20
122.47511928
  0
VERTEX
  8
0
 10
313.51179212
 20
125.78812751
 42
0.23836623
  0
VERTEX
  8
0
 10
306.00898948
 20
137.64286253
 42
-0.05672746
  0
VERTEX
  8
0
 10
238.49716653
 20
177.21717093
  0
VERTEX
  8
0
 10
237.10117945
 20
180.87820743
 42
0.20014830
  0
VERTEX
  8
0
 10
235.35661355
 20
188.72284111
 42
-0.01218544
  0
VERTEX
  8
0
 10
176.60281093
 20
231.88857875
 42
-0.20962394
  0
VERTEX
  8
0
 10
169.93625947
 20
247.43655643
 42
-0.04979550
  0
VERTEX
  8
0
 10
107.59947745
 20
293.14133386
 42
0.17192409
  0
VERTEX
  8
0
 10
98.82805032
 20
310.67150733
 42
-0.02097582
  0
VERTEX
  8
0
 10
70.00837115
 20
327.88897444
 42
0.01503452
  0
VERTEX
  8
0
 10
36.80465427
 20
355.43713116
 42
0.30785576
  0
VERTEX
  8
0
 10
28.97338302
 20
356.68899111
  0
VERTEX
  8
0
 10
18.01015906
 20
346.73091104
  0
VERTEX
  8
0
 10
173.08125238
 20
217.46992745
  0
VERTEX
  8
0
 10
168.99898620
 20
213.00477316
  0
VERTEX
  8
0
 10
14.37340529
 20
341.93045438
  0
VERTEX
  8
0
 10
8.30338660
 20
335.61205758
  0
VERTEX
  8
0
 10
4.08190633
 20
326.99968898
  0
VERTEX
  8
0
 10
5.31366012
 20
321.02297464
 42
-0.06081008
  0
VERTEX
  8
0
 10
67.47112618
 20
264.31638716
  0
VERTEX
  8
0
 10
80.30985135
 20
263.61306054
 42
-0.07933403
  0
VERTEX
  8
0
 10
135.80244180
 20
212.37309375
 42
0.13562525
  0
VERTEX
  8
0
 10
148.81880908
 20
209.91197190
 42
-0.06264804
  0
VERTEX
  8
0
 10
207.03801555
 20
157.00459283
 42
0.11552871
  0
VERTEX
  8
0
 10
221.45204375
 20
154.82708691
 42
-0.04839669
  0
VERTEX
  8
0
 10
279.71649817
 20
98.47891555
 42
-0.08809105
  0
VERTEX
  8
0
 10
293.18534697
 20
95.03604608
 42
0.12869465
  0
VERTEX
  8
0
 10
339.28979547
 20
40.10387721
 42
-0.08935084
  0
VERTEX
  8
0
 10
387.84769643
 20
11.09712398
 42
0.22787830
  0
VERTEX
  8
0
 10
391.21795670
 20
8.37866387
 42
0.22787830
  0
VERTEX
  8
0
 10
395.44595847
 20
9.31283766
 42
0.22787830
  0
VERTEX
  8
0
 10
397.35710465
 20
13.19822051
 42
0.22787830
  0
VERTEX
  8
0
 10
395.51641023
 20
17.11747091
 42
0.06589493
  0
VERTEX
  8
0
 10
358.27555860
 20
43.93425120
 42
-0.17384658
  0
VERTEX
  8
0
 10
355.99010792
 20
53.56558546
  0
SEQEND
  0
POLYLINE
  8
CYAN
 66
   1
 39
0.000000
 70
    1
  0
VERTEX
  8
0
 10
3.36799222
 20
387.33198903
 42
-0.21519663
  0
VERTEX
  8
0
 10
0.01633884
 20
393.69050583
 42
-0.21519663
  0
VERTEX
  8
0
 10
2.56693390
 20
400.41053418
  0
VERTEX
  8
0
 10
6.58678294
 20
405.69211049
  0
VERTEX
  8
0
 10
152.74053245
 20
304.96657482
  0
VERTEX
  8
0
 10
156.14435609
 20
309.96822301
  0
VERTEX
  8
0
 10
10.01988581
 20
410.67358016
  0
VERTEX
  8
0
 10
14.09849405
 20
416.71689751
 42
-0.38886029
  0
VERTEX
  8
0
 10
28.43710900
 20
418.60974891
 42
0.04102516
  0
VERTEX
  8
0
 10
92.27043112
 20
368.69851941
 42
-0.20634538
  0
VERTEX
  8
0
 10
114.43864147
 20
363.36071936
 42
0.03137743
  0
VERTEX
  8
0
 10
170.79262083
 20
318.78728991
 42
-0.13451626
  0
VERTEX
  8
0
 10
188.30027822
 20
315.70699089
 42
0.02321437
  0
VERTEX
  8
0
 10
248.66122703
 20
267.93067329
 42
-0.16820056
  0
VERTEX
  8
0
 10
268.95918475
 20
263.39385493
 42
0.06561504
  0
VERTEX
  8
0
 10
324.24564363
 20
219.08741803
 42
-0.24133672
  0
VERTEX
  8
0
 10
343.39228837
 20
214.87369386
 42
0.08596735
  0
VERTEX
  8
0
 10
378.37911570
 20
184.71377635
 42
-0.13134511
  0
VERTEX
  8
0
 10
477.73386130
 20
147.34710286
 42
-0.04345355
  0
VERTEX
  8
0
 10
514.42168042
 20
103.18299423
 42
0.06280795
  0
VERTEX
  8
0
 10
536.85635293
 20
85.29959958
 42
-0.38722878
  0
VERTEX
  8
0
 10
538.45847158
 20
75.95793171
  0
VERTEX
  8
0
 10
524.68705555
 20
55.01519921
  0
VERTEX
  8
0
 10
417.21198035
 20
127.31283825
  0
VERTEX
  8
0
 10
413.83513275
 20
122.29293782
  0
VERTEX
  8
0
 10
521.08911800
 20
50.14402426
  0
VERTEX
  8
0
 10
505.87481920
 20
28.18161411
 42
-0.32647574
  0
VERTEX
  8
0
 10
497.06149783
 20
27.38167101
 42
0.12077808
  0
VERTEX
  8
0
 10
434.03091190
 20
53.80471326
 42
-0.16625089
  0
VERTEX
  8
0
 10
344.13804363
 20
143.34011728
 42
-0.01743584
  0
VERTEX
  8
0
 10
301.67187557
 20
167.36229366
 42
0.15100316
  0
VERTEX
  8
0
 10
288.31698658
 20
186.04562939
 42
0.03653896
  0
VERTEX
  8
0
 10
237.16653760
 20
215.04926688
 42
-0.07729418
  0
VERTEX
  8
0
 10
222.20953198
 20
235.60052196
 42
0.00168029
  0
VERTEX
  8
0
 10
155.97471077
 20
275.90308903
 42
-0.01078766
  0
VERTEX
  8
0
 10
150.89854498
 20
287.38070738
 42
0.04451833
  0
VERTEX
  8
0
 10
82.42478212
 20
328.61204019
 42
-0.24976489
  0
VERTEX
  8
0
 10
75.74817555
 20
342.75855958
 42
0.03081353
  0
VERTEX
  8
0
 10
3.36799222
 20
387.33198903
  0
SEQEND
  0
POLYLINE
  8
CYAN
 66
   1
 39
0.000000
 70
    1
  0
VERTEX
  8
0
 10
13.68598056
 20
206.41066257
 42
0.13334346
  0
VERTEX
  8
0
 10
14.15058549
 20
208.47266075
  0
VERTEX
  8
0
 10
14.06222729
 20
210.50232004
 42
0.03584636
  0
VERTEX
  8
0
 10
7.82883343
 20
220.00651113
 42
-0.27786168
  0
VERTEX
  8
0
 10
5.19663500
 20
224.49332395
 42
-0.27786168
  0
VERTEX
  8
0
 10
7.93134588
 20
228.91840183
 42
0.03584636
  0
VERTEX
  8
0
 10
14.38171270
 20
238.27669308
  0
VERTEX
  8
0
 10
14.51673522
 20
240.30378284
 42
0.13334346
  0
VERTEX
  8
0
 10
14.09968480
 20
242.37592261
  0
VERTEX
  8
0
 10
13.34618453
 20
243.88259343
 42
-0.11645600
  0
VERTEX
  8
0
 10
13.13320042
 20
244.78463206
  0
VERTEX
  8
0
 10
13.13320042
 20
247.63979563
 42
-0.17654859
  0
VERTEX
  8
0
 10
14.55197645
 20
251.53264350
  0
VERTEX
  8
0
 10
17.91944213
 20
255.53883340
 42
-0.25766498
  0
VERTEX
  8
0
 10
72.65287052
 20
255.95438773
 42
-0.27642804
  0
VERTEX
  8
0
 10
90.59518223
 20
228.04879449
  0
VERTEX
  8
0
 10
62.75008689
 20
228.36909341
  0
VERTEX
  8
0
 10
62.68049904
 20
222.31949362
  0
VERTEX
  8
0
 10
90.51555426
 20
221.99931019
 42
-0.30181120
  0
VERTEX
  8
0
 10
71.91133153
 20
191.48890740
 42
-0.25766498
  0
VERTEX
  8
0
 10
17.20194437
 20
193.16336983
  0
VERTEX
  8
0
 10
13.92752299
 20
197.24596058
 42
-0.17654859
  0
VERTEX
  8
0
 10
12.59866848
 20
201.17041413
  0
VERTEX
  8
0
 10
12.66434502
 20
204.02482222
 42
-0.11645600
  0
VERTEX
  8
0
 10
12.89802213
 20
204.92172297
  0
VERTEX
  8
0
 10
13.68598056
 20
206.41066257
  0
SEQEND
  0
POLYLINE
  8
CYAN
 66
   1
 39
0.000000
 70
    1
  0
VERTEX
  8
0
 10
196.68793368
 20
46.29564081
 42
-0.15326662
  0
VERTEX
  8
0
 10
196.95271798
 20
58.49944268
 42
-0.05493522
  0
VERTEX
  8
0
 10
216.59709218
 20
103.86450455
 42
0.26194366
  0
VERTEX
  8
0
 10
217.39479880
 20
121.63985426
 42
0.12517675
  0
VERTEX
  8
0
 10
156.70873508
 20
192.35374861
 42
0.11420888
  0
VERTEX
  8
0
 10
124.90770868
 20
193.53184696
  0
VERTEX
  8
0
 10
122.75423538
 20
192.49503830
  0
VERTEX
  8
0
 10
122.11573452
 20
188.58882353
  0
VERTEX
  8
0
 10
124.74850293
 20
185.63838575
  0
VERTEX
  8
0
 10
130.00398265
 20
184.32523325
 42
0.01921347
  0
VERTEX
  8
0
 10
148.05629532
 20
182.73365975
 42
-0.18193941
  0
VERTEX
  8
0
 10
199.02575250
 20
121.98060841
 42
-0.27873077
  0
VERTEX
  8
0
 10
196.93093193
 20
106.14797621
 42
0.08186193
  0
VERTEX
  8
0
 10
172.77348158
 20
40.62124296
 42
0.35483433
  0
VERTEX
  8
0
 10
180.20757437
 20
27.62165435
 42
0.12431178
  0
VERTEX
  8
0
 10
295.41926107
 20
20.19361358
 42
0.37801869
  0
VERTEX
  8
0
 10
305.39726583
 20
37.97321711
  0
VERTEX
  8
0
 10
279.45293898
 20
36.92977564
  0
VERTEX
  8
0
 10
279.33137635
 20
39.95233210
  0
VERTEX
  8
0
 10
279.20981371
 20
42.97488855
  0
VERTEX
  8
0
 10
305.83354811
 20
44.04565477
 42
0.37495374
  0
VERTEX
  8
0
 10
293.05295280
 20
59.29522943
 42
-0.00368333
  0
VERTEX
  8
0
 10
277.92165878
 20
60.35697015
 42
0.29780258
  0
VERTEX
  8
0
 10
254.97403227
 20
64.37430907
 42
0.29780258
  0
VERTEX
  8
0
 10
242.08349763
 20
44.96898270
  0
VERTEX
  8
0
 10
237.03917300
 20
42.05074906
 42
-0.05486798
  0
VERTEX
  8
0
 10
203.32431985
 20
42.31670505
  0
VERTEX
  8
0
 10
196.68793368
 20
46.29564081
  0
SEQEND
  0
POLYLINE
  8
CYAN
 66
   1
 39
0.000000
 70
    1
  0
VERTEX
  8
0
 10
399.04240872
 20
241.83280241
 42
-0.20340780
  0
VERTEX
  8
0
 10
395.58838972
 20
242.28812866
 42
-0.20340780
  0
VERTEX
  8
0
 10
393.51608210
 20
245.08868403
 42
-0.20340780
  0
VERTEX
  8
0
 10
394.09049987
 20
248.52490483
 42
-0.20340780
  0
VERTEX
  8
0
 10
396.96099697
 20
250.49919348
 42
-0.12069288
  0
VERTEX
  8
0
 10
439.97684585
 20
262.63339009
 42
0.37941689
  0
VERTEX
  8
0
 10
449.14593494
 20
268.43454126
 42
0.37941689
  0
VERTEX
  8
0
 10
444.48657232
 20
278.23331106
 42
-0.10596531
  0
VERTEX
  8
0
 10
424.71315767
 20
311.51404445
 42
-0.23635084
  0
VERTEX
  8
0
 10
423.20166405
 20
315.89845748
 42
-0.23635084
  0
VERTEX
  8
0
 10
425.80641188
 20
319.73551096
 42
-0.23635084
  0
VERTEX
  8
0
 10
430.43913479
 20
319.94898014
 42
-0.23635084
  0
VERTEX
  8
0
 10
433.38570763
 20
316.36772349
 42
0.12857815
  0
VERTEX
  8
0
 10
449.34319973
 20
292.79330761
 42
0.02162377
  0
VERTEX
  8
0
 10
481.25650808
 20
285.16684096
 42
-0.10179725
  0
VERTEX
  8
0
 10
536.06702557
 20
257.08573571
  0
VERTEX
  8
0
 10
536.41392853
 20
250.84618316
  0
VERTEX
  8
0
 10
531.84575323
 20
238.16429888
  0
VERTEX
  8
0
 10
498.14380934
 20
252.24168846
  0
VERTEX
  8
0
 10
496.97788442
 20
249.45040845
  0
VERTEX
  8
0
 10
495.81195951
 20
246.65912844
  0
VERTEX
  8
0
 10
529.73605493
 20
232.48894559
  0
VERTEX
  8
0
 10
526.00686776
 20
223.45905325
 42
-0.21307433
  0
VERTEX
  8
0
 10
522.06272481
 20
216.91709168
 42
-0.21307433
  0
VERTEX
  8
0
 10
514.55910213
 20
215.48559893
 42
-0.06974564
  0
VERTEX
  8
0
 10
468.07590750
 20
228.65868138
 42
0.00944814
  0
VERTEX
  8
0
 10
434.42641452
 20
248.41934263
 42
0.13758822
  0
VERTEX
  8
0
 10
399.04240872
 20
241.83280241
  0
SEQEND
  0
POLYLINE
  8
CYAN
 66
   1
 39
0.000000
 70
    1
  0
VERTEX
  8
0
 10
153.74204919
 20
497.76097735
 42
0.30422118
  0
VERTEX
  8
0
 10
156.16198264
 20
517.23802468
  0
VERTEX
  8
0
 10
154.38055005
 20
523.41260427
  0
VERTEX
  8
0
 10
220.52319750
 20
523.41260427
  0
VERTEX
  8
0
 10
220.36064005
 20
529.46260427
  0
VERTEX
  8
0
 10
154.38055005
 20
529.46260427
  0
VERTEX
  8
0
 10
157.15073817
 20
534.50951427
 42
0.23311688
  0
VERTEX
  8
0
 10
151.12268757
 20
552.74405293
 42
-0.35131426
  0
VERTEX
  8
0
 10
151.93715269
 20
573.90929025
  0
VERTEX
  8
0
 10
153.05900015
 20
575.20458315
  0
VERTEX
  8
0
 10
168.22814095
 20
560.55855762
  0
VERTEX
  8
0
 10
172.42346102
 20
564.91767135
  0
VERTEX
  8
0
 10
156.87189165
 20
579.93293847
  0
VERTEX
  8
0
 10
158.12105734
 20
581.49420147
 42
-0.24599418
  0
VERTEX
  8
0
 10
176.20353530
 20
583.12213547
  0
VERTEX
  8
0
 10
198.68680545
 20
567.00381017
 42
0.34084283
  0
VERTEX
  8
0
 10
217.91053929
 20
567.65519148
  0
VERTEX
  8
0
 10
235.17855012
 20
595.00699948
 42
-0.26791376
  0
VERTEX
  8
0
 10
252.77335372
 20
599.56563415
  0
VERTEX
  8
0
 10
257.27164770
 20
597.46827460
  0
VERTEX
  8
0
 10
245.31175764
 20
575.86773777
  0
VERTEX
  8
0
 10
250.65507327
 20
573.02831345
  0
VERTEX
  8
0
 10
262.66069125
 20
594.71144085
  0
VERTEX
  8
0
 10
265.25009529
 20
593.35828575
 42
-0.15581036
  0
VERTEX
  8
0
 10
273.23219304
 20
580.33376508
  0
VERTEX
  8
0
 10
275.51303094
 20
576.26340575
  0
VERTEX
  8
0
 10
284.47382912
 20
574.14719440
  0
VERTEX
  8
0
 10
311.02775304
 20
590.75379705
 42
-0.35033851
  0
VERTEX
  8
0
 10
328.94934739
 20
587.00861110
  0
VERTEX
  8
0
 10
330.64823780
 20
583.79033578
  0
VERTEX
  8
0
 10
312.41851897
 20
571.98461585
  0
VERTEX
  8
0
 10
316.07878107
 20
567.14717702
  0
VERTEX
  8
0
 10
334.11296592
 20
578.83554510
  0
VERTEX
  8
0
 10
336.11698002
 20
575.12374708
 42
-0.26804194
  0
VERTEX
  8
0
 10
334.16125702
 20
560.14611903
  0
VERTEX
  8
0
 10
323.57320445
 20
551.02884970
  0
VERTEX
  8
0
 10
312.65668327
 20
543.70262237
 42
0.26393854
  0
VERTEX
  8
0
 10
302.71958491
 20
528.06154450
 42
0.26393854
  0
VERTEX
  8
0
 10
311.04953909
 20
511.50856578
  0
VERTEX
  8
0
 10
331.73796985
 20
497.50645183
 42
-0.40792885
  0
VERTEX
  8
0
 10
337.76602045
 20
476.83053045
  0
VERTEX
  8
0
 10
336.82483204
 20
475.00994832
  0
VERTEX
  8
0
 10
317.56042607
 20
486.91652578
  0
VERTEX
  8
0
 10
314.46995902
 20
481.71433447
  0
VERTEX
  8
0
 10
334.07845874
 20
469.59508538
  0
VERTEX
  8
0
 10
332.71667029
 20
467.38808975
 42
-0.33203872
  0
VERTEX
  8
0
 10
311.69977090
 20
462.66634910
  0
VERTEX
  8
0
 10
287.58924435
 20
477.15570182
 42
0.27491660
  0
VERTEX
  8
0
 10
277.83138386
 20
475.02525804
 42
0.27491660
  0
VERTEX
  8
0
 10
275.04546879
 20
465.43394378
 42
-0.17482423
  0
VERTEX
  8
0
 10
268.69062542
 20
458.75909575
  0
VERTEX
  8
0
 10
266.03028917
 20
456.99299992
  0
VERTEX
  8
0
 10
252.64427697
 20
478.01172237
  0
VERTEX
  8
0
 10
247.67540189
 20
474.55121312
  0
VERTEX
  8
0
 10
260.83164114
 20
453.89327838
  0
VERTEX
  8
0
 10
258.82151452
 20
452.82601603
 42
-0.31703678
  0
VERTEX
  8
0
 10
239.59778069
 20
455.75671468
  0
VERTEX
  8
0
 10
220.37404685
 20
481.48058667
 42
0.40501972
  0
VERTEX
  8
0
 10
199.35714747
 20
480.34092800
  0
VERTEX
  8
0
 10
179.31894852
 20
463.24604800
 42
-0.26759807
  0
VERTEX
  8
0
 10
163.35475302
 20
464.38570667
  0
VERTEX
  8
0
 10
159.74148530
 20
467.85329643
  0
VERTEX
  8
0
 10
175.78129169
 20
483.38032297
  0
VERTEX
  8
0
 10
171.17429332
 20
487.34094538
  0
VERTEX
  8
0
 10
155.53353687
 20
472.20021135
  0
VERTEX
  8
0
 10
150.15739394
 20
478.38678203
 42
-0.11106639
  0
VERTEX
  8
0
 10
149.66972159
 20
491.24819873
  0
VERTEX
  8
0
 10
153.74204919
 20
497.76097735
  0
SEQEND
  0
POLYLINE
  8
CYAN
 66
   1
 39
0.000000
 70
    1
  0
VERTEX
  8
0
 10
438.62275502
 20
376.40290200
 42
-0.23707639
  0
VERTEX
  8
0
 10
433.38234683
 20
390.08202610
 42
-0.23707639
  0
VERTEX
  8
0
 10
441.22870983
 20
402.45194534
 42
-0.27769652
  0
VERTEX
  8
0
 10
490.99643176
 20
404.49930218
 42
-0.27769652
  0
VERTEX
  8
0
 10
516.10926741
 20
361.48345276
 42
-0.27316802
  0
VERTEX
  8
0
 10
508.45536458
 20
347.38389322
 42
-0.27316802
  0
VERTEX
  8
0
 10
492.41267582
 20
347.27460023
 42
0.09612075
  0
VERTEX
  8
0
 10
438.62275502
 20
376.40290200
  0
SEQEND
  0
POLYLINE
  8
CYAN
 66
   1
 39
0.000000
 70
    1
  0
VERTEX
  8
0
 10
580.53652362
 20
20.48939612
 42
-0.27278587
  0
VERTEX
  8
0
 10
579.23434821
 20
14.86234899
 42
-0.27278587
  0
VERTEX
  8
0
 10
573.68060110
 20
13.27640664
 42
-0.19896033
  0
VERTEX
  8
0
 10
563.21488558
 20
24.45586485
 42
-0.06245614
  0
VERTEX
  8
0
 10
553.83344905
 20
46.81374270
 42
-0.08548611
  0
VERTEX
  8
0
 10
549.86837585
 20
93.92517337
 42
-0.26646819
  0
VERTEX
  8
0
 10
554.84849042
 20
111.16088184
 42
-0.26646819
  0
VERTEX
  8
0
 10
572.24103990
 20
115.56206465
 42
0.30185398
  0
VERTEX
  8
0
 10
581.35470006
 20
123.80119879
 42
0.30185398
  0
VERTEX
  8
0
 10
577.29374378
 20
135.39648952
 42
0.16668434
  0
VERTEX
  8
0
 10
562.85960337
 20
138.64197169
 42
-0.36450237
  0
VERTEX
  8
0
 10
557.80690150
 20
148.73890945
 42
-0.10413925
  0
VERTEX
  8
0
 10
561.77700225
 20
162.80335655
 42
-0.19586029
  0
VERTEX
  8
0
 10
570.07583565
 20
164.96735685
 42
0.28800894
  0
VERTEX
  8
0
 10
576.44303314
 20
176.30605179
 42
0.28800894
  0
VERTEX
  8
0
 10
568.99323453
 20
186.96474344
  0
VERTEX
  8
0
 10
559.61179598
 20
186.60425015
 42
-0.31992647
  0
VERTEX
  8
0
 10
552.75419762
 20
197.78370837
  0
VERTEX
  8
0
 10
556.00200500
 20
217.97862450
 42
-0.16038840
  0
VERTEX
  8
0
 10
563.58022088
 20
224.46958883
 42
-0.09902141
  0
VERTEX
  8
0
 10
572.24103990
 20
220.50208152
  0
VERTEX
  8
0
 10
574.04593640
 20
215.81462420
  0
VERTEX
  8
0
 10
579.09696443
 20
213.65062390
 42
0.24260103
  0
VERTEX
  8
0
 10
610.49243312
 20
227.35457772
  0
VERTEX
  8
0
 10
612.65763737
 20
234.56652862
 42
-0.39426958
  0
VERTEX
  8
0
 10
615.19700209
 20
247.40007870
 42
-0.39426958
  0
VERTEX
  8
0
 10
628.17438092
 20
245.74598683
 42
-0.07208702
  0
VERTEX
  8
0
 10
659.56817375
 20
203.55368412
  0
VERTEX
  8
0
 10
663.96394242
 20
200.17522497
 42
-0.09542344
  0
VERTEX
  8
0
 10
689.22410610
 20
186.11181645
 42
-0.24540232
  0
VERTEX
  8
0
 10
713.76197642
 20
120.83960872
 42
-0.39299041
  0
VERTEX
  8
0
 10
699.68814577
 20
110.74267095
 42
-0.07595265
  0
VERTEX
  8
0
 10
683.45078470
 20
122.64207715
 42
0.35367671
  0
VERTEX
  8
0
 10
674.78996568
 20
144.28000904
  0
VERTEX
  8
0
 10
661.79873817
 20
149.32795762
  0
VERTEX
  8
0
 10
640.50867322
 20
154.37694680
  0
VERTEX
  8
0
 10
628.96203243
 20
155.09793539
 42
0.31366514
  0
VERTEX
  8
0
 10
620.42913399
 20
148.99331134
 42
0.31366514
  0
VERTEX
  8
0
 10
623.18703518
 20
138.87052657
 42
-0.34635573
  0
VERTEX
  8
0
 10
706.18375852
 20
70.71332995
 42
-0.30617170
  0
VERTEX
  8
0
 10
694.78187539
 20
28.07961793
 42
-0.30617170
  0
VERTEX
  8
0
 10
650.97271288
 20
22.75105149
  0
VERTEX
  8
0
 10
646.64398023
 20
22.75105149
  0
VERTEX
  8
0
 10
639.42613865
 20
20.78927849
  0
VERTEX
  8
0
 10
597.29031470
 20
55.94022820
  0
VERTEX
  8
0
 10
593.16576753
 20
51.50223860
  0
VERTEX
  8
0
 10
634.66496813
 20
16.88238209
  0
VERTEX
  8
0
 10
626.08317770
 20
7.64702585
  0
VERTEX
  8
0
 10
613.37490318
 20
13.99739320
  0
VERTEX
  8
0
 10
587.75275590
 20
35.27379120
 42
0.27055493
  0
VERTEX
  8
0
 10
581.69365755
 20
35.66872661
 42
0.27055493
  0
VERTEX
  8
0
 10
578.37131937
 20
30.58633389
 42
0.12331865
  0
VERTEX
  8
0
 10
580.53652362
 20
20.48939612
  0
SEQEND
  0
POLYLINE
  8
CYAN
 66
   1
 39
0.000000
 70
    1
  0
VERTEX
  8
0
 10
763.68737502
 20
64.71479932
 42
-0.17012226
  0
VERTEX
  8
0
 10
756.78285285
 20
108.03013732
  0
VERTEX
  8
0
 10
773.65871277
 20
118.37952545
 42
0.34646856
  0
VERTEX
  8
0
 10
767.90550358
 20
147.12967399
  0
VERTEX
  8
0
 10
765.22078382
 20
163.61161034
 42
0.33685199
  0
VERTEX
  8
0
 10
754.09645723
 20
172.42864035
  0
VERTEX
  8
0
 10
746.80983925
 20
172.42864035
  0
VERTEX
  8
0
 10
747.19360890
 20
146.74632582
  0
VERTEX
  8
0
 10
741.14293332
 20
146.74632582
  0
VERTEX
  8
0
 10
740.76534677
 20
172.01482035
  0
VERTEX
  8
0
 10
733.76833422
 20
171.27859384
 42
0.16651817
  0
VERTEX
  8
0
 10
724.94495775
 20
160.16250735
  0
VERTEX
  8
0
 10
723.41154895
 20
147.12967399
 42
0.09454264
  0
VERTEX
  8
0
 10
748.34324603
 20
44.78168080
 42
0.33315167
  0
VERTEX
  8
0
 10
761.76852072
 20
38.26474584
 42
0.06863355
  0
VERTEX
  8
0
 10
815.08585182
 20
64.33144914
 42
-0.08536109
  0
VERTEX
  8
0
 10
835.79942033
 20
77.74763067
 42
-0.15405512
  0
VERTEX
  8
0
 10
907.14392433
 20
37.11469730
  0
VERTEX
  8
0
 10
912.12959220
 20
21.39842072
  0
VERTEX
  8
0
 10
914.81598782
 20
7.59889102
  0
VERTEX
  8
0
 10
919.41788603
 20
8.36558937
  0
VERTEX
  8
0
 10
921.33674033
 20
12.19908112
 42
0.04993023
  0
VERTEX
  8
0
 10
920.18542735
 20
35.58234120
  0
VERTEX
  8
0
 10
915.96562495
 20
44.01498245
 42
0.13733760
  0
VERTEX
  8
0
 10
843.08603832
 20
93.46390927
 42
0.23524199
  0
VERTEX
  8
0
 10
823.52378077
 20
93.46390927
 42
-0.09743647
  0
VERTEX
  8
0
 10
771.74153432
 20
64.33144914
  0
VERTEX
  8
0
 10
763.68737502
 20
64.71479932
  0
SEQEND
  0
POLYLINE
  8
CYAN
 66
   1
 39
0.000000
 70
    1
  0
VERTEX
  8
0
 10
1063.61181137
 20
127.32849589
  0
VERTEX
  8
0
 10
1056.34530358
 20
116.62692515
  0
VERTEX
  8
0
 10
1052.79416533
 20
111.12913689
  0
VERTEX
  8
0
 10
1056.56316408
 20
108.97656302
  0
VERTEX
  8
0
 10
1059.25458725
 20
108.43945814
 42
0.13198197
  0
VERTEX
  8
0
 10
1073.25300465
 20
122.96517135
  0
VERTEX
  8
0
 10
1079.71342657
 20
129.42185235
 42
0.08631363
  0
VERTEX
  8
0
 10
1080.78932630
 20
191.29378262
 42
0.00004109
  0
VERTEX
  8
0
 10
1070.02195571
 20
228.95550067
  0
VERTEX
  8
0
 10
1066.25463488
 20
232.72146415
  0
VERTEX
  8
0
 10
1054.40969078
 20
238.10185822
 42
-0.12407804
  0
VERTEX
  8
0
 10
1001.64874390
 20
258.00796550
 42
-0.20144426
  0
VERTEX
  8
0
 10
1001.64874390
 20
269.30689710
  0
VERTEX
  8
0
 10
1023.72310665
 20
293.51710950
  0
VERTEX
  8
0
 10
1030.18352857
 20
294.59339643
  0
VERTEX
  8
0
 10
1046.87169328
 20
289.75114583
 42
0.17339692
  0
VERTEX
  8
0
 10
1063.56153587
 20
299.97379050
  0
VERTEX
  8
0
 10
1065.44701491
 20
312.52031435
 42
0.13485845
  0
VERTEX
  8
0
 10
1078.16158543
 20
329.20390368
  0
VERTEX
  8
0
 10
1076.82257725
 20
337.61161288
  0
VERTEX
  8
0
 10
1070.78690163
 20
342.88725927
  0
VERTEX
  8
0
 10
1054.24111762
 20
325.98508588
  0
VERTEX
  8
0
 10
1049.86141977
 20
330.15968067
  0
VERTEX
  8
0
 10
1067.07077585
 20
347.73972025
  0
VERTEX
  8
0
 10
1063.62856987
 20
351.17947195
 42
0.17830926
  0
VERTEX
  8
0
 10
1047.18507925
 20
352.13524893
 42
0.11939769
  0
VERTEX
  8
0
 10
975.02611013
 20
262.20714547
 42
0.22373064
  0
VERTEX
  8
0
 10
977.70412650
 20
247.87466522
 42
0.09013299
  0
VERTEX
  8
0
 10
1049.60166302
 20
220.35767609
  0
VERTEX
  8
0
 10
1055.91125642
 20
217.30023195
 42
-0.11726325
  0
VERTEX
  8
0
 10
1070.11245167
 20
140.70519915
 42
-0.08546598
  0
VERTEX
  8
0
 10
1063.61181137
 20
127.32849589
  0
SEQEND
  0
POLYLINE
  8
CYAN
 66
   1
 39
0.000000
 70
    1
  0
VERTEX
  8
0
 10
588.49851117
 20
403.37209797
 42
-0.01813942
  0
VERTEX
  8
0
 10
669.02167183
 20
397.42135427
 42
-0.07212280
  0
VERTEX
  8
0
 10
743.02240615
 20
375.60473563
 42
0.36066045
  0
VERTEX
  8
0
 10
749.49961009
 20
377.64545904
 42
0.36066045
  0
VERTEX
  8
0
 10
748.69350070
 20
384.38852292
 42
0.09279561
  0
VERTEX
  8
0
 10
685.46683830
 20
411.02245808
 42
0.04524257
  0
VERTEX
  8
0
 10
585.09652558
 20
415.27254477
 42
0.27383136
  0
VERTEX
  8
0
 10
583.27464500
 20
408.31523612
 42
0.27383136
  0
VERTEX
  8
0
 10
588.49851117
 20
403.37209797
  0
SEQEND
  0
POLYLINE
  8
CYAN
 66
   1
 39
0.000000
 70
    1
  0
VERTEX
  8
0
 10
621.10562343
 20
367.67075958
  0
VERTEX
  8
0
 10
660.23181237
 20
362.00363182
 42
0.33848570
  0
VERTEX
  8
0
 10
662.78413998
 20
368.23695287
  0
VERTEX
  8
0
 10
655.41205365
 20
385.23833213
 42
0.07163957
  0
VERTEX
  8
0
 10
634.14712847
 20
388.07137572
 42
0.11554924
  0
VERTEX
  8
0
 10
619.68785030
 20
374.47131048
 42
0.28050268
  0
VERTEX
  8
0
 10
621.10562343
 20
367.67075958
  0
SEQEND
  0
POLYLINE
  8
CYAN
 66
   1
 39
0.000000
 70
    1
  0
VERTEX
  8
0
 10
676.88146643
 20
358.38830614
 42
0.07163957
  0
VERTEX
  8
0
 10
697.73376643
 20
353.34799231
 42
0.11554924
  0
VERTEX
  8
0
 10
713.53542908
 20
365.36214884
 42
0.28050268
  0
VERTEX
  8
0
 10
712.83627379
 20
372.27364326
  0
VERTEX
  8
0
 10
674.51679837
 20
381.99952631
 42
0.33848570
  0
VERTEX
  8
0
 10
671.32689320
 20
376.06714293
  0
VERTEX
  8
0
 10
676.88146643
 20
358.38830614
  0
SEQEND
  0
POLYLINE
  8
CYAN
 66
   1
 39
0.000000
 70
    1
  0
VERTEX
  8
0
 10
807.59310227
 20
407.83203898
 42
-0.27320735
  0
VERTEX
  8
0
 10
806.41140288
 20
412.08582884
 42
-0.27320735
  0
VERTEX
  8
0
 10
809.56558377
 20
415.17488768
  0
VERTEX
  8
0
 10
862.43378505
 20
411.95122383
 42
-0.23638714
  0
VERTEX
  8
0
 10
874.79992052
 20
395.29475507
 42
-0.29375412
  0
VERTEX
  8
0
 10
874.30052496
 20
391.93625234
 42
-0.29375412
  0
VERTEX
  8
0
 10
871.03762517
 20
390.99687943
 42
-0.10821825
  0
VERTEX
  8
0
 10
807.59310227
 20
407.83203898
  0
SEQEND
  0
POLYLINE
  8
CYAN
 66
   1
 39
0.000000
 70
    1
  0
VERTEX
  8
0
 10
597.32021178
 20
519.32826338
  0
VERTEX
  8
0
 10
582.57771497
 20
515.36179465
 42
0.36670501
  0
VERTEX
  8
0
 10
558.52953554
 20
479.25496521
 42
0.36670501
  0
VERTEX
  8
0
 10
590.19950497
 20
449.60650652
 42
0.00175981
  0
VERTEX
  8
0
 10
904.32345867
 20
453.88671817
 42
0.01927182
  0
VERTEX
  8
0
 10
1003.13690273
 20
458.73208653
 42
-0.05409093
  0
VERTEX
  8
0
 10
1067.21489895
 20
459.58189575
  0
VERTEX
  8
0
 10
1079.97318332
 20
460.71532090
  0
VERTEX
  8
0
 10
1083.94328407
 20
466.66606258
  0
VERTEX
  8
0
 10
1084.79461990
 20
476.58223643
  0
VERTEX
  8
0
 10
1060.69414643
 20
478.84908673
  0
VERTEX
  8
0
 10
1061.45226588
 20
484.85448210
  0
VERTEX
  8
0
 10
1085.36117215
 20
482.60564870
  0
VERTEX
  8
0
 10
1086.11017425
 20
490.64999490
 42
0.03959939
  0
VERTEX
  8
0
 10
1087.06205100
 20
511.71738153
 42
0.22226842
  0
VERTEX
  8
0
 10
1078.18115209
 20
521.91343033
 42
0.22226842
  0
VERTEX
  8
0
 10
1064.66257133
 20
521.63459195
 42
0.09948294
  0
VERTEX
  8
0
 10
1055.30627255
 20
507.75091280
  0
VERTEX
  8
0
 10
1050.48651383
 20
505.20044455
 42
0.05030768
  0
VERTEX
  8
0
 10
1028.93836798
 20
506.90006298
 42
-0.10499141
  0
VERTEX
  8
0
 10
1017.59785675
 20
517.10089135
 42
0.21696868
  0
VERTEX
  8
0
 10
983.28975270
 20
576.88673927
 42
0.13912166
  0
VERTEX
  8
0
 10
912.81669272
 20
598.22650900
 42
0.10393619
  0
VERTEX
  8
0
 10
829.74288028
 20
585.47625298
 42
0.01245058
  0
VERTEX
  8
0
 10
762.90139935
 20
558.14626330
 42
-0.04080703
  0
VERTEX
  8
0
 10
597.32021178
 20
519.32826338
  0
SEQEND
  0
POLYLINE
  8
CYAN
 66
   1
 39
0.000000
 70
    1
  0
VERTEX
  8
0
 10
619.68785030
 20
504.57503588
 42
0.11554924
  0
VERTEX
  8
0
 10
634.14712847
 20
490.97497065
 42
0.07163957
  0
VERTEX
  8
0
 10
655.41205365
 20
493.80801423
  0
VERTEX
  8
0
 10
662.78413998
 20
510.80939350
 42
0.33848570
  0
VERTEX
  8
0
 10
660.23181237
 20
517.04271455
  0
VERTEX
  8
0
 10
621.10562343
 20
511.37558678
 42
0.28050268
  0
VERTEX
  8
0
 10
619.68785030
 20
504.57503588
  0
SEQEND
  0
POLYLINE
  8
CYAN
 66
   1
 39
0.000000
 70
    1
  0
VERTEX
  8
0
 10
809.56558377
 20
463.87145868
 42
-0.27320735
  0
VERTEX
  8
0
 10
806.41140288
 20
466.96051753
 42
-0.27320735
  0
VERTEX
  8
0
 10
807.59310227
 20
471.21430738
 42
-0.10821825
  0
VERTEX
  8
0
 10
871.03762517
 20
488.04946693
 42
-0.29375412
  0
VERTEX
  8
0
 10
874.30052496
 20
487.11009403
 42
-0.29375412
  0
VERTEX
  8
0
 10
874.79992052
 20
483.75159130
 42
-0.23638714
  0
VERTEX
  8
0
 10
862.43378505
 20
467.09512253
  0
VERTEX
  8
0
 10
809.56558377
 20
463.87145868
  0
SEQEND
  0
POLYLINE
  8
CYAN
 66
   1
 39
0.000000
 70
    1
  0
VERTEX
  8
0
 10
585.09652558
 20
463.77380160
 42
-0.27383136
  0
VERTEX
  8
0
 10
583.27464500
 20
470.73111025
 42
-0.27383136
  0
VERTEX
  8
0
 10
588.49851117
 20
475.67424840
 42
0.01813942
  0
VERTEX
  8
0
 10
669.02167183
 20
481.62499210
 42
0.07212280
  0
VERTEX
  8
0
 10
743.02240615
 20
503.44161073
 42
-0.36066045
  0
VERTEX
  8
0
 10
749.49961009
 20
501.40088733
 42
-0.36066045
  0
VERTEX
  8
0
 10
748.69350070
 20
494.65782345
 42
-0.09279561
  0
VERTEX
  8
0
 10
685.46683830
 20
468.02388828
 42
-0.04524257
  0
VERTEX
  8
0
 10
585.09652558
 20
463.77380160
  0
SEQEND
  0
POLYLINE
  8
CYAN
 66
   1
 39
0.000000
 70
    1
  0
VERTEX
  8
0
 10
674.51679837
 20
497.04682006
  0
VERTEX
  8
0
 10
712.83627379
 20
506.77270311
 42
0.28050268
  0
VERTEX
  8
0
 10
713.53542908
 20
513.68419753
 42
0.11554924
  0
VERTEX
  8
0
 10
697.73376643
 20
525.69835405
 42
0.07163957
  0
VERTEX
  8
0
 10
676.88146643
 20
520.65804023
  0
VERTEX
  8
0
 10
671.32689320
 20
502.97920344
 42
0.33848570
  0
VERTEX
  8
0
 10
674.51679837
 20
497.04682006
  0
SEQEND
  0
POLYLINE
  8
CYAN
 66
   1
 39
0.000000
 70
    1
  0
VERTEX
  8
0
 10
579.09696443
 20
665.39572247
 42
-0.24260103
  0
VERTEX
  8
0
 10
610.49243312
 20
651.69176865
  0
VERTEX
  8
0
 10
612.65763737
 20
644.47981775
 42
0.39426958
  0
VERTEX
  8
0
 10
615.19700209
 20
631.64626767
 42
0.39426958
  0
VERTEX
  8
0
 10
628.17438092
 20
633.30035953
 42
0.07208702
  0
VERTEX
  8
0
 10
659.56817375
 20
675.49266225
  0
VERTEX
  8
0
 10
663.96394242
 20
678.87112140
 42
0.09542344
  0
VERTEX
  8
0
 10
689.22410610
 20
692.93452992
 42
0.24540232
  0
VERTEX
  8
0
 10
713.76197642
 20
758.20673765
 42
0.39299041
  0
VERTEX
  8
0
 10
699.68814577
 20
768.30367542
 42
0.07595265
  0
VERTEX
  8
0
 10
683.45078470
 20
756.40426922
 42
-0.20777849
  0
VERTEX
  8
0
 10
681.82132983
 20
741.72689775
 42
-0.20777849
  0
VERTEX
  8
0
 10
669.98319822
 20
732.89859120
  0
VERTEX
  8
0
 10
661.79873817
 20
729.71838875
  0
VERTEX
  8
0
 10
640.50867322
 20
724.66939957
  0
VERTEX
  8
0
 10
628.96203243
 20
723.94841098
 42
-0.31366514
  0
VERTEX
  8
0
 10
620.42913399
 20
730.05303503
 42
-0.31366514
  0
VERTEX
  8
0
 10
623.18703518
 20
740.17581980
 42
0.34635573
  0
VERTEX
  8
0
 10
706.18375852
 20
808.33301642
 42
0.30617170
  0
VERTEX
  8
0
 10
694.78187539
 20
850.96672844
 42
0.30617170
  0
VERTEX
  8
0
 10
650.97271288
 20
856.29529488
  0
VERTEX
  8
0
 10
646.64398023
 20
856.29529488
  0
VERTEX
  8
0
 10
639.42613865
 20
858.25706788
  0
VERTEX
  8
0
 10
597.29031470
 20
823.10611817
  0
VERTEX
  8
0
 10
593.16576753
 20
827.54410777
  0
VERTEX
  8
0
 10
634.66496813
 20
862.16396428
  0
VERTEX
  8
0
 10
626.08317770
 20
871.39932052
  0
VERTEX
  8
0
 10
613.37490318
 20
865.04895317
  0
VERTEX
  8
0
 10
587.75275590
 20
843.77255517
 42
-0.27055493
  0
VERTEX
  8
0
 10
581.69365755
 20
843.37761976
 42
-0.27055493
  0
VERTEX
  8
0
 10
578.37131937
 20
848.46001248
 42
-0.12331865
  0
VERTEX
  8
0
 10
580.53652362
 20
858.55695025
 42
0.27278587
  0
VERTEX
  8
0
 10
579.23434821
 20
864.18399737
 42
0.27278587
  0
VERTEX
  8
0
 10
573.68060110
 20
865.76993973
 42
0.19896033
  0
VERTEX
  8
0
 10
563.21488558
 20
854.59048152
 42
0.06245614
  0
VERTEX
  8
0
 10
553.83344905
 20
832.23260367
 42
0.08548611
  0
VERTEX
  8
0
 10
549.86837585
 20
785.12117300
 42
0.26646819
  0
VERTEX
  8
0
 10
554.84849042
 20
767.88546453
 42
0.26646819
  0
VERTEX
  8
0
 10
572.24103990
 20
763.48428172
 42
-0.30185398
  0
VERTEX
  8
0
 10
581.35470006
 20
755.24514758
 42
-0.30185398
  0
VERTEX
  8
0
 10
577.29374378
 20
743.64985685
 42
-0.16668434
  0
VERTEX
  8
0
 10
562.85960337
 20
740.40437468
 42
0.36450237
  0
VERTEX
  8
0
 10
557.80690150
 20
730.30743692
 42
0.10413925
  0
VERTEX
  8
0
 10
561.77700225
 20
716.24298982
 42
0.19586029
  0
VERTEX
  8
0
 10
570.07583565
 20
714.07898952
 42
-0.28800894
  0
VERTEX
  8
0
 10
576.44303314
 20
702.74029458
 42
-0.28800894
  0
VERTEX
  8
0
 10
568.99323453
 20
692.08160293
  0
VERTEX
  8
0
 10
559.61179598
 20
692.44209622
 42
0.31992647
  0
VERTEX
  8
0
 10
552.75419762
 20
681.26263800
  0
VERTEX
  8
0
 10
556.00200500
 20
661.06772187
 42
0.16038840
  0
VERTEX
  8
0
 10
563.58022088
 20
654.57675753
 42
0.09902141
  0
VERTEX
  8
0
 10
572.24103990
 20
658.54426485
  0
VERTEX
  8
0
 10
574.04593640
 20
663.23172217
  0
VERTEX
  8
0
 10
579.09696443
 20
665.39572247
  0
SEQEND
  0
POLYLINE
  8
CYAN
 66
   1
 39
0.000000
 70
    1
  0
VERTEX
  8
0
 10
447.39711052
 20
855.02889275
  0
VERTEX
  8
0
 10
446.64625712
 20
852.30324877
  0
VERTEX
  8
0
 10
470.30940029
 20
845.42646383
  0
VERTEX
  8
0
 10
468.62104897
 20
839.61681823
  0
VERTEX
  8
0
 10
444.76320269
 20
846.55018680
  0
VERTEX
  8
0
 10
440.00658782
 20
833.97793187
 42
0.38987756
  0
VERTEX
  8
0
 10
447.95181687
 20
814.03442550
  0
VERTEX
  8
0
 10
463.47358797
 20
807.94135555
  0
VERTEX
  8
0
 10
469.75469192
 20
804.80184115
 42
0.21096160
  0
VERTEX
  8
0
 10
494.84707786
 20
796.36968916
 42
0.21096160
  0
VERTEX
  8
0
 10
517.98245044
 20
809.23373033
 42
0.28711163
  0
VERTEX
  8
0
 10
518.57312867
 20
814.90299818
 42
0.28711163
  0
VERTEX
  8
0
 10
513.73248274
 20
817.91259045
  0
VERTEX
  8
0
 10
506.52630555
 20
817.35886218
 42
-0.27089034
  0
VERTEX
  8
0
 10
500.99478268
 20
819.82348630
 42
-0.27089034
  0
VERTEX
  8
0
 10
500.42954510
 20
825.85280002
 42
0.14651877
  0
VERTEX
  8
0
 10
504.12480444
 20
837.11640970
 42
-0.33903268
  0
VERTEX
  8
0
 10
507.51949398
 20
842.06156511
 42
-0.33903268
  0
VERTEX
  8
0
 10
513.17777437
 20
840.07100182
  0
VERTEX
  8
0
 10
518.90752367
 20
834.71658040
 42
0.26868591
  0
VERTEX
  8
0
 10
525.27689273
 20
834.84978990
 42
0.26868591
  0
VERTEX
  8
0
 10
528.33085645
 20
840.44084638
 42
0.23198986
  0
VERTEX
  8
0
 10
517.92076984
 20
864.78660747
 42
0.23198986
  0
VERTEX
  8
0
 10
492.29829469
 20
871.46304015
  0
VERTEX
  8
0
 10
486.75456675
 20
872.38660895
  0
VERTEX
  8
0
 10
471.23279767
 20
877.18730412
 42
0.37616915
  0
VERTEX
  8
0
 10
452.20178659
 20
868.69336830
 42
-0.01684553
  0
VERTEX
  8
0
 10
447.39711052
 20
855.02889275
  0
SEQEND
  0
POLYLINE
  8
CYAN
 66
   1
 39
0.000000
 70
    1
  0
VERTEX
  8
0
 10
2.25145038
 20
748.53989683
 42
-0.31987966
  0
VERTEX
  8
0
 10
0.43786366
 20
755.73498007
 42
-0.31987966
  0
VERTEX
  8
0
 10
6.64721944
 20
759.79727257
  0
VERTEX
  8
0
 10
10.49330729
 20
758.97343600
  0
VERTEX
  8
0
 10
15.43875475
 20
754.85424913
 42
0.26731082
  0
VERTEX
  8
0
 10
22.16461437
 20
755.73470164
 42
0.26731082
  0
VERTEX
  8
0
 10
24.77997089
 20
761.99347903
 42
-0.03494563
  0
VERTEX
  8
0
 10
21.24604085
 20
771.97760850
  0
VERTEX
  8
0
 10
37.99675652
 20
778.60752923
  0
VERTEX
  8
0
 10
35.77022947
 20
784.23292410
  0
VERTEX
  8
0
 10
19.02685245
 20
777.60590938
 42
-0.09562877
  0
VERTEX
  8
0
 10
14.74339397
 20
804.85755157
  0
VERTEX
  8
0
 10
39.03311547
 20
806.82185952
  0
VERTEX
  8
0
 10
38.54544514
 20
812.85217282
  0
VERTEX
  8
0
 10
14.64272399
 20
810.93023302
 42
-0.11185824
  0
VERTEX
  8
0
 10
26.13911549
 20
841.88521128
  0
VERTEX
  8
0
 10
51.73274912
 20
829.60006313
  0
VERTEX
  8
0
 10
54.35080595
 20
835.05426115
  0
VERTEX
  8
0
 10
29.19574085
 20
847.12889350
 42
-0.32642939
  0
VERTEX
  8
0
 10
49.52562401
 20
862.86029816
 42
-0.32642939
  0
VERTEX
  8
0
 10
70.69002079
 20
848.27093385
  0
VERTEX
  8
0
 10
97.96937399
 20
833.96099590
  0
VERTEX
  8
0
 10
69.04265620
 20
795.27940533
  0
VERTEX
  8
0
 10
73.88773014
 20
791.65618133
  0
VERTEX
  8
0
 10
103.60808692
 20
831.39904677
 42
-0.22552701
  0
VERTEX
  8
0
 10
127.28867627
 20
807.91018998
  0
VERTEX
  8
0
 10
129.48572167
 20
800.22242877
 42
0.21569187
  0
VERTEX
  8
0
 10
135.24489393
 20
793.86109151
 42
0.21569187
  0
VERTEX
  8
0
 10
143.82503048
 20
793.98731997
 42
0.21569187
  0
VERTEX
  8
0
 10
149.39457855
 20
800.51532204
 42
0.21569187
  0
VERTEX
  8
0
 10
148.16815394
 20
809.00829322
  0
VERTEX
  8
0
 10
145.97110854
 20
813.40070413
 42
-0.37176279
  0
VERTEX
  8
0
 10
159.70809334
 20
833.16967808
  0
VERTEX
  8
0
 10
200.92072157
 20
835.91545647
 42
-0.27385662
  0
VERTEX
  8
0
 10
226.94493527
 20
839.94231410
 42
-0.27385662
  0
VERTEX
  8
0
 10
242.98862015
 20
819.05989430
  0
VERTEX
  8
0
 10
209.77736699
 20
818.34079533
  0
VERTEX
  8
0
 10
209.90833134
 20
812.29221305
  0
VERTEX
  8
0
 10
242.87742922
 20
813.00870648
  0
VERTEX
  8
0
 10
242.87742922
 20
805.97786032
 42
0.35692489
  0
VERTEX
  8
0
 10
251.39580099
 20
792.52427768
  0
VERTEX
  8
0
 10
259.63765549
 20
791.97470778
 42
-0.28163285
  0
VERTEX
  8
0
 10
268.26340297
 20
787.44121788
 42
-0.28163285
  0
VERTEX
  8
0
 10
268.15435140
 20
777.69728858
  0
VERTEX
  8
0
 10
237.65714034
 20
747.77008230
  0
VERTEX
  8
0
 10
241.89048465
 20
743.44789575
  0
VERTEX
  8
0
 10
272.38769572
 20
773.37510203
 42
-0.34132913
  0
VERTEX
  8
0
 10
286.26591172
 20
770.53273540
 42
0.40046476
  0
VERTEX
  8
0
 10
301.94796950
 20
758.20361988
 42
-0.22566683
  0
VERTEX
  8
0
 10
308.29068820
 20
754.00445818
 42
-0.22566683
  0
VERTEX
  8
0
 10
309.03650645
 20
746.43433305
  0
VERTEX
  8
0
 10
282.99069784
 20
707.95786975
  0
VERTEX
  8
0
 10
288.00074720
 20
704.56642327
  0
VERTEX
  8
0
 10
314.04655784
 20
743.04288858
 42
-0.27427661
  0
VERTEX
  8
0
 10
325.65629205
 20
741.00796907
  0
VERTEX
  8
0
 10
327.03049309
 20
728.37822502
 42
0.24349869
  0
VERTEX
  8
0
 10
335.54718900
 20
718.76852400
  0
VERTEX
  8
0
 10
368.51628689
 20
714.92464238
 42
-0.19882137
  0
VERTEX
  8
0
 10
400.11285757
 20
698.17571147
  0
VERTEX
  8
0
 10
445.44641507
 20
649.85190113
 42
0.05686580
  0
VERTEX
  8
0
 10
512.29627525
 20
605.47793817
  0
VERTEX
  8
0
 10
518.61424790
 20
606.30177473
 42
-0.26977155
  0
VERTEX
  8
0
 10
524.49017737
 20
603.47273111
 42
-0.26977155
  0
VERTEX
  8
0
 10
524.93389842
 20
596.96633837
  0
VERTEX
  8
0
 10
516.74851148
 20
580.18566347
  0
VERTEX
  8
0
 10
398.00128052
 20
645.01588405
  0
VERTEX
  8
0
 10
395.10003327
 20
639.70690418
  0
VERTEX
  8
0
 10
513.82312989
 20
574.82720633
  0
VERTEX
  8
0
 10
504.32758430
 20
557.15516440
 42
-0.31605930
  0
VERTEX
  8
0
 10
496.17716162
 20
555.32577100
 42
-0.31605930
  0
VERTEX
  8
0
 10
491.68995912
 20
562.37141390
 42
0.14284511
  0
VERTEX
  8
0
 10
336.01475317
 20
604.48580068
 42
-0.15405703
  0
VERTEX
  8
0
 10
293.15475834
 20
633.86343707
  0
VERTEX
  8
0
 10
276.94421087
 20
650.88663263
 42
0.30381824
  0
VERTEX
  8
0
 10
258.56761211
 20
654.04366672
 42
0.30381824
  0
VERTEX
  8
0
 10
248.64572307
 20
638.25688858
 42
-0.29600307
  0
VERTEX
  8
0
 10
239.78198935
 20
615.90894955
  0
VERTEX
  8
0
 10
187.37813537
 20
646.21891445
  0
VERTEX
  8
0
 10
183.84549802
 20
641.30740143
  0
VERTEX
  8
0
 10
236.89736030
 20
610.58863706
  0
VERTEX
  8
0
 10
233.37127395
 20
605.68565282
 42
-0.41299690
  0
VERTEX
  8
0
 10
202.76416262
 20
603.93622877
  0
VERTEX
  8
0
 10
125.37652537
 20
658.55257755
 42
-0.31925662
  0
VERTEX
  8
0
 10
122.35495774
 20
685.18547413
  0
VERTEX
  8
0
 10
129.77229202
 20
695.34370848
 42
0.41177963
  0
VERTEX
  8
0
 10
123.41409897
 20
735.36058043
 42
0.37182123
  0
VERTEX
  8
0
 10
71.76089297
 20
735.63484710
 42
-0.33855047
  0
VERTEX
  8
0
 10
13.78971432
 20
733.98821255
  0
VERTEX
  8
0
 10
2.25145038
 20
748.53989683
  0
SEQEND
  0
POLYLINE
  8
CYAN
 66
   1
 39
0.000000
 70
    1
  0
VERTEX
  8
0
 10
521.16322382
 20
765.50179942
 42
0.31556119
  0
VERTEX
  8
0
 10
492.10389609
 20
784.03449620
 42
0.22353898
  0
VERTEX
  8
0
 10
433.60314682
 20
750.21769853
 42
0.20303387
  0
VERTEX
  8
0
 10
426.44172389
 20
696.85494329
 42
0.20303387
  0
VERTEX
  8
0
 10
459.78503002
 20
654.58091388
 42
0.14150997
  0
VERTEX
  8
0
 10
497.83029369
 20
643.30899352
  0
VERTEX
  8
0
 10
500.38354695
 20
643.45252170
  0
VERTEX
  8
0
 10
499.74244459
 20
675.59758942
  0
VERTEX
  8
0
 10
505.79389457
 20
675.58485013
  0
VERTEX
  8
0
 10
506.42059390
 20
644.08968753
 42
0.17944292
  0
VERTEX
  8
0
 10
520.58170185
 20
652.28809093
 42
0.15155322
  0
VERTEX
  8
0
 10
521.16322382
 20
765.50179942
  0
SEQEND
  0
POLYLINE
  8
CYAN
 66
   1
 39
0.000000
 70
    1
  0
VERTEX
  8
0
 10
524.64104598
 20
319.80539803
 42
0.20540454
  0
VERTEX
  8
0
 10
528.43182876
 20
382.08561254
 42
0.28287830
  0
VERTEX
  8
0
 10
471.08742003
 20
427.31665884
 42
0.25694701
  0
VERTEX
  8
0
 10
405.92179515
 20
391.08444909
 42
0.21782525
  0
VERTEX
  8
0
 10
401.89303965
 20
364.79853816
 42
0.19440018
  0
VERTEX
  8
0
 10
503.55040920
 20
303.93848249
 42
0.34943493
  0
VERTEX
  8
0
 10
519.75877791
 20
312.69114729
  0
VERTEX
  8
0
 10
492.45847074
 20
328.45597280
  0
VERTEX
  8
0
 10
495.48390048
 20
333.69517835
  0
VERTEX
  8
0
 10
523.28990578
 20
317.63833259
  0
VERTEX
  8
0
 10
524.64104598
 20
319.80539803
  0
SEQEND
  0
POLYLINE
  8
CYAN
 66
   1
 39
0.000000
 70
    1
  0
VERTEX
  8
0
 10
14.27711203
 20
92.42960833
  0
VERTEX
  8
0
 10
73.75338165
 20
92.50068252
  0
VERTEX
  8
0
 10
73.76061140
 20
86.45068684
  0
VERTEX
  8
0
 10
14.33829393
 20
86.37967712
 42
0.25108891
  0
VERTEX
  8
0
 10
22.58061513
 20
27.71460231
 42
0.25108891
  0
VERTEX
  8
0
 10
75.99620135
 20
2.09621026
  0
VERTEX
  8
0
 10
92.64582152
 20
1.87180971
 42
0.28702580
  0
VERTEX
  8
0
 10
160.73617541
 20
44.20182080
  0
VERTEX
  8
0
 10
75.29504870
 20
22.87842966
  0
VERTEX
  8
0
 10
74.56257117
 20
25.81340865
  0
VERTEX
  8
0
 10
73.83009365
 20
28.74838764
  0
VERTEX
  8
0
 10
162.38192709
 20
50.84811237
 42
0.11373269
  0
VERTEX
  8
0
 10
164.36264310
 20
68.99994709
  0
VERTEX
  8
0
 10
96.60222451
 20
54.39396738
  0
VERTEX
  8
0
 10
95.96481577
 20
57.35104958
  0
VERTEX
  8
0
 10
95.32740704
 20
60.30813177
  0
VERTEX
  8
0
 10
165.46818079
 20
75.42720482
 42
0.16297258
  0
VERTEX
  8
0
 10
164.74947564
 20
106.70294964
  0
VERTEX
  8
0
 10
94.58980457
 20
120.81779477
  0
VERTEX
  8
0
 10
95.18642527
 20
123.78337544
  0
VERTEX
  8
0
 10
95.78304597
 20
126.74895612
  0
VERTEX
  8
0
 10
161.74729603
 20
113.47815312
 42
0.14636430
  0
VERTEX
  8
0
 10
160.52613476
 20
132.13483262
  0
VERTEX
  8
0
 10
71.09247328
 20
152.74051851
  0
VERTEX
  8
0
 10
71.77164520
 20
155.68828894
  0
VERTEX
  8
0
 10
72.45081712
 20
158.63605937
  0
VERTEX
  8
0
 10
158.07850520
 20
138.90727699
 42
0.16894859
  0
VERTEX
  8
0
 10
137.19004963
 20
164.57495985
 42
0.27392091
  0
VERTEX
  8
0
 10
38.41012260
 20
171.54588883
 42
0.36356910
  0
VERTEX
  8
0
 10
14.27711203
 20
92.42960833
  0
SEQEND
  0
ENDSEC
  0
EOF
