  0
SECTION
  2
HEADER
  9
$ACADVER
  1
AC1021
  9
$ACADMAINTVER
 70
    25
  9
$DWGCODEPAGE
  3
ANSI_1251
  9
$INSBASE
 10
0.0
 20
0.0
 30
0.0
  9
$EXTMIN
 10
837.4846
 20
-363.1844
 30
0.0
  9
$EXTMAX
 10
897.486
 20
-288.0104
 30
0.0
  9
$LIMMIN
 10
0.0
 20
0.0
  9
$LIMMAX
 10
12.0
 20
9.0
  9
$ORTHOMODE
 70
     0
  9
$REGENMODE
 70
     1
  9
$FILLMODE
 70
     1
  9
$QTEXTMODE
 70
     0
  9
$MIRRTEXT
 70
     1
  9
$LTSCALE
 40
1.0
  9
$ATTMODE
 70
     1
  9
$TEXTSIZE
 40
0.2
  9
$TRACEWID
 40
0.05
  9
$TEXTSTYLE
  7
Standard
  9
$CLAYER
  8
0
  9
$CELTYPE
  6
ByLayer
  9
$CECOLOR
 62
   256
  9
$CELTSCALE
 40
1.0
  9
$DISPSILH
 70
     0
  9
$DIMSCALE
 40
1.0
  9
$DIMASZ
 40
0.18
  9
$DIMEXO
 40
0.0625
  9
$DIMDLI
 40
0.38
  9
$DIMRND
 40
0.0
  9
$DIMDLE
 40
0.0
  9
$DIMEXE
 40
0.18
  9
$DIMTP
 40
0.0
  9
$DIMTM
 40
0.0
  9
$DIMTXT
 40
0.18
  9
$DIMCEN
 40
0.09
  9
$DIMTSZ
 40
0.0
  9
$DIMTOL
 70
     0
  9
$DIMLIM
 70
     0
  9
$DIMTIH
 70
     1
  9
$DIMTOH
 70
     1
  9
$DIMSE1
 70
     0
  9
$DIMSE2
 70
     0
  9
$DIMTAD
 70
     0
  9
$DIMZIN
 70
     0
  9
$DIMBLK
  1

  9
$DIMASO
 70
     1
  9
$DIMSHO
 70
     1
  9
$DIMPOST
  1

  9
$DIMAPOST
  1

  9
$DIMALT
 70
     0
  9
$DIMALTD
 70
     2
  9
$DIMALTF
 40
25.4
  9
$DIMLFAC
 40
1.0
  9
$DIMTOFL
 70
     0
  9
$DIMTVP
 40
0.0
  9
$DIMTIX
 70
     0
  9
$DIMSOXD
 70
     0
  9
$DIMSAH
 70
     0
  9
$DIMBLK1
  1

  9
$DIMBLK2
  1

  9
$DIMSTYLE
  2
Standard
  9
$DIMCLRD
 70
     0
  9
$DIMCLRE
 70
     0
  9
$DIMCLRT
 70
     0
  9
$DIMTFAC
 40
1.0
  9
$DIMGAP
 40
0.09
  9
$DIMJUST
 70
     0
  9
$DIMSD1
 70
     0
  9
$DIMSD2
 70
     0
  9
$DIMTOLJ
 70
     1
  9
$DIMTZIN
 70
     0
  9
$DIMALTZ
 70
     0
  9
$DIMALTTZ
 70
     0
  9
$DIMUPT
 70
     0
  9
$DIMDEC
 70
     4
  9
$DIMTDEC
 70
     4
  9
$DIMALTU
 70
     2
  9
$DIMALTTD
 70
     2
  9
$DIMTXSTY
  7
Standard
  9
$DIMAUNIT
 70
     0
  9
$DIMADEC
 70
     0
  9
$DIMALTRND
 40
0.0
  9
$DIMAZIN
 70
     0
  9
$DIMDSEP
 70
    46
  9
$DIMATFIT
 70
     3
  9
$DIMFRAC
 70
     0
  9
$DIMLDRBLK
  1

  9
$DIMLUNIT
 70
     2
  9
$DIMLWD
 70
    -2
  9
$DIMLWE
 70
    -2
  9
$DIMTMOVE
 70
     0
  9
$DIMFXL
 40
1.0
  9
$DIMFXLON
 70
     0
  9
$DIMJOGANG
 40
0.7853981633974483
  9
$DIMTFILL
 70
     0
  9
$DIMTFILLCLR
 70
     0
  9
$DIMARCSYM
 70
     0
  9
$DIMLTYPE
  6

  9
$DIMLTEX1
  6

  9
$DIMLTEX2
  6

  9
$LUNITS
 70
     2
  9
$LUPREC
 70
     4
  9
$SKETCHINC
 40
0.1
  9
$FILLETRAD
 40
0.5
  9
$AUNITS
 70
     0
  9
$AUPREC
 70
     0
  9
$MENU
  1
.
  9
$ELEVATION
 40
0.0
  9
$PELEVATION
 40
0.0
  9
$THICKNESS
 40
0.0
  9
$LIMCHECK
 70
     0
  9
$CHAMFERA
 40
0.5
  9
$CHAMFERB
 40
0.5
  9
$CHAMFERC
 40
1.0
  9
$CHAMFERD
 40
0.0
  9
$SKPOLY
 70
     0
  9
$TDCREATE
 40
2458139.174674595
  9
$TDUCREATE
 40
2458139.008007928
  9
$TDUPDATE
 40
2458139.174674606
  9
$TDUUPDATE
 40
2458139.00800794
  9
$TDINDWG
 40
0.0000000116
  9
$TDUSRTIMER
 40
0.0000000116
  9
$USRTIMER
 70
     1
  9
$ANGBASE
 50
0.0
  9
$ANGDIR
 70
     0
  9
$PDMODE
 70
     0
  9
$PDSIZE
 40
0.0
  9
$PLINEWID
 40
0.0
  9
$SPLFRAME
 70
     0
  9
$SPLINETYPE
 70
     6
  9
$SPLINESEGS
 70
     8
  9
$HANDSEED
  5
16B
  9
$SURFTAB1
 70
     6
  9
$SURFTAB2
 70
     6
  9
$SURFTYPE
 70
     6
  9
$SURFU
 70
     6
  9
$SURFV
 70
     6
  9
$UCSBASE
  2

  9
$UCSNAME
  2

  9
$UCSORG
 10
0.0
 20
0.0
 30
0.0
  9
$UCSXDIR
 10
1.0
 20
0.0
 30
0.0
  9
$UCSYDIR
 10
0.0
 20
1.0
 30
0.0
  9
$UCSORTHOREF
  2

  9
$UCSORTHOVIEW
 70
     0
  9
$UCSORGTOP
 10
0.0
 20
0.0
 30
0.0
  9
$UCSORGBOTTOM
 10
0.0
 20
0.0
 30
0.0
  9
$UCSORGLEFT
 10
0.0
 20
0.0
 30
0.0
  9
$UCSORGRIGHT
 10
0.0
 20
0.0
 30
0.0
  9
$UCSORGFRONT
 10
0.0
 20
0.0
 30
0.0
  9
$UCSORGBACK
 10
0.0
 20
0.0
 30
0.0
  9
$PUCSBASE
  2

  9
$PUCSNAME
  2

  9
$PUCSORG
 10
0.0
 20
0.0
 30
0.0
  9
$PUCSXDIR
 10
1.0
 20
0.0
 30
0.0
  9
$PUCSYDIR
 10
0.0
 20
1.0
 30
0.0
  9
$PUCSORTHOREF
  2

  9
$PUCSORTHOVIEW
 70
     0
  9
$PUCSORGTOP
 10
0.0
 20
0.0
 30
0.0
  9
$PUCSORGBOTTOM
 10
0.0
 20
0.0
 30
0.0
  9
$PUCSORGLEFT
 10
0.0
 20
0.0
 30
0.0
  9
$PUCSORGRIGHT
 10
0.0
 20
0.0
 30
0.0
  9
$PUCSORGFRONT
 10
0.0
 20
0.0
 30
0.0
  9
$PUCSORGBACK
 10
0.0
 20
0.0
 30
0.0
  9
$USERI1
 70
     0
  9
$USERI2
 70
     0
  9
$USERI3
 70
     0
  9
$USERI4
 70
     0
  9
$USERI5
 70
     0
  9
$USERR1
 40
0.0
  9
$USERR2
 40
0.0
  9
$USERR3
 40
0.0
  9
$USERR4
 40
0.0
  9
$USERR5
 40
0.0
  9
$WORLDVIEW
 70
     1
  9
$SHADEDGE
 70
     3
  9
$SHADEDIF
 70
    70
  9
$TILEMODE
 70
     1
  9
$MAXACTVP
 70
    64
  9
$PINSBASE
 10
0.0
 20
0.0
 30
0.0
  9
$PLIMCHECK
 70
     0
  9
$PEXTMIN
 10
1.000000000000000E+20
 20
1.000000000000000E+20
 30
1.000000000000000E+20
  9
$PEXTMAX
 10
-1.000000000000000E+20
 20
-1.000000000000000E+20
 30
-1.000000000000000E+20
  9
$PLIMMIN
 10
0.0
 20
0.0
  9
$PLIMMAX
 10
12.0
 20
9.0
  9
$UNITMODE
 70
     0
  9
$VISRETAIN
 70
     1
  9
$PLINEGEN
 70
     0
  9
$PSLTSCALE
 70
     1
  9
$TREEDEPTH
 70
  3020
  9
$CMLSTYLE
  2
Standard
  9
$CMLJUST
 70
     0
  9
$CMLSCALE
 40
1.0
  9
$PROXYGRAPHICS
 70
     1
  9
$MEASUREMENT
 70
     0
  9
$CELWEIGHT
370
    -1
  9
$ENDCAPS
280
     0
  9
$JOINSTYLE
280
     0
  9
$LWDISPLAY
290
     0
  9
$INSUNITS
 70
     4
  9
$HYPERLINKBASE
  1

  9
$STYLESHEET
  1

  9
$XEDIT
290
     1
  9
$CEPSNTYPE
380
     0
  9
$PSTYLEMODE
290
     1
  9
$FINGERPRINTGUID
  2
{21BF340E-3D62-47AC-B304-CBF003AA527E}
  9
$VERSIONGUID
  2
{FAEB1C32-E019-11D5-929B-00C0DF256EC4}
  9
$EXTNAMES
290
     1
  9
$PSVPSCALE
 40
0.0
  9
$OLESTARTUP
290
     0
  9
$SORTENTS
280
   127
  9
$INDEXCTL
280
     0
  9
$HIDETEXT
280
     1
  9
$XCLIPFRAME
290
     0
  9
$HALOGAP
280
     0
  9
$OBSCOLOR
 70
   257
  9
$OBSLTYPE
280
     0
  9
$INTERSECTIONDISPLAY
280
     0
  9
$INTERSECTIONCOLOR
 70
   257
  9
$DIMASSOC
280
     2
  9
$PROJECTNAME
  1

  9
$CAMERADISPLAY
290
     0
  9
$LENSLENGTH
 40
50.0
  9
$CAMERAHEIGHT
 40
0.0
  9
$STEPSPERSEC
 40
2.0
  9
$STEPSIZE
 40
6.0
  9
$3DDWFPREC
 40
2.0
  9
$PSOLWIDTH
 40
0.25
  9
$PSOLHEIGHT
 40
4.0
  9
$LOFTANG1
 40
1.570796326794897
  9
$LOFTANG2
 40
1.570796326794897
  9
$LOFTMAG1
 40
0.0
  9
$LOFTMAG2
 40
0.0
  9
$LOFTPARAM
 70
     7
  9
$LOFTNORMALS
280
     1
  9
$LATITUDE
 40
37.795
  9
$LONGITUDE
 40
-122.394
  9
$NORTHDIRECTION
 40
0.0
  9
$TIMEZONE
 70
 -8000
  9
$LIGHTGLYPHDISPLAY
280
     1
  9
$TILEMODELIGHTSYNCH
280
     1
  9
$SOLIDHIST
280
     1
  9
$SHOWHIST
280
     1
  9
$DWFFRAME
280
     2
  9
$DGNFRAME
280
     2
  9
$REALWORLDSCALE
290
     1
  9
$INTERFERECOLOR
 62
   256
  9
$CSHADOW
280
     0
  9
$SHADOWPLANELOCATION
 40
0.0
  0
ENDSEC
  0
SECTION
  2
CLASSES
  0
CLASS
  1
ACDBDICTIONARYWDFLT
  2
AcDbDictionaryWithDefault
  3
ObjectDBX Classes
 90
        0
 91
        3
280
     0
281
     0
  0
CLASS
  1
VISUALSTYLE
  2
AcDbVisualStyle
  3
ObjectDBX Classes
 90
     4095
 91
        3
280
     0
281
     0
  0
CLASS
  1
SCALE
  2
AcDbScale
  3
ObjectDBX Classes
 90
     1153
 91
        3
280
     0
281
     0
  0
ENDSEC
  0
SECTION
  2
TABLES
  0
TABLE
  2
VPORT
  5
8
330
0
100
AcDbSymbolTable
 70
     1
  0
VPORT
  5
29
330
8
100
AcDbSymbolTableRecord
100
AcDbViewportTableRecord
  2
*Active
 70
     0
 10
0.0
 20
0.0
 11
1.0
 21
1.0
 12
10.42990654205607
 22
4.5
 13
0.0
 23
0.0
 14
0.5
 24
0.5
 15
0.5
 25
0.5
 16
0.0
 26
0.0
 36
1.0
 17
0.0
 27
0.0
 37
0.0
 40
9.0
 41
1.972972972850329
 42
50.0
 43
0.0
 44
0.0
 50
0.0
 51
0.0
 71
     0
 72
   100
 73
     1
 74
     3
 75
     0
 76
     0
 77
     0
 78
     0
281
     0
 65
     1
110
0.0
120
0.0
130
0.0
111
1.0
121
0.0
131
0.0
112
0.0
122
1.0
132
0.0
 79
     0
146
0.0
 60
     3
 61
     5
292
     1
282
     1
141
0.0
142
0.0
 63
   256
  0
ENDTAB
  0
TABLE
  2
LTYPE
  5
5
330
0
100
AcDbSymbolTable
 70
     1
  0
LTYPE
  5
14
330
5
100
AcDbSymbolTableRecord
100
AcDbLinetypeTableRecord
  2
ByBlock
 70
     0
  3

 72
    65
 73
     0
 40
0.0
  0
LTYPE
  5
15
330
5
100
AcDbSymbolTableRecord
100
AcDbLinetypeTableRecord
  2
ByLayer
 70
     0
  3

 72
    65
 73
     0
 40
0.0
  0
LTYPE
  5
16
330
5
100
AcDbSymbolTableRecord
100
AcDbLinetypeTableRecord
  2
Continuous
 70
     0
  3
Solid line
 72
    65
 73
     0
 40
0.0
  0
ENDTAB
  0
TABLE
  2
LAYER
  5
2
330
0
100
AcDbSymbolTable
 70
     2
  0
LAYER
  5
10
330
2
100
AcDbSymbolTableRecord
100
AcDbLayerTableRecord
  2
0
 70
     0
 62
     7
  6
Continuous
370
    -3
390
F
347
0
  0
LAYER
  5
5E
330
2
100
AcDbSymbolTableRecord
100
AcDbLayerTableRecord
  2
layer 1
 70
     0
 62
     7
  6
Continuous
370
    -3
390
F
347
0
  0
ENDTAB
  0
TABLE
  2
STYLE
  5
3
330
0
100
AcDbSymbolTable
 70
     1
  0
STYLE
  5
11
330
3
100
AcDbSymbolTableRecord
100
AcDbTextStyleTableRecord
  2
Standard
 70
     0
 40
0.0
 41
1.0
 50
0.0
 71
     0
 42
0.2
  3
txt
  4

  0
ENDTAB
  0
TABLE
  2
VIEW
  5
6
330
0
100
AcDbSymbolTable
 70
     0
  0
ENDTAB
  0
TABLE
  2
UCS
  5
7
330
0
100
AcDbSymbolTable
 70
     0
  0
ENDTAB
  0
TABLE
  2
APPID
  5
9
330
0
100
AcDbSymbolTable
 70
     2
  0
APPID
  5
12
330
9
100
AcDbSymbolTableRecord
100
AcDbRegAppTableRecord
  2
ACAD
 70
     0
  0
APPID
  5
5D
330
9
100
AcDbSymbolTableRecord
100
AcDbRegAppTableRecord
  2
ODA
 70
     0
  0
ENDTAB
  0
TABLE
  2
DIMSTYLE
  5
A
330
0
100
AcDbSymbolTable
 70
     1
100
AcDbDimStyleTable
  0
DIMSTYLE
105
27
330
A
100
AcDbSymbolTableRecord
100
AcDbDimStyleTableRecord
  2
Standard
 70
     0
340
11
  0
ENDTAB
  0
TABLE
  2
BLOCK_RECORD
  5
1
330
0
100
AcDbSymbolTable
 70
     1
  0
BLOCK_RECORD
  5
1F
330
1
100
AcDbSymbolTableRecord
100
AcDbBlockTableRecord
  2
*Model_Space
340
22
 70
     0
280
     1
281
     0
  0
BLOCK_RECORD
  5
1B
330
1
100
AcDbSymbolTableRecord
100
AcDbBlockTableRecord
  2
*Paper_Space
340
1E
 70
     0
280
     1
281
     0
  0
BLOCK_RECORD
  5
23
330
1
100
AcDbSymbolTableRecord
100
AcDbBlockTableRecord
  2
*Paper_Space0
340
26
 70
     0
280
     1
281
     0
  0
ENDTAB
  0
ENDSEC
  0
SECTION
  2
BLOCKS
  0
BLOCK
  5
20
330
1F
100
AcDbEntity
  8
0
100
AcDbBlockBegin
  2
*Model_Space
 70
     0
 10
0.0
 20
0.0
 30
0.0
  3
*Model_Space
  1

  0
ENDBLK
  5
21
330
1F
100
AcDbEntity
  8
0
100
AcDbBlockEnd
  0
BLOCK
  5
1C
330
1B
100
AcDbEntity
 67
     1
  8
0
100
AcDbBlockBegin
  2
*Paper_Space
 70
     0
 10
0.0
 20
0.0
 30
0.0
  3
*Paper_Space
  1

  0
ENDBLK
  5
1D
330
1B
100
AcDbEntity
 67
     1
  8
0
100
AcDbBlockEnd
  0
BLOCK
  5
24
330
23
100
AcDbEntity
  8
0
100
AcDbBlockBegin
  2
*Paper_Space0
 70
     0
 10
0.0
 20
0.0
 30
0.0
  3
*Paper_Space0
  1

  0
ENDBLK
  5
25
330
23
100
AcDbEntity
  8
0
100
AcDbBlockEnd
  0
ENDSEC
  0
SECTION
  2
ENTITIES
  0
SPLINE
  5
5F
330
1F
100
AcDbEntity
  8
layer 1
 62
   250
370
     9
100
AcDbSpline
210
0.0
220
0.0
230
1.0
 70
    11
 71
     3
 72
    20
 73
    16
 74
     0
 42
0.0000000001
 43
0.0000000001
 40
0.0
 40
0.0
 40
0.0
 40
0.0
 40
0.25
 40
0.25
 40
0.25
 40
0.25
 40
0.5
 40
0.5
 40
0.5
 40
0.5
 40
0.75
 40
0.75
 40
0.75
 40
0.75
 40
1.0
 40
1.0
 40
1.0
 40
1.0
 10
837.5296
 20
-288.0554
 30
0.0
 10
837.5296
 20
-288.0554
 30
0.0
 10
897.441
 20
-288.0554
 30
0.0
 10
897.441
 20
-288.0554
 30
0.0
 10
897.441
 20
-288.0554
 30
0.0
 10
897.441
 20
-288.0554
 30
0.0
 10
897.441
 20
-363.1394
 30
0.0
 10
897.441
 20
-363.1394
 30
0.0
 10
897.441
 20
-363.1394
 30
0.0
 10
897.441
 20
-363.1394
 30
0.0
 10
837.5296
 20
-363.1394
 30
0.0
 10
837.5296
 20
-363.1394
 30
0.0
 10
837.5296
 20
-363.1394
 30
0.0
 10
837.5296
 20
-363.1394
 30
0.0
 10
837.5296
 20
-288.0554
 30
0.0
 10
837.5296
 20
-288.0554
 30
0.0
  0
SPLINE
  5
60
330
1F
100
AcDbEntity
  8
layer 1
 62
   250
370
     9
100
AcDbSpline
210
0.0
220
0.0
230
1.0
 70
    11
 71
     3
 72
    20
 73
    16
 74
     0
 42
0.0000000001
 43
0.0000000001
 40
0.0
 40
0.0
 40
0.0
 40
0.0
 40
0.25
 40
0.25
 40
0.25
 40
0.25
 40
0.5
 40
0.5
 40
0.5
 40
0.5
 40
0.75
 40
0.75
 40
0.75
 40
0.75
 40
1.0
 40
1.0
 40
1.0
 40
1.0
 10
841.3728
 20
-295.5183
 30
0.0
 10
841.2647
 20
-294.0907
 30
0.0
 10
840.4599
 20
-293.4595
 30
0.0
 10
839.0857
 20
-293.3412
 30
0.0
 10
839.0857
 20
-293.3412
 30
0.0
 10
839.0857
 20
-293.3412
 30
0.0
 10
839.0857
 20
-297.7144
 30
0.0
 10
839.0857
 20
-297.7144
 30
0.0
 10
839.0857
 20
-297.7144
 30
0.0
 10
839.0857
 20
-297.7144
 30
0.0
 10
843.5491
 20
-297.7144
 30
0.0
 10
843.5491
 20
-297.7144
 30
0.0
 10
843.5491
 20
-297.7144
 30
0.0
 10
843.4603
 20
-296.4416
 30
0.0
 10
842.7342
 20
-295.5439
 30
0.0
 10
841.3728
 20
-295.5183
 30
0.0
  0
SPLINE
  5
61
330
1F
100
AcDbEntity
  8
layer 1
 62
   250
370
     9
100
AcDbSpline
210
0.0
220
0.0
230
1.0
 70
    11
 71
     3
 72
    20
 73
    16
 74
     0
 42
0.0000000001
 43
0.0000000001
 40
0.0
 40
0.0
 40
0.0
 40
0.0
 40
0.25
 40
0.25
 40
0.25
 40
0.25
 40
0.5
 40
0.5
 40
0.5
 40
0.5
 40
0.75
 40
0.75
 40
0.75
 40
0.75
 40
1.0
 40
1.0
 40
1.0
 40
1.0
 10
843.5471
 20
-300.9769
 30
0.0
 10
843.5471
 20
-300.9769
 30
0.0
 10
843.5471
 20
-298.9119
 30
0.0
 10
843.5471
 20
-298.9119
 30
0.0
 10
843.5471
 20
-298.9119
 30
0.0
 10
843.5471
 20
-298.9119
 30
0.0
 10
839.0857
 20
-298.9119
 30
0.0
 10
839.0857
 20
-298.9119
 30
0.0
 10
839.0857
 20
-298.9119
 30
0.0
 10
839.0857
 20
-298.9119
 30
0.0
 10
839.0857
 20
-300.9769
 30
0.0
 10
839.0857
 20
-300.9769
 30
0.0
 10
839.0857
 20
-300.9769
 30
0.0
 10
839.0857
 20
-300.9769
 30
0.0
 10
843.5471
 20
-300.9769
 30
0.0
 10
843.5471
 20
-300.9769
 30
0.0
  0
SPLINE
  5
62
330
1F
100
AcDbEntity
  8
layer 1
 62
   250
370
     9
100
AcDbSpline
210
0.0
220
0.0
230
1.0
 70
    11
 71
     3
 72
    20
 73
    16
 74
     0
 42
0.0000000001
 43
0.0000000001
 40
0.0
 40
0.0
 40
0.0
 40
0.0
 40
0.25
 40
0.25
 40
0.25
 40
0.25
 40
0.5
 40
0.5
 40
0.5
 40
0.5
 40
0.75
 40
0.75
 40
0.75
 40
0.75
 40
1.0
 40
1.0
 40
1.0
 40
1.0
 10
860.5232
 20
-300.9769
 30
0.0
 10
860.5232
 20
-300.9769
 30
0.0
 10
860.5232
 20
-298.9119
 30
0.0
 10
860.5232
 20
-298.9119
 30
0.0
 10
860.5232
 20
-298.9119
 30
0.0
 10
860.5232
 20
-298.9119
 30
0.0
 10
856.0617
 20
-298.9119
 30
0.0
 10
856.0617
 20
-298.9119
 30
0.0
 10
856.0617
 20
-298.9119
 30
0.0
 10
856.0617
 20
-298.9119
 30
0.0
 10
856.0617
 20
-300.9769
 30
0.0
 10
856.0617
 20
-300.9769
 30
0.0
 10
856.0617
 20
-300.9769
 30
0.0
 10
856.0617
 20
-300.9769
 30
0.0
 10
860.5232
 20
-300.9769
 30
0.0
 10
860.5232
 20
-300.9769
 30
0.0
  0
SPLINE
  5
63
330
1F
100
AcDbEntity
  8
layer 1
 62
   250
370
     9
100
AcDbSpline
210
0.0
220
0.0
230
1.0
 70
    11
 71
     3
 72
    20
 73
    16
 74
     0
 42
0.0000000001
 43
0.0000000001
 40
0.0
 40
0.0
 40
0.0
 40
0.0
 40
0.25
 40
0.25
 40
0.25
 40
0.25
 40
0.5
 40
0.5
 40
0.5
 40
0.5
 40
0.75
 40
0.75
 40
0.75
 40
0.75
 40
1.0
 40
1.0
 40
1.0
 40
1.0
 10
860.5232
 20
-297.7144
 30
0.0
 10
860.5232
 20
-297.7144
 30
0.0
 10
860.5232
 20
-293.3411
 30
0.0
 10
860.5232
 20
-293.3411
 30
0.0
 10
860.5232
 20
-293.3411
 30
0.0
 10
859.171
 20
-293.4564
 30
0.0
 10
858.3156
 20
-294.0977
 30
0.0
 10
858.2334
 20
-295.5183
 30
0.0
 10
858.2334
 20
-295.5183
 30
0.0
 10
856.8669
 20
-295.5439
 30
0.0
 10
856.1473
 20
-296.4191
 30
0.0
 10
856.057
 20
-297.7144
 30
0.0
 10
856.057
 20
-297.7144
 30
0.0
 10
856.057
 20
-297.7144
 30
0.0
 10
860.5232
 20
-297.7144
 30
0.0
 10
860.5232
 20
-297.7144
 30
0.0
  0
SPLINE
  5
64
330
1F
100
AcDbEntity
  8
layer 1
 62
   250
370
     9
100
AcDbSpline
210
0.0
220
0.0
230
1.0
 70
    11
 71
     3
 72
    20
 73
    16
 74
     0
 42
0.0000000001
 43
0.0000000001
 40
0.0
 40
0.0
 40
0.0
 40
0.0
 40
0.25
 40
0.25
 40
0.25
 40
0.25
 40
0.5
 40
0.5
 40
0.5
 40
0.5
 40
0.75
 40
0.75
 40
0.75
 40
0.75
 40
1.0
 40
1.0
 40
1.0
 40
1.0
 10
860.5277
 20
-309.6785
 30
0.0
 10
860.4376
 20
-308.3833
 30
0.0
 10
859.7185
 20
-307.5081
 30
0.0
 10
858.3514
 20
-307.4824
 30
0.0
 10
858.3514
 20
-307.4824
 30
0.0
 10
858.2432
 20
-306.0533
 30
0.0
 10
857.4374
 20
-305.4225
 30
0.0
 10
856.0617
 20
-305.3051
 30
0.0
 10
856.0617
 20
-305.3051
 30
0.0
 10
856.0617
 20
-305.3051
 30
0.0
 10
856.0617
 20
-309.6785
 30
0.0
 10
856.0617
 20
-309.6785
 30
0.0
 10
856.0617
 20
-309.6785
 30
0.0
 10
856.0617
 20
-309.6785
 30
0.0
 10
860.5277
 20
-309.6785
 30
0.0
 10
860.5277
 20
-309.6785
 30
0.0
  0
SPLINE
  5
65
330
1F
100
AcDbEntity
  8
layer 1
 62
   250
370
     9
100
AcDbSpline
210
0.0
220
0.0
230
1.0
 70
    11
 71
     3
 72
    20
 73
    16
 74
     0
 42
0.0000000001
 43
0.0000000001
 40
0.0
 40
0.0
 40
0.0
 40
0.0
 40
0.25
 40
0.25
 40
0.25
 40
0.25
 40
0.5
 40
0.5
 40
0.5
 40
0.5
 40
0.75
 40
0.75
 40
0.75
 40
0.75
 40
1.0
 40
1.0
 40
1.0
 40
1.0
 10
849.2057
 20
-304.1339
 30
0.0
 10
849.2057
 20
-304.1339
 30
0.0
 10
849.2057
 20
-298.9119
 30
0.0
 10
849.2057
 20
-298.9119
 30
0.0
 10
849.2057
 20
-298.9119
 30
0.0
 10
849.2057
 20
-298.9119
 30
0.0
 10
844.7445
 20
-298.9119
 30
0.0
 10
844.7445
 20
-298.9119
 30
0.0
 10
844.7445
 20
-298.9119
 30
0.0
 10
844.7445
 20
-298.9119
 30
0.0
 10
844.7445
 20
-304.1339
 30
0.0
 10
844.7445
 20
-304.1339
 30
0.0
 10
844.7445
 20
-304.1339
 30
0.0
 10
844.7445
 20
-304.1339
 30
0.0
 10
849.2057
 20
-304.1339
 30
0.0
 10
849.2057
 20
-304.1339
 30
0.0
  0
SPLINE
  5
66
330
1F
100
AcDbEntity
  8
layer 1
 62
   250
370
     9
100
AcDbSpline
210
0.0
220
0.0
230
1.0
 70
    11
 71
     3
 72
    20
 73
    16
 74
     0
 42
0.0000000001
 43
0.0000000001
 40
0.0
 40
0.0
 40
0.0
 40
0.0
 40
0.25
 40
0.25
 40
0.25
 40
0.25
 40
0.5
 40
0.5
 40
0.5
 40
0.5
 40
0.75
 40
0.75
 40
0.75
 40
0.75
 40
1.0
 40
1.0
 40
1.0
 40
1.0
 10
849.2057
 20
-312.9995
 30
0.0
 10
849.2057
 20
-312.9995
 30
0.0
 10
849.2057
 20
-305.3314
 30
0.0
 10
849.2057
 20
-305.3314
 30
0.0
 10
849.2057
 20
-305.3314
 30
0.0
 10
849.2057
 20
-305.3314
 30
0.0
 10
844.7445
 20
-305.3314
 30
0.0
 10
844.7445
 20
-305.3314
 30
0.0
 10
844.7445
 20
-305.3314
 30
0.0
 10
844.7445
 20
-305.3314
 30
0.0
 10
844.7445
 20
-312.9995
 30
0.0
 10
844.7445
 20
-312.9995
 30
0.0
 10
844.7445
 20
-312.9995
 30
0.0
 10
844.7445
 20
-312.9995
 30
0.0
 10
849.2057
 20
-312.9995
 30
0.0
 10
849.2057
 20
-312.9995
 30
0.0
  0
SPLINE
  5
67
330
1F
100
AcDbEntity
  8
layer 1
 62
   250
370
     9
100
AcDbSpline
210
0.0
220
0.0
230
1.0
 70
    11
 71
     3
 72
    20
 73
    16
 74
     0
 42
0.0000000001
 43
0.0000000001
 40
0.0
 40
0.0
 40
0.0
 40
0.0
 40
0.25
 40
0.25
 40
0.25
 40
0.25
 40
0.5
 40
0.5
 40
0.5
 40
0.5
 40
0.75
 40
0.75
 40
0.75
 40
0.75
 40
1.0
 40
1.0
 40
1.0
 40
1.0
 10
850.4031
 20
-305.3314
 30
0.0
 10
850.4031
 20
-305.3314
 30
0.0
 10
850.4031
 20
-312.9995
 30
0.0
 10
850.4031
 20
-312.9995
 30
0.0
 10
850.4031
 20
-312.9995
 30
0.0
 10
850.4031
 20
-312.9995
 30
0.0
 10
854.8644
 20
-312.9995
 30
0.0
 10
854.8644
 20
-312.9995
 30
0.0
 10
854.8644
 20
-312.9995
 30
0.0
 10
854.8644
 20
-312.9995
 30
0.0
 10
854.8644
 20
-305.3314
 30
0.0
 10
854.8644
 20
-305.3314
 30
0.0
 10
854.8644
 20
-305.3314
 30
0.0
 10
854.8644
 20
-305.3314
 30
0.0
 10
850.4031
 20
-305.3314
 30
0.0
 10
850.4031
 20
-305.3314
 30
0.0
  0
SPLINE
  5
68
330
1F
100
AcDbEntity
  8
layer 1
 62
   250
370
     9
100
AcDbSpline
210
0.0
220
0.0
230
1.0
 70
    11
 71
     3
 72
    20
 73
    16
 74
     0
 42
0.0000000001
 43
0.0000000001
 40
0.0
 40
0.0
 40
0.0
 40
0.0
 40
0.25
 40
0.25
 40
0.25
 40
0.25
 40
0.5
 40
0.5
 40
0.5
 40
0.5
 40
0.75
 40
0.75
 40
0.75
 40
0.75
 40
1.0
 40
1.0
 40
1.0
 40
1.0
 10
850.4031
 20
-298.9119
 30
0.0
 10
850.4031
 20
-298.9119
 30
0.0
 10
850.4031
 20
-304.1339
 30
0.0
 10
850.4031
 20
-304.1339
 30
0.0
 10
850.4031
 20
-304.1339
 30
0.0
 10
850.4031
 20
-304.1339
 30
0.0
 10
854.8644
 20
-304.1339
 30
0.0
 10
854.8644
 20
-304.1339
 30
0.0
 10
854.8644
 20
-304.1339
 30
0.0
 10
854.8644
 20
-304.1339
 30
0.0
 10
854.8644
 20
-298.9119
 30
0.0
 10
854.8644
 20
-298.9119
 30
0.0
 10
854.8644
 20
-298.9119
 30
0.0
 10
854.8644
 20
-298.9119
 30
0.0
 10
850.4031
 20
-298.9119
 30
0.0
 10
850.4031
 20
-298.9119
 30
0.0
  0
SPLINE
  5
69
330
1F
100
AcDbEntity
  8
layer 1
 62
   250
370
     9
100
AcDbSpline
210
0.0
220
0.0
230
1.0
 70
    11
 71
     3
 72
    20
 73
    16
 74
     0
 42
0.0000000001
 43
0.0000000001
 40
0.0
 40
0.0
 40
0.0
 40
0.0
 40
0.25
 40
0.25
 40
0.25
 40
0.25
 40
0.5
 40
0.5
 40
0.5
 40
0.5
 40
0.75
 40
0.75
 40
0.75
 40
0.75
 40
1.0
 40
1.0
 40
1.0
 40
1.0
 10
839.0857
 20
-312.9995
 30
0.0
 10
839.0857
 20
-312.9995
 30
0.0
 10
843.5471
 20
-312.9995
 30
0.0
 10
843.5471
 20
-312.9995
 30
0.0
 10
843.5471
 20
-312.9995
 30
0.0
 10
843.5471
 20
-312.9995
 30
0.0
 10
843.5471
 20
-310.876
 30
0.0
 10
843.5471
 20
-310.876
 30
0.0
 10
843.5471
 20
-310.876
 30
0.0
 10
843.5471
 20
-310.876
 30
0.0
 10
839.0857
 20
-310.876
 30
0.0
 10
839.0857
 20
-310.876
 30
0.0
 10
839.0857
 20
-310.876
 30
0.0
 10
839.0857
 20
-310.876
 30
0.0
 10
839.0857
 20
-312.9995
 30
0.0
 10
839.0857
 20
-312.9995
 30
0.0
  0
SPLINE
  5
6A
330
1F
100
AcDbEntity
  8
layer 1
 62
   250
370
     9
100
AcDbSpline
210
0.0
220
0.0
230
1.0
 70
    11
 71
     3
 72
    20
 73
    16
 74
     0
 42
0.0000000001
 43
0.0000000001
 40
0.0
 40
0.0
 40
0.0
 40
0.0
 40
0.25
 40
0.25
 40
0.25
 40
0.25
 40
0.5
 40
0.5
 40
0.5
 40
0.5
 40
0.75
 40
0.75
 40
0.75
 40
0.75
 40
1.0
 40
1.0
 40
1.0
 40
1.0
 10
860.5232
 20
-310.876
 30
0.0
 10
860.5232
 20
-310.876
 30
0.0
 10
856.0617
 20
-310.876
 30
0.0
 10
856.0617
 20
-310.876
 30
0.0
 10
856.0617
 20
-310.876
 30
0.0
 10
856.0617
 20
-310.876
 30
0.0
 10
856.0617
 20
-312.9995
 30
0.0
 10
856.0617
 20
-312.9995
 30
0.0
 10
856.0617
 20
-312.9995
 30
0.0
 10
856.0617
 20
-312.9995
 30
0.0
 10
860.5232
 20
-312.9995
 30
0.0
 10
860.5232
 20
-312.9995
 30
0.0
 10
860.5232
 20
-312.9995
 30
0.0
 10
860.5232
 20
-312.9995
 30
0.0
 10
860.5232
 20
-310.876
 30
0.0
 10
860.5232
 20
-310.876
 30
0.0
  0
SPLINE
  5
6B
330
1F
100
AcDbEntity
  8
layer 1
 62
   250
370
     9
100
AcDbSpline
210
0.0
220
0.0
230
1.0
 70
    11
 71
     3
 72
    20
 73
    16
 74
     0
 42
0.0000000001
 43
0.0000000001
 40
0.0
 40
0.0
 40
0.0
 40
0.0
 40
0.25
 40
0.25
 40
0.25
 40
0.25
 40
0.5
 40
0.5
 40
0.5
 40
0.5
 40
0.75
 40
0.75
 40
0.75
 40
0.75
 40
1.0
 40
1.0
 40
1.0
 40
1.0
 10
843.5471
 20
-322.8986
 30
0.0
 10
843.5471
 20
-322.8986
 30
0.0
 10
839.0857
 20
-322.8986
 30
0.0
 10
839.0857
 20
-322.8986
 30
0.0
 10
839.0857
 20
-322.8986
 30
0.0
 10
839.0857
 20
-322.8986
 30
0.0
 10
839.0857
 20
-324.9987
 30
0.0
 10
839.0857
 20
-324.9987
 30
0.0
 10
839.0857
 20
-324.9987
 30
0.0
 10
839.0857
 20
-324.9987
 30
0.0
 10
843.5471
 20
-324.9987
 30
0.0
 10
843.5471
 20
-324.9987
 30
0.0
 10
843.5471
 20
-324.9987
 30
0.0
 10
843.5471
 20
-324.9987
 30
0.0
 10
843.5471
 20
-322.8986
 30
0.0
 10
843.5471
 20
-322.8986
 30
0.0
  0
SPLINE
  5
6C
330
1F
100
AcDbEntity
  8
layer 1
 62
   250
370
     9
100
AcDbSpline
210
0.0
220
0.0
230
1.0
 70
    11
 71
     3
 72
    20
 73
    16
 74
     0
 42
0.0000000001
 43
0.0000000001
 40
0.0
 40
0.0
 40
0.0
 40
0.0
 40
0.25
 40
0.25
 40
0.25
 40
0.25
 40
0.5
 40
0.5
 40
0.5
 40
0.5
 40
0.75
 40
0.75
 40
0.75
 40
0.75
 40
1.0
 40
1.0
 40
1.0
 40
1.0
 10
849.2057
 20
-322.8986
 30
0.0
 10
849.2057
 20
-322.8986
 30
0.0
 10
844.7445
 20
-322.8986
 30
0.0
 10
844.7445
 20
-322.8986
 30
0.0
 10
844.7445
 20
-322.8986
 30
0.0
 10
844.7445
 20
-322.8986
 30
0.0
 10
844.7445
 20
-324.9987
 30
0.0
 10
844.7445
 20
-324.9987
 30
0.0
 10
844.7445
 20
-324.9987
 30
0.0
 10
844.7445
 20
-324.9987
 30
0.0
 10
849.2057
 20
-324.9987
 30
0.0
 10
849.2057
 20
-324.9987
 30
0.0
 10
849.2057
 20
-324.9987
 30
0.0
 10
849.2057
 20
-324.9987
 30
0.0
 10
849.2057
 20
-322.8986
 30
0.0
 10
849.2057
 20
-322.8986
 30
0.0
  0
SPLINE
  5
6D
330
1F
100
AcDbEntity
  8
layer 1
 62
   250
370
     9
100
AcDbSpline
210
0.0
220
0.0
230
1.0
 70
    11
 71
     3
 72
    20
 73
    16
 74
     0
 42
0.0000000001
 43
0.0000000001
 40
0.0
 40
0.0
 40
0.0
 40
0.0
 40
0.25
 40
0.25
 40
0.25
 40
0.25
 40
0.5
 40
0.5
 40
0.5
 40
0.5
 40
0.75
 40
0.75
 40
0.75
 40
0.75
 40
1.0
 40
1.0
 40
1.0
 40
1.0
 10
856.0617
 20
-322.8986
 30
0.0
 10
856.0617
 20
-322.8986
 30
0.0
 10
856.0617
 20
-324.9987
 30
0.0
 10
856.0617
 20
-324.9987
 30
0.0
 10
856.0617
 20
-324.9987
 30
0.0
 10
856.0617
 20
-324.9987
 30
0.0
 10
860.5232
 20
-324.9987
 30
0.0
 10
860.5232
 20
-324.9987
 30
0.0
 10
860.5232
 20
-324.9987
 30
0.0
 10
860.5232
 20
-324.9987
 30
0.0
 10
860.5232
 20
-322.8986
 30
0.0
 10
860.5232
 20
-322.8986
 30
0.0
 10
860.5232
 20
-322.8986
 30
0.0
 10
860.5232
 20
-322.8986
 30
0.0
 10
856.0617
 20
-322.8986
 30
0.0
 10
856.0617
 20
-322.8986
 30
0.0
  0
SPLINE
  5
6E
330
1F
100
AcDbEntity
  8
layer 1
 62
   250
370
     9
100
AcDbSpline
210
0.0
220
0.0
230
1.0
 70
    11
 71
     3
 72
    20
 73
    16
 74
     0
 42
0.0000000001
 43
0.0000000001
 40
0.0
 40
0.0
 40
0.0
 40
0.0
 40
0.25
 40
0.25
 40
0.25
 40
0.25
 40
0.5
 40
0.5
 40
0.5
 40
0.5
 40
0.75
 40
0.75
 40
0.75
 40
0.75
 40
1.0
 40
1.0
 40
1.0
 40
1.0
 10
854.8644
 20
-324.9987
 30
0.0
 10
854.8644
 20
-324.9987
 30
0.0
 10
854.8644
 20
-322.8986
 30
0.0
 10
854.8644
 20
-322.8986
 30
0.0
 10
854.8644
 20
-322.8986
 30
0.0
 10
854.8644
 20
-322.8986
 30
0.0
 10
850.4031
 20
-322.8986
 30
0.0
 10
850.4031
 20
-322.8986
 30
0.0
 10
850.4031
 20
-322.8986
 30
0.0
 10
850.4031
 20
-322.8986
 30
0.0
 10
850.4031
 20
-324.9987
 30
0.0
 10
850.4031
 20
-324.9987
 30
0.0
 10
850.4031
 20
-324.9987
 30
0.0
 10
850.4031
 20
-324.9987
 30
0.0
 10
854.8644
 20
-324.9987
 30
0.0
 10
854.8644
 20
-324.9987
 30
0.0
  0
SPLINE
  5
6F
330
1F
100
AcDbEntity
  8
layer 1
 62
   250
370
     9
100
AcDbSpline
210
0.0
220
0.0
230
1.0
 70
    11
 71
     3
 72
    20
 73
    16
 74
     0
 42
0.0000000001
 43
0.0000000001
 40
0.0
 40
0.0
 40
0.0
 40
0.0
 40
0.25
 40
0.25
 40
0.25
 40
0.25
 40
0.5
 40
0.5
 40
0.5
 40
0.5
 40
0.75
 40
0.75
 40
0.75
 40
0.75
 40
1.0
 40
1.0
 40
1.0
 40
1.0
 10
846.916
 20
-316.393
 30
0.0
 10
847.0235
 20
-317.8157
 30
0.0
 10
847.826
 20
-318.4523
 30
0.0
 10
849.2057
 20
-318.5704
 30
0.0
 10
849.2057
 20
-318.5704
 30
0.0
 10
849.2057
 20
-318.5704
 30
0.0
 10
849.2057
 20
-314.1969
 30
0.0
 10
849.2057
 20
-314.1969
 30
0.0
 10
849.2057
 20
-314.1969
 30
0.0
 10
849.2057
 20
-314.1969
 30
0.0
 10
844.7395
 20
-314.1969
 30
0.0
 10
844.7395
 20
-314.1969
 30
0.0
 10
844.7395
 20
-314.1969
 30
0.0
 10
844.8283
 20
-315.4695
 30
0.0
 10
845.5545
 20
-316.3675
 30
0.0
 10
846.916
 20
-316.393
 30
0.0
  0
SPLINE
  5
70
330
1F
100
AcDbEntity
  8
layer 1
 62
   250
370
     9
100
AcDbSpline
210
0.0
220
0.0
230
1.0
 70
    11
 71
     3
 72
    20
 73
    16
 74
     0
 42
0.0000000001
 43
0.0000000001
 40
0.0
 40
0.0
 40
0.0
 40
0.0
 40
0.25
 40
0.25
 40
0.25
 40
0.25
 40
0.5
 40
0.5
 40
0.5
 40
0.5
 40
0.75
 40
0.75
 40
0.75
 40
0.75
 40
1.0
 40
1.0
 40
1.0
 40
1.0
 10
850.4031
 20
-314.1969
 30
0.0
 10
850.4031
 20
-314.1969
 30
0.0
 10
850.4031
 20
-318.5704
 30
0.0
 10
850.4031
 20
-318.5704
 30
0.0
 10
850.4031
 20
-318.5704
 30
0.0
 10
851.7557
 20
-318.4546
 30
0.0
 10
852.6102
 20
-317.814
 30
0.0
 10
852.6928
 20
-316.393
 30
0.0
 10
852.6928
 20
-316.393
 30
0.0
 10
854.0593
 20
-316.3674
 30
0.0
 10
854.7788
 20
-315.4922
 30
0.0
 10
854.8692
 20
-314.1969
 30
0.0
 10
854.8692
 20
-314.1969
 30
0.0
 10
854.8692
 20
-314.1969
 30
0.0
 10
850.4031
 20
-314.1969
 30
0.0
 10
850.4031
 20
-314.1969
 30
0.0
  0
SPLINE
  5
71
330
1F
100
AcDbEntity
  8
layer 1
 62
   250
370
     9
100
AcDbSpline
210
0.0
220
0.0
230
1.0
 70
    11
 71
     3
 72
    40
 73
    36
 74
     0
 42
0.0000000001
 43
0.0000000001
 40
0.0
 40
0.0
 40
0.0
 40
0.0
 40
0.1111111111111111
 40
0.1111111111111111
 40
0.1111111111111111
 40
0.1111111111111111
 40
0.2222222222222222
 40
0.2222222222222222
 40
0.2222222222222222
 40
0.2222222222222222
 40
0.3333333333333333
 40
0.3333333333333333
 40
0.3333333333333333
 40
0.3333333333333333
 40
0.4444444444444444
 40
0.4444444444444444
 40
0.4444444444444444
 40
0.4444444444444444
 40
0.5555555555555556
 40
0.5555555555555556
 40
0.5555555555555556
 40
0.5555555555555556
 40
0.6666666666666667
 40
0.6666666666666667
 40
0.6666666666666667
 40
0.6666666666666667
 40
0.7777777777777779
 40
0.7777777777777779
 40
0.7777777777777779
 40
0.7777777777777779
 40
0.8888888888888891
 40
0.8888888888888891
 40
0.8888888888888891
 40
0.8888888888888891
 40
1.0
 40
1.0
 40
1.0
 40
1.0
 10
849.2057
 20
-319.7422
 30
0.0
 10
847.3645
 20
-319.7067
 30
0.0
 10
845.75
 20
-318.6483
 30
0.0
 10
845.8306
 20
-317.2912
 30
0.0
 10
845.8306
 20
-317.2912
 30
0.0
 10
844.2289
 20
-317.0455
 30
0.0
 10
843.5426
 20
-315.6217
 30
0.0
 10
843.5456
 20
-314.1969
 30
0.0
 10
843.5456
 20
-314.1969
 30
0.0
 10
843.5456
 20
-314.1969
 30
0.0
 10
839.0857
 20
-314.1969
 30
0.0
 10
839.0857
 20
-314.1969
 30
0.0
 10
839.0857
 20
-314.1969
 30
0.0
 10
839.0857
 20
-314.1969
 30
0.0
 10
839.0857
 20
-316.1559
 30
0.0
 10
839.0857
 20
-316.1559
 30
0.0
 10
839.0857
 20
-316.1559
 30
0.0
 10
840.7211
 20
-316.2324
 30
0.0
 10
842.0478
 20
-316.8176
 30
0.0
 10
842.3989
 20
-318.6684
 30
0.0
 10
842.3989
 20
-318.6684
 30
0.0
 10
843.6921
 20
-318.6465
 30
0.0
 10
844.646
 20
-319.7415
 30
0.0
 10
844.7459
 20
-321.7013
 30
0.0
 10
844.7459
 20
-321.7013
 30
0.0
 10
844.7459
 20
-321.7013
 30
0.0
 10
849.2057
 20
-321.7013
 30
0.0
 10
849.2057
 20
-321.7013
 30
0.0
 10
849.2057
 20
-321.7013
 30
0.0
 10
849.2057
 20
-321.7013
 30
0.0
 10
849.2057
 20
-319.7422
 30
0.0
 10
849.2057
 20
-319.7422
 30
0.0
 10
849.2057
 20
-319.7422
 30
0.0
 10
849.2057
 20
-319.7422
 30
0.0
 10
849.2057
 20
-319.7422
 30
0.0
 10
849.2057
 20
-319.7422
 30
0.0
  0
SPLINE
  5
72
330
1F
100
AcDbEntity
  8
layer 1
 62
   250
370
     9
100
AcDbSpline
210
0.0
220
0.0
230
1.0
 70
    11
 71
     3
 72
    20
 73
    16
 74
     0
 42
0.0000000001
 43
0.0000000001
 40
0.0
 40
0.0
 40
0.0
 40
0.0
 40
0.25
 40
0.25
 40
0.25
 40
0.25
 40
0.5
 40
0.5
 40
0.5
 40
0.5
 40
0.75
 40
0.75
 40
0.75
 40
0.75
 40
1.0
 40
1.0
 40
1.0
 40
1.0
 10
841.3754
 20
-319.5049
 30
0.0
 10
841.2672
 20
-318.0759
 30
0.0
 10
840.4613
 20
-317.445
 30
0.0
 10
839.0857
 20
-317.3278
 30
0.0
 10
839.0857
 20
-317.3278
 30
0.0
 10
839.0857
 20
-317.3278
 30
0.0
 10
839.0857
 20
-321.7013
 30
0.0
 10
839.0857
 20
-321.7013
 30
0.0
 10
839.0857
 20
-321.7013
 30
0.0
 10
839.0857
 20
-321.7013
 30
0.0
 10
843.5517
 20
-321.7013
 30
0.0
 10
843.5517
 20
-321.7013
 30
0.0
 10
843.5517
 20
-321.7013
 30
0.0
 10
843.4631
 20
-320.4284
 30
0.0
 10
842.737
 20
-319.5304
 30
0.0
 10
841.3754
 20
-319.5049
 30
0.0
  0
SPLINE
  5
73
330
1F
100
AcDbEntity
  8
layer 1
 62
   250
370
     9
100
AcDbSpline
210
0.0
220
0.0
230
1.0
 70
    11
 71
     3
 72
    36
 73
    32
 74
     0
 42
0.0000000001
 43
0.0000000001
 40
0.0
 40
0.0
 40
0.0
 40
0.0
 40
0.125
 40
0.125
 40
0.125
 40
0.125
 40
0.25
 40
0.25
 40
0.25
 40
0.25
 40
0.375
 40
0.375
 40
0.375
 40
0.375
 40
0.5
 40
0.5
 40
0.5
 40
0.5
 40
0.625
 40
0.625
 40
0.625
 40
0.625
 40
0.75
 40
0.75
 40
0.75
 40
0.75
 40
0.875
 40
0.875
 40
0.875
 40
0.875
 40
1.0
 40
1.0
 40
1.0
 40
1.0
 10
857.1793
 20
-318.475
 30
0.0
 10
857.3042
 20
-317.2341
 30
0.0
 10
858.3166
 20
-316.2247
 30
0.0
 10
860.5232
 20
-316.1559
 30
0.0
 10
860.5232
 20
-316.1559
 30
0.0
 10
860.5232
 20
-316.1559
 30
0.0
 10
860.5232
 20
-314.1969
 30
0.0
 10
860.5232
 20
-314.1969
 30
0.0
 10
860.5232
 20
-314.1969
 30
0.0
 10
860.5232
 20
-314.1969
 30
0.0
 10
856.0633
 20
-314.1969
 30
0.0
 10
856.0633
 20
-314.1969
 30
0.0
 10
856.0633
 20
-314.1969
 30
0.0
 10
856.0234
 20
-316.4459
 30
0.0
 10
854.7431
 20
-317.3093
 30
0.0
 10
853.7213
 20
-317.3755
 30
0.0
 10
853.7213
 20
-317.3755
 30
0.0
 10
853.6935
 20
-318.3413
 30
0.0
 10
852.7258
 20
-319.5201
 30
0.0
 10
850.4031
 20
-319.7422
 30
0.0
 10
850.4031
 20
-319.7422
 30
0.0
 10
850.4031
 20
-319.7422
 30
0.0
 10
850.4031
 20
-321.7013
 30
0.0
 10
850.4031
 20
-321.7013
 30
0.0
 10
850.4031
 20
-321.7013
 30
0.0
 10
850.4031
 20
-321.7013
 30
0.0
 10
854.8629
 20
-321.7013
 30
0.0
 10
854.8629
 20
-321.7013
 30
0.0
 10
854.8629
 20
-321.7013
 30
0.0
 10
854.9413
 20
-319.6986
 30
0.0
 10
855.9472
 20
-318.6631
 30
0.0
 10
857.1793
 20
-318.475
 30
0.0
  0
SPLINE
  5
74
330
1F
100
AcDbEntity
  8
layer 1
 62
   250
370
     9
100
AcDbSpline
210
0.0
220
0.0
230
1.0
 70
    11
 71
     3
 72
    20
 73
    16
 74
     0
 42
0.0000000001
 43
0.0000000001
 40
0.0
 40
0.0
 40
0.0
 40
0.0
 40
0.25
 40
0.25
 40
0.25
 40
0.25
 40
0.5
 40
0.5
 40
0.5
 40
0.5
 40
0.75
 40
0.75
 40
0.75
 40
0.75
 40
1.0
 40
1.0
 40
1.0
 40
1.0
 10
860.5232
 20
-321.7013
 30
0.0
 10
860.5232
 20
-321.7013
 30
0.0
 10
860.5232
 20
-317.3278
 30
0.0
 10
860.5232
 20
-317.3278
 30
0.0
 10
860.5232
 20
-317.3278
 30
0.0
 10
859.171
 20
-317.443
 30
0.0
 10
858.3156
 20
-318.0843
 30
0.0
 10
858.2334
 20
-319.5049
 30
0.0
 10
858.2334
 20
-319.5049
 30
0.0
 10
856.8668
 20
-319.5305
 30
0.0
 10
856.1474
 20
-320.4059
 30
0.0
 10
856.057
 20
-321.7013
 30
0.0
 10
856.057
 20
-321.7013
 30
0.0
 10
856.057
 20
-321.7013
 30
0.0
 10
860.5232
 20
-321.7013
 30
0.0
 10
860.5232
 20
-321.7013
 30
0.0
  0
SPLINE
  5
75
330
1F
100
AcDbEntity
  8
layer 1
 62
   250
370
     9
100
AcDbSpline
210
0.0
220
0.0
230
1.0
 70
    11
 71
     3
 72
    20
 73
    16
 74
     0
 42
0.0000000001
 43
0.0000000001
 40
0.0
 40
0.0
 40
0.0
 40
0.0
 40
0.25
 40
0.25
 40
0.25
 40
0.25
 40
0.5
 40
0.5
 40
0.5
 40
0.5
 40
0.75
 40
0.75
 40
0.75
 40
0.75
 40
1.0
 40
1.0
 40
1.0
 40
1.0
 10
866.8866
 20
-317.3539
 30
0.0
 10
866.8866
 20
-317.3539
 30
0.0
 10
861.7205
 20
-317.3539
 30
0.0
 10
861.7205
 20
-317.3539
 30
0.0
 10
861.7205
 20
-317.3539
 30
0.0
 10
861.7205
 20
-317.3539
 30
0.0
 10
861.7205
 20
-324.9987
 30
0.0
 10
861.7205
 20
-324.9987
 30
0.0
 10
861.7205
 20
-324.9987
 30
0.0
 10
861.7205
 20
-324.9987
 30
0.0
 10
866.8866
 20
-324.9987
 30
0.0
 10
866.8866
 20
-324.9987
 30
0.0
 10
866.8866
 20
-324.9987
 30
0.0
 10
866.8866
 20
-324.9987
 30
0.0
 10
866.8866
 20
-317.3539
 30
0.0
 10
866.8866
 20
-317.3539
 30
0.0
  0
SPLINE
  5
76
330
1F
100
AcDbEntity
  8
layer 1
 62
   250
370
     9
100
AcDbSpline
210
0.0
220
0.0
230
1.0
 70
    11
 71
     3
 72
    20
 73
    16
 74
     0
 42
0.0000000001
 43
0.0000000001
 40
0.0
 40
0.0
 40
0.0
 40
0.0
 40
0.25
 40
0.25
 40
0.25
 40
0.25
 40
0.5
 40
0.5
 40
0.5
 40
0.5
 40
0.75
 40
0.75
 40
0.75
 40
0.75
 40
1.0
 40
1.0
 40
1.0
 40
1.0
 10
866.8866
 20
-310.876
 30
0.0
 10
866.8866
 20
-310.876
 30
0.0
 10
861.7205
 20
-310.876
 30
0.0
 10
861.7205
 20
-310.876
 30
0.0
 10
861.7205
 20
-310.876
 30
0.0
 10
861.7205
 20
-310.876
 30
0.0
 10
861.7205
 20
-316.1565
 30
0.0
 10
861.7205
 20
-316.1565
 30
0.0
 10
861.7205
 20
-316.1565
 30
0.0
 10
861.7205
 20
-316.1565
 30
0.0
 10
866.8866
 20
-316.1565
 30
0.0
 10
866.8866
 20
-316.1565
 30
0.0
 10
866.8866
 20
-316.1565
 30
0.0
 10
866.8866
 20
-316.1565
 30
0.0
 10
866.8866
 20
-310.876
 30
0.0
 10
866.8866
 20
-310.876
 30
0.0
  0
SPLINE
  5
77
330
1F
100
AcDbEntity
  8
layer 1
 62
   250
370
     9
100
AcDbSpline
210
0.0
220
0.0
230
1.0
 70
    11
 71
     3
 72
    36
 73
    32
 74
     0
 42
0.0000000001
 43
0.0000000001
 40
0.0
 40
0.0
 40
0.0
 40
0.0
 40
0.125
 40
0.125
 40
0.125
 40
0.125
 40
0.25
 40
0.25
 40
0.25
 40
0.25
 40
0.375
 40
0.375
 40
0.375
 40
0.375
 40
0.5
 40
0.5
 40
0.5
 40
0.5
 40
0.625
 40
0.625
 40
0.625
 40
0.625
 40
0.75
 40
0.75
 40
0.75
 40
0.75
 40
0.875
 40
0.875
 40
0.875
 40
0.875
 40
1.0
 40
1.0
 40
1.0
 40
1.0
 10
866.8866
 20
-307.7171
 30
0.0
 10
865.1166
 20
-307.7067
 30
0.0
 10
863.5326
 20
-306.9737
 30
0.0
 10
863.2679
 20
-305.6231
 30
0.0
 10
863.2679
 20
-305.6231
 30
0.0
 10
861.6479
 20
-305.4183
 30
0.0
 10
860.4862
 20
-303.7706
 30
0.0
 10
860.5206
 20
-302.1744
 30
0.0
 10
860.5206
 20
-302.1744
 30
0.0
 10
860.5206
 20
-302.1744
 30
0.0
 10
856.0617
 20
-302.1744
 30
0.0
 10
856.0617
 20
-302.1744
 30
0.0
 10
856.0617
 20
-302.1744
 30
0.0
 10
856.0617
 20
-302.1744
 30
0.0
 10
856.0617
 20
-304.1331
 30
0.0
 10
856.0617
 20
-304.1331
 30
0.0
 10
856.0617
 20
-304.1331
 30
0.0
 10
857.4671
 20
-304.132
 30
0.0
 10
859.092
 20
-304.914
 30
0.0
 10
859.3115
 20
-306.5729
 30
0.0
 10
859.3115
 20
-306.5729
 30
0.0
 10
860.5559
 20
-306.5145
 30
0.0
 10
861.6631
 20
-307.7807
 30
0.0
 10
861.7219
 20
-309.6785
 30
0.0
 10
861.7219
 20
-309.6785
 30
0.0
 10
861.7219
 20
-309.6785
 30
0.0
 10
866.8866
 20
-309.6785
 30
0.0
 10
866.8866
 20
-309.6785
 30
0.0
 10
866.8866
 20
-309.6785
 30
0.0
 10
866.8866
 20
-309.6785
 30
0.0
 10
866.8866
 20
-307.7171
 30
0.0
 10
866.8866
 20
-307.7171
 30
0.0
  0
SPLINE
  5
78
330
1F
100
AcDbEntity
  8
layer 1
 62
   250
370
     9
100
AcDbSpline
210
0.0
220
0.0
230
1.0
 70
    11
 71
     3
 72
    20
 73
    16
 74
     0
 42
0.0000000001
 43
0.0000000001
 40
0.0
 40
0.0
 40
0.0
 40
0.0
 40
0.25
 40
0.25
 40
0.25
 40
0.25
 40
0.5
 40
0.5
 40
0.5
 40
0.5
 40
0.75
 40
0.75
 40
0.75
 40
0.75
 40
1.0
 40
1.0
 40
1.0
 40
1.0
 10
864.2351
 20
-304.5867
 30
0.0
 10
864.3603
 20
-305.9928
 30
0.0
 10
865.6624
 20
-306.4508
 30
0.0
 10
866.8866
 20
-306.539
 30
0.0
 10
866.8866
 20
-306.539
 30
0.0
 10
866.8866
 20
-306.539
 30
0.0
 10
866.8866
 20
-302.1744
 30
0.0
 10
866.8866
 20
-302.1744
 30
0.0
 10
866.8866
 20
-302.1744
 30
0.0
 10
866.8866
 20
-302.1744
 30
0.0
 10
861.7142
 20
-302.1744
 30
0.0
 10
861.7142
 20
-302.1744
 30
0.0
 10
861.7142
 20
-302.1744
 30
0.0
 10
861.8292
 20
-303.5215
 30
0.0
 10
862.8489
 20
-304.5531
 30
0.0
 10
864.2351
 20
-304.5867
 30
0.0
  0
SPLINE
  5
79
330
1F
100
AcDbEntity
  8
layer 1
 62
   250
370
     9
100
AcDbSpline
210
0.0
220
0.0
230
1.0
 70
    11
 71
     3
 72
    20
 73
    16
 74
     0
 42
0.0000000001
 43
0.0000000001
 40
0.0
 40
0.0
 40
0.0
 40
0.0
 40
0.25
 40
0.25
 40
0.25
 40
0.25
 40
0.5
 40
0.5
 40
0.5
 40
0.5
 40
0.75
 40
0.75
 40
0.75
 40
0.75
 40
1.0
 40
1.0
 40
1.0
 40
1.0
 10
866.8866
 20
-293.3674
 30
0.0
 10
866.8866
 20
-293.3674
 30
0.0
 10
861.7205
 20
-293.3674
 30
0.0
 10
861.7205
 20
-293.3674
 30
0.0
 10
861.7205
 20
-293.3674
 30
0.0
 10
861.7205
 20
-293.3674
 30
0.0
 10
861.7205
 20
-300.9769
 30
0.0
 10
861.7205
 20
-300.9769
 30
0.0
 10
861.7205
 20
-300.9769
 30
0.0
 10
861.7205
 20
-300.9769
 30
0.0
 10
866.8866
 20
-300.9769
 30
0.0
 10
866.8866
 20
-300.9769
 30
0.0
 10
866.8866
 20
-300.9769
 30
0.0
 10
866.8866
 20
-300.9769
 30
0.0
 10
866.8866
 20
-293.3674
 30
0.0
 10
866.8866
 20
-293.3674
 30
0.0
  0
SPLINE
  5
7A
330
1F
100
AcDbEntity
  8
layer 1
 62
   250
370
     9
100
AcDbSpline
210
0.0
220
0.0
230
1.0
 70
    11
 71
     3
 72
    20
 73
    16
 74
     0
 42
0.0000000001
 43
0.0000000001
 40
0.0
 40
0.0
 40
0.0
 40
0.0
 40
0.25
 40
0.25
 40
0.25
 40
0.25
 40
0.5
 40
0.5
 40
0.5
 40
0.5
 40
0.75
 40
0.75
 40
0.75
 40
0.75
 40
1.0
 40
1.0
 40
1.0
 40
1.0
 10
861.7205
 20
-289.6116
 30
0.0
 10
861.7205
 20
-289.6116
 30
0.0
 10
866.8866
 20
-289.6116
 30
0.0
 10
866.8866
 20
-289.6116
 30
0.0
 10
866.8866
 20
-289.6116
 30
0.0
 10
866.8866
 20
-289.6116
 30
0.0
 10
866.8866
 20
-292.1699
 30
0.0
 10
866.8866
 20
-292.1699
 30
0.0
 10
866.8866
 20
-292.1699
 30
0.0
 10
866.8866
 20
-292.1699
 30
0.0
 10
861.7205
 20
-292.1699
 30
0.0
 10
861.7205
 20
-292.1699
 30
0.0
 10
861.7205
 20
-292.1699
 30
0.0
 10
861.7205
 20
-292.1699
 30
0.0
 10
861.7205
 20
-289.6116
 30
0.0
 10
861.7205
 20
-289.6116
 30
0.0
  0
SPLINE
  5
7B
330
1F
100
AcDbEntity
  8
layer 1
 62
   250
370
     9
100
AcDbSpline
210
0.0
220
0.0
230
1.0
 70
    11
 71
     3
 72
    36
 73
    32
 74
     0
 42
0.0000000001
 43
0.0000000001
 40
0.0
 40
0.0
 40
0.0
 40
0.0
 40
0.125
 40
0.125
 40
0.125
 40
0.125
 40
0.25
 40
0.25
 40
0.25
 40
0.25
 40
0.375
 40
0.375
 40
0.375
 40
0.375
 40
0.5
 40
0.5
 40
0.5
 40
0.5
 40
0.625
 40
0.625
 40
0.625
 40
0.625
 40
0.75
 40
0.75
 40
0.75
 40
0.75
 40
0.875
 40
0.875
 40
0.875
 40
0.875
 40
1.0
 40
1.0
 40
1.0
 40
1.0
 10
856.061
 20
-289.6116
 30
0.0
 10
856.061
 20
-289.6116
 30
0.0
 10
860.5232
 20
-289.6116
 30
0.0
 10
860.5232
 20
-289.6116
 30
0.0
 10
860.5232
 20
-289.6116
 30
0.0
 10
860.5232
 20
-289.6116
 30
0.0
 10
860.5232
 20
-292.1691
 30
0.0
 10
860.5232
 20
-292.1691
 30
0.0
 10
860.5232
 20
-292.1691
 30
0.0
 10
858.7431
 20
-292.3514
 30
0.0
 10
857.5684
 20
-292.7238
 30
0.0
 10
857.206
 20
-294.5708
 30
0.0
 10
857.206
 20
-294.5708
 30
0.0
 10
855.8487
 20
-294.6997
 30
0.0
 10
854.9216
 20
-295.8196
 30
0.0
 10
854.8629
 20
-297.7144
 30
0.0
 10
854.8629
 20
-297.7144
 30
0.0
 10
854.8629
 20
-297.7144
 30
0.0
 10
850.4031
 20
-297.7144
 30
0.0
 10
850.4031
 20
-297.7144
 30
0.0
 10
850.4031
 20
-297.7144
 30
0.0
 10
850.4031
 20
-297.7144
 30
0.0
 10
850.4031
 20
-295.7616
 30
0.0
 10
850.4031
 20
-295.7616
 30
0.0
 10
850.4031
 20
-295.7616
 30
0.0
 10
852.1439
 20
-295.7242
 30
0.0
 10
853.6126
 20
-294.687
 30
0.0
 10
853.7954
 20
-293.0252
 30
0.0
 10
853.7954
 20
-293.0252
 30
0.0
 10
855.4453
 20
-292.7706
 30
0.0
 10
856.0846
 20
-291.3287
 30
0.0
 10
856.061
 20
-289.6116
 30
0.0
  0
SPLINE
  5
7C
330
1F
100
AcDbEntity
  8
layer 1
 62
   250
370
     9
100
AcDbSpline
210
0.0
220
0.0
230
1.0
 70
    11
 71
     3
 72
    20
 73
    16
 74
     0
 42
0.0000000001
 43
0.0000000001
 40
0.0
 40
0.0
 40
0.0
 40
0.0
 40
0.25
 40
0.25
 40
0.25
 40
0.25
 40
0.5
 40
0.5
 40
0.5
 40
0.5
 40
0.75
 40
0.75
 40
0.75
 40
0.75
 40
1.0
 40
1.0
 40
1.0
 40
1.0
 10
850.4031
 20
-289.6116
 30
0.0
 10
850.4031
 20
-289.6116
 30
0.0
 10
854.8642
 20
-289.6116
 30
0.0
 10
854.8642
 20
-289.6116
 30
0.0
 10
854.8642
 20
-289.6116
 30
0.0
 10
854.8113
 20
-290.8153
 30
0.0
 10
854.0823
 20
-292.0949
 30
0.0
 10
852.7429
 20
-292.1334
 30
0.0
 10
852.7429
 20
-292.1334
 30
0.0
 10
852.6294
 20
-293.5793
 30
0.0
 10
851.849
 20
-294.4371
 30
0.0
 10
850.4031
 20
-294.5845
 30
0.0
 10
850.4031
 20
-294.5845
 30
0.0
 10
850.4031
 20
-294.5845
 30
0.0
 10
850.4031
 20
-289.6116
 30
0.0
 10
850.4031
 20
-289.6116
 30
0.0
  0
SPLINE
  5
7D
330
1F
100
AcDbEntity
  8
layer 1
 62
   250
370
     9
100
AcDbSpline
210
0.0
220
0.0
230
1.0
 70
    11
 71
     3
 72
    20
 73
    16
 74
     0
 42
0.0000000001
 43
0.0000000001
 40
0.0
 40
0.0
 40
0.0
 40
0.0
 40
0.25
 40
0.25
 40
0.25
 40
0.25
 40
0.5
 40
0.5
 40
0.5
 40
0.5
 40
0.75
 40
0.75
 40
0.75
 40
0.75
 40
1.0
 40
1.0
 40
1.0
 40
1.0
 10
844.7447
 20
-289.6116
 30
0.0
 10
844.7447
 20
-289.6116
 30
0.0
 10
849.2057
 20
-289.6116
 30
0.0
 10
849.2057
 20
-289.6116
 30
0.0
 10
849.2057
 20
-289.6116
 30
0.0
 10
849.2057
 20
-289.6116
 30
0.0
 10
849.2057
 20
-294.5845
 30
0.0
 10
849.2057
 20
-294.5845
 30
0.0
 10
849.2057
 20
-294.5845
 30
0.0
 10
847.7599
 20
-294.4371
 30
0.0
 10
846.9795
 20
-293.5793
 30
0.0
 10
846.866
 20
-292.1334
 30
0.0
 10
846.866
 20
-292.1334
 30
0.0
 10
845.5267
 20
-292.0949
 30
0.0
 10
844.7976
 20
-290.8155
 30
0.0
 10
844.7447
 20
-289.6116
 30
0.0
  0
SPLINE
  5
7E
330
1F
100
AcDbEntity
  8
layer 1
 62
   250
370
     9
100
AcDbSpline
210
0.0
220
0.0
230
1.0
 70
    11
 71
     3
 72
    20
 73
    16
 74
     0
 42
0.0000000001
 43
0.0000000001
 40
0.0
 40
0.0
 40
0.0
 40
0.0
 40
0.25
 40
0.25
 40
0.25
 40
0.25
 40
0.5
 40
0.5
 40
0.5
 40
0.5
 40
0.75
 40
0.75
 40
0.75
 40
0.75
 40
1.0
 40
1.0
 40
1.0
 40
1.0
 10
839.0857
 20
-309.6774
 30
0.0
 10
839.0857
 20
-309.6774
 30
0.0
 10
843.5471
 20
-309.6785
 30
0.0
 10
843.5471
 20
-309.6785
 30
0.0
 10
843.5471
 20
-309.6785
 30
0.0
 10
843.5471
 20
-309.6785
 30
0.0
 10
843.5471
 20
-305.3051
 30
0.0
 10
843.5471
 20
-305.3051
 30
0.0
 10
843.5471
 20
-305.3051
 30
0.0
 10
842.1947
 20
-305.4204
 30
0.0
 10
841.3397
 20
-306.0616
 30
0.0
 10
841.2575
 20
-307.4824
 30
0.0
 10
841.2575
 20
-307.4824
 30
0.0
 10
839.9479
 20
-307.507
 30
0.0
 10
839.1739
 20
-308.4118
 30
0.0
 10
839.0857
 20
-309.6774
 30
0.0
  0
SPLINE
  5
7F
330
1F
100
AcDbEntity
  8
layer 1
 62
   250
370
     9
100
AcDbSpline
210
0.0
220
0.0
230
1.0
 70
    11
 71
     3
 72
    24
 73
    20
 74
     0
 42
0.0000000001
 43
0.0000000001
 40
0.0
 40
0.0
 40
0.0
 40
0.0
 40
0.2
 40
0.2
 40
0.2
 40
0.2
 40
0.4
 40
0.4
 40
0.4
 40
0.4
 40
0.6000000000000001
 40
0.6000000000000001
 40
0.6000000000000001
 40
0.6000000000000001
 40
0.8
 40
0.8
 40
0.8
 40
0.8
 40
1.0
 40
1.0
 40
1.0
 40
1.0
 10
839.0857
 20
-302.2271
 30
0.0
 10
839.0857
 20
-302.2271
 30
0.0
 10
839.0857
 20
-307.1854
 30
0.0
 10
839.0857
 20
-307.1854
 30
0.0
 10
839.0857
 20
-307.1854
 30
0.0
 10
839.417
 20
-306.8056
 30
0.0
 10
839.8248
 20
-306.5632
 30
0.0
 10
840.2753
 20
-306.5976
 30
0.0
 10
840.2753
 20
-306.5976
 30
0.0
 10
840.5819
 20
-304.9157
 30
0.0
 10
841.9342
 20
-304.217
 30
0.0
 10
843.5471
 20
-304.1331
 30
0.0
 10
843.5471
 20
-304.1331
 30
0.0
 10
843.5471
 20
-304.1331
 30
0.0
 10
843.5471
 20
-302.1744
 30
0.0
 10
843.5471
 20
-302.1744
 30
0.0
 10
843.5471
 20
-302.1744
 30
0.0
 10
843.1748
 20
-302.1744
 30
0.0
 10
839.0894
 20
-302.1454
 30
0.0
 10
839.0857
 20
-302.2271
 30
0.0
  0
SPLINE
  5
80
330
1F
100
AcDbEntity
  8
layer 1
 62
   250
370
     9
100
AcDbSpline
210
0.0
220
0.0
230
1.0
 70
    11
 71
     3
 72
    36
 73
    32
 74
     0
 42
0.0000000001
 43
0.0000000001
 40
0.0
 40
0.0
 40
0.0
 40
0.0
 40
0.125
 40
0.125
 40
0.125
 40
0.125
 40
0.25
 40
0.25
 40
0.25
 40
0.25
 40
0.375
 40
0.375
 40
0.375
 40
0.375
 40
0.5
 40
0.5
 40
0.5
 40
0.5
 40
0.625
 40
0.625
 40
0.625
 40
0.625
 40
0.75
 40
0.75
 40
0.75
 40
0.75
 40
0.875
 40
0.875
 40
0.875
 40
0.875
 40
1.0
 40
1.0
 40
1.0
 40
1.0
 10
839.0857
 20
-289.6116
 30
0.0
 10
839.0857
 20
-289.6116
 30
0.0
 10
843.5476
 20
-289.6116
 30
0.0
 10
843.5476
 20
-289.6116
 30
0.0
 10
843.5476
 20
-289.6116
 30
0.0
 10
843.524
 20
-291.2645
 30
0.0
 10
844.3551
 20
-292.8772
 30
0.0
 10
845.8133
 20
-293.0252
 30
0.0
 10
845.8133
 20
-293.0252
 30
0.0
 10
845.9321
 20
-294.4951
 30
0.0
 10
847.4648
 20
-295.7242
 30
0.0
 10
849.2057
 20
-295.7616
 30
0.0
 10
849.2057
 20
-295.7616
 30
0.0
 10
849.2057
 20
-295.7616
 30
0.0
 10
849.2057
 20
-297.7144
 30
0.0
 10
849.2057
 20
-297.7144
 30
0.0
 10
849.2057
 20
-297.7144
 30
0.0
 10
849.2057
 20
-297.7144
 30
0.0
 10
844.7431
 20
-297.7144
 30
0.0
 10
844.7431
 20
-297.7144
 30
0.0
 10
844.7431
 20
-297.7144
 30
0.0
 10
844.6849
 20
-295.8837
 30
0.0
 10
843.7118
 20
-294.76
 30
0.0
 10
842.3574
 20
-294.6774
 30
0.0
 10
842.3574
 20
-294.6774
 30
0.0
 10
842.2296
 20
-293.0662
 30
0.0
 10
840.8438
 20
-292.267
 30
0.0
 10
839.0857
 20
-292.1693
 30
0.0
 10
839.0857
 20
-292.1693
 30
0.0
 10
839.0857
 20
-292.1693
 30
0.0
 10
839.0857
 20
-289.6116
 30
0.0
 10
839.0857
 20
-289.6116
 30
0.0
  0
SPLINE
  5
81
330
1F
100
AcDbEntity
  8
layer 1
 62
   250
370
     9
100
AcDbSpline
210
0.0
220
0.0
230
1.0
 70
    11
 71
     3
 72
    20
 73
    16
 74
     0
 42
0.0000000001
 43
0.0000000001
 40
0.0
 40
0.0
 40
0.0
 40
0.0
 40
0.25
 40
0.25
 40
0.25
 40
0.25
 40
0.5
 40
0.5
 40
0.5
 40
0.5
 40
0.75
 40
0.75
 40
0.75
 40
0.75
 40
1.0
 40
1.0
 40
1.0
 40
1.0
 10
841.3728
 20
-355.6765
 30
0.0
 10
841.2647
 20
-357.1041
 30
0.0
 10
840.4599
 20
-357.7353
 30
0.0
 10
839.0857
 20
-357.8536
 30
0.0
 10
839.0857
 20
-357.8536
 30
0.0
 10
839.0857
 20
-357.8536
 30
0.0
 10
839.0857
 20
-353.4804
 30
0.0
 10
839.0857
 20
-353.4804
 30
0.0
 10
839.0857
 20
-353.4804
 30
0.0
 10
839.0857
 20
-353.4804
 30
0.0
 10
843.5491
 20
-353.4804
 30
0.0
 10
843.5491
 20
-353.4804
 30
0.0
 10
843.5491
 20
-353.4804
 30
0.0
 10
843.4603
 20
-354.7532
 30
0.0
 10
842.7342
 20
-355.6509
 30
0.0
 10
841.3728
 20
-355.6765
 30
0.0
  0
SPLINE
  5
82
330
1F
100
AcDbEntity
  8
layer 1
 62
   250
370
     9
100
AcDbSpline
210
0.0
220
0.0
230
1.0
 70
    11
 71
     3
 72
    20
 73
    16
 74
     0
 42
0.0000000001
 43
0.0000000001
 40
0.0
 40
0.0
 40
0.0
 40
0.0
 40
0.25
 40
0.25
 40
0.25
 40
0.25
 40
0.5
 40
0.5
 40
0.5
 40
0.5
 40
0.75
 40
0.75
 40
0.75
 40
0.75
 40
1.0
 40
1.0
 40
1.0
 40
1.0
 10
843.5471
 20
-350.2179
 30
0.0
 10
843.5471
 20
-350.2179
 30
0.0
 10
843.5471
 20
-352.2829
 30
0.0
 10
843.5471
 20
-352.2829
 30
0.0
 10
843.5471
 20
-352.2829
 30
0.0
 10
843.5471
 20
-352.2829
 30
0.0
 10
839.0857
 20
-352.2829
 30
0.0
 10
839.0857
 20
-352.2829
 30
0.0
 10
839.0857
 20
-352.2829
 30
0.0
 10
839.0857
 20
-352.2829
 30
0.0
 10
839.0857
 20
-350.2179
 30
0.0
 10
839.0857
 20
-350.2179
 30
0.0
 10
839.0857
 20
-350.2179
 30
0.0
 10
839.0857
 20
-350.2179
 30
0.0
 10
843.5471
 20
-350.2179
 30
0.0
 10
843.5471
 20
-350.2179
 30
0.0
  0
SPLINE
  5
83
330
1F
100
AcDbEntity
  8
layer 1
 62
   250
370
     9
100
AcDbSpline
210
0.0
220
0.0
230
1.0
 70
    11
 71
     3
 72
    20
 73
    16
 74
     0
 42
0.0000000001
 43
0.0000000001
 40
0.0
 40
0.0
 40
0.0
 40
0.0
 40
0.25
 40
0.25
 40
0.25
 40
0.25
 40
0.5
 40
0.5
 40
0.5
 40
0.5
 40
0.75
 40
0.75
 40
0.75
 40
0.75
 40
1.0
 40
1.0
 40
1.0
 40
1.0
 10
860.5232
 20
-350.2179
 30
0.0
 10
860.5232
 20
-350.2179
 30
0.0
 10
860.5232
 20
-352.2829
 30
0.0
 10
860.5232
 20
-352.2829
 30
0.0
 10
860.5232
 20
-352.2829
 30
0.0
 10
860.5232
 20
-352.2829
 30
0.0
 10
856.0617
 20
-352.2829
 30
0.0
 10
856.0617
 20
-352.2829
 30
0.0
 10
856.0617
 20
-352.2829
 30
0.0
 10
856.0617
 20
-352.2829
 30
0.0
 10
856.0617
 20
-350.2179
 30
0.0
 10
856.0617
 20
-350.2179
 30
0.0
 10
856.0617
 20
-350.2179
 30
0.0
 10
856.0617
 20
-350.2179
 30
0.0
 10
860.5232
 20
-350.2179
 30
0.0
 10
860.5232
 20
-350.2179
 30
0.0
  0
SPLINE
  5
84
330
1F
100
AcDbEntity
  8
layer 1
 62
   250
370
     9
100
AcDbSpline
210
0.0
220
0.0
230
1.0
 70
    11
 71
     3
 72
    20
 73
    16
 74
     0
 42
0.0000000001
 43
0.0000000001
 40
0.0
 40
0.0
 40
0.0
 40
0.0
 40
0.25
 40
0.25
 40
0.25
 40
0.25
 40
0.5
 40
0.5
 40
0.5
 40
0.5
 40
0.75
 40
0.75
 40
0.75
 40
0.75
 40
1.0
 40
1.0
 40
1.0
 40
1.0
 10
860.5232
 20
-353.4804
 30
0.0
 10
860.5232
 20
-353.4804
 30
0.0
 10
860.5232
 20
-357.8537
 30
0.0
 10
860.5232
 20
-357.8537
 30
0.0
 10
860.5232
 20
-357.8537
 30
0.0
 10
859.171
 20
-357.7384
 30
0.0
 10
858.3156
 20
-357.0971
 30
0.0
 10
858.2334
 20
-355.6765
 30
0.0
 10
858.2334
 20
-355.6765
 30
0.0
 10
856.8669
 20
-355.6509
 30
0.0
 10
856.1473
 20
-354.7757
 30
0.0
 10
856.057
 20
-353.4804
 30
0.0
 10
856.057
 20
-353.4804
 30
0.0
 10
856.057
 20
-353.4804
 30
0.0
 10
860.5232
 20
-353.4804
 30
0.0
 10
860.5232
 20
-353.4804
 30
0.0
  0
SPLINE
  5
85
330
1F
100
AcDbEntity
  8
layer 1
 62
   250
370
     9
100
AcDbSpline
210
0.0
220
0.0
230
1.0
 70
    11
 71
     3
 72
    20
 73
    16
 74
     0
 42
0.0000000001
 43
0.0000000001
 40
0.0
 40
0.0
 40
0.0
 40
0.0
 40
0.25
 40
0.25
 40
0.25
 40
0.25
 40
0.5
 40
0.5
 40
0.5
 40
0.5
 40
0.75
 40
0.75
 40
0.75
 40
0.75
 40
1.0
 40
1.0
 40
1.0
 40
1.0
 10
860.5277
 20
-341.5163
 30
0.0
 10
860.4376
 20
-342.8115
 30
0.0
 10
859.7185
 20
-343.6867
 30
0.0
 10
858.3514
 20
-343.7124
 30
0.0
 10
858.3514
 20
-343.7124
 30
0.0
 10
858.2432
 20
-345.1415
 30
0.0
 10
857.4374
 20
-345.7724
 30
0.0
 10
856.0617
 20
-345.8897
 30
0.0
 10
856.0617
 20
-345.8897
 30
0.0
 10
856.0617
 20
-345.8897
 30
0.0
 10
856.0617
 20
-341.5163
 30
0.0
 10
856.0617
 20
-341.5163
 30
0.0
 10
856.0617
 20
-341.5163
 30
0.0
 10
856.0617
 20
-341.5163
 30
0.0
 10
860.5277
 20
-341.5163
 30
0.0
 10
860.5277
 20
-341.5163
 30
0.0
  0
SPLINE
  5
86
330
1F
100
AcDbEntity
  8
layer 1
 62
   250
370
     9
100
AcDbSpline
210
0.0
220
0.0
230
1.0
 70
    11
 71
     3
 72
    20
 73
    16
 74
     0
 42
0.0000000001
 43
0.0000000001
 40
0.0
 40
0.0
 40
0.0
 40
0.0
 40
0.25
 40
0.25
 40
0.25
 40
0.25
 40
0.5
 40
0.5
 40
0.5
 40
0.5
 40
0.75
 40
0.75
 40
0.75
 40
0.75
 40
1.0
 40
1.0
 40
1.0
 40
1.0
 10
849.2057
 20
-347.0609
 30
0.0
 10
849.2057
 20
-347.0609
 30
0.0
 10
849.2057
 20
-352.2829
 30
0.0
 10
849.2057
 20
-352.2829
 30
0.0
 10
849.2057
 20
-352.2829
 30
0.0
 10
849.2057
 20
-352.2829
 30
0.0
 10
844.7445
 20
-352.2829
 30
0.0
 10
844.7445
 20
-352.2829
 30
0.0
 10
844.7445
 20
-352.2829
 30
0.0
 10
844.7445
 20
-352.2829
 30
0.0
 10
844.7445
 20
-347.0609
 30
0.0
 10
844.7445
 20
-347.0609
 30
0.0
 10
844.7445
 20
-347.0609
 30
0.0
 10
844.7445
 20
-347.0609
 30
0.0
 10
849.2057
 20
-347.0609
 30
0.0
 10
849.2057
 20
-347.0609
 30
0.0
  0
SPLINE
  5
87
330
1F
100
AcDbEntity
  8
layer 1
 62
   250
370
     9
100
AcDbSpline
210
0.0
220
0.0
230
1.0
 70
    11
 71
     3
 72
    20
 73
    16
 74
     0
 42
0.0000000001
 43
0.0000000001
 40
0.0
 40
0.0
 40
0.0
 40
0.0
 40
0.25
 40
0.25
 40
0.25
 40
0.25
 40
0.5
 40
0.5
 40
0.5
 40
0.5
 40
0.75
 40
0.75
 40
0.75
 40
0.75
 40
1.0
 40
1.0
 40
1.0
 40
1.0
 10
849.2057
 20
-338.1953
 30
0.0
 10
849.2057
 20
-338.1953
 30
0.0
 10
849.2057
 20
-345.8634
 30
0.0
 10
849.2057
 20
-345.8634
 30
0.0
 10
849.2057
 20
-345.8634
 30
0.0
 10
849.2057
 20
-345.8634
 30
0.0
 10
844.7445
 20
-345.8634
 30
0.0
 10
844.7445
 20
-345.8634
 30
0.0
 10
844.7445
 20
-345.8634
 30
0.0
 10
844.7445
 20
-345.8634
 30
0.0
 10
844.7445
 20
-338.1953
 30
0.0
 10
844.7445
 20
-338.1953
 30
0.0
 10
844.7445
 20
-338.1953
 30
0.0
 10
844.7445
 20
-338.1953
 30
0.0
 10
849.2057
 20
-338.1953
 30
0.0
 10
849.2057
 20
-338.1953
 30
0.0
  0
SPLINE
  5
88
330
1F
100
AcDbEntity
  8
layer 1
 62
   250
370
     9
100
AcDbSpline
210
0.0
220
0.0
230
1.0
 70
    11
 71
     3
 72
    20
 73
    16
 74
     0
 42
0.0000000001
 43
0.0000000001
 40
0.0
 40
0.0
 40
0.0
 40
0.0
 40
0.25
 40
0.25
 40
0.25
 40
0.25
 40
0.5
 40
0.5
 40
0.5
 40
0.5
 40
0.75
 40
0.75
 40
0.75
 40
0.75
 40
1.0
 40
1.0
 40
1.0
 40
1.0
 10
850.4031
 20
-345.8634
 30
0.0
 10
850.4031
 20
-345.8634
 30
0.0
 10
850.4031
 20
-338.1953
 30
0.0
 10
850.4031
 20
-338.1953
 30
0.0
 10
850.4031
 20
-338.1953
 30
0.0
 10
850.4031
 20
-338.1953
 30
0.0
 10
854.8644
 20
-338.1953
 30
0.0
 10
854.8644
 20
-338.1953
 30
0.0
 10
854.8644
 20
-338.1953
 30
0.0
 10
854.8644
 20
-338.1953
 30
0.0
 10
854.8644
 20
-345.8634
 30
0.0
 10
854.8644
 20
-345.8634
 30
0.0
 10
854.8644
 20
-345.8634
 30
0.0
 10
854.8644
 20
-345.8634
 30
0.0
 10
850.4031
 20
-345.8634
 30
0.0
 10
850.4031
 20
-345.8634
 30
0.0
  0
SPLINE
  5
89
330
1F
100
AcDbEntity
  8
layer 1
 62
   250
370
     9
100
AcDbSpline
210
0.0
220
0.0
230
1.0
 70
    11
 71
     3
 72
    20
 73
    16
 74
     0
 42
0.0000000001
 43
0.0000000001
 40
0.0
 40
0.0
 40
0.0
 40
0.0
 40
0.25
 40
0.25
 40
0.25
 40
0.25
 40
0.5
 40
0.5
 40
0.5
 40
0.5
 40
0.75
 40
0.75
 40
0.75
 40
0.75
 40
1.0
 40
1.0
 40
1.0
 40
1.0
 10
850.4031
 20
-352.2829
 30
0.0
 10
850.4031
 20
-352.2829
 30
0.0
 10
850.4031
 20
-347.0609
 30
0.0
 10
850.4031
 20
-347.0609
 30
0.0
 10
850.4031
 20
-347.0609
 30
0.0
 10
850.4031
 20
-347.0609
 30
0.0
 10
854.8644
 20
-347.0609
 30
0.0
 10
854.8644
 20
-347.0609
 30
0.0
 10
854.8644
 20
-347.0609
 30
0.0
 10
854.8644
 20
-347.0609
 30
0.0
 10
854.8644
 20
-352.2829
 30
0.0
 10
854.8644
 20
-352.2829
 30
0.0
 10
854.8644
 20
-352.2829
 30
0.0
 10
854.8644
 20
-352.2829
 30
0.0
 10
850.4031
 20
-352.2829
 30
0.0
 10
850.4031
 20
-352.2829
 30
0.0
  0
SPLINE
  5
8A
330
1F
100
AcDbEntity
  8
layer 1
 62
   250
370
     9
100
AcDbSpline
210
0.0
220
0.0
230
1.0
 70
    11
 71
     3
 72
    20
 73
    16
 74
     0
 42
0.0000000001
 43
0.0000000001
 40
0.0
 40
0.0
 40
0.0
 40
0.0
 40
0.25
 40
0.25
 40
0.25
 40
0.25
 40
0.5
 40
0.5
 40
0.5
 40
0.5
 40
0.75
 40
0.75
 40
0.75
 40
0.75
 40
1.0
 40
1.0
 40
1.0
 40
1.0
 10
839.0857
 20
-338.1953
 30
0.0
 10
839.0857
 20
-338.1953
 30
0.0
 10
843.5471
 20
-338.1953
 30
0.0
 10
843.5471
 20
-338.1953
 30
0.0
 10
843.5471
 20
-338.1953
 30
0.0
 10
843.5471
 20
-338.1953
 30
0.0
 10
843.5471
 20
-340.3188
 30
0.0
 10
843.5471
 20
-340.3188
 30
0.0
 10
843.5471
 20
-340.3188
 30
0.0
 10
843.5471
 20
-340.3188
 30
0.0
 10
839.0857
 20
-340.3188
 30
0.0
 10
839.0857
 20
-340.3188
 30
0.0
 10
839.0857
 20
-340.3188
 30
0.0
 10
839.0857
 20
-340.3188
 30
0.0
 10
839.0857
 20
-338.1953
 30
0.0
 10
839.0857
 20
-338.1953
 30
0.0
  0
SPLINE
  5
8B
330
1F
100
AcDbEntity
  8
layer 1
 62
   250
370
     9
100
AcDbSpline
210
0.0
220
0.0
230
1.0
 70
    11
 71
     3
 72
    20
 73
    16
 74
     0
 42
0.0000000001
 43
0.0000000001
 40
0.0
 40
0.0
 40
0.0
 40
0.0
 40
0.25
 40
0.25
 40
0.25
 40
0.25
 40
0.5
 40
0.5
 40
0.5
 40
0.5
 40
0.75
 40
0.75
 40
0.75
 40
0.75
 40
1.0
 40
1.0
 40
1.0
 40
1.0
 10
860.5232
 20
-340.3188
 30
0.0
 10
860.5232
 20
-340.3188
 30
0.0
 10
856.0617
 20
-340.3188
 30
0.0
 10
856.0617
 20
-340.3188
 30
0.0
 10
856.0617
 20
-340.3188
 30
0.0
 10
856.0617
 20
-340.3188
 30
0.0
 10
856.0617
 20
-338.1953
 30
0.0
 10
856.0617
 20
-338.1953
 30
0.0
 10
856.0617
 20
-338.1953
 30
0.0
 10
856.0617
 20
-338.1953
 30
0.0
 10
860.5232
 20
-338.1953
 30
0.0
 10
860.5232
 20
-338.1953
 30
0.0
 10
860.5232
 20
-338.1953
 30
0.0
 10
860.5232
 20
-338.1953
 30
0.0
 10
860.5232
 20
-340.3188
 30
0.0
 10
860.5232
 20
-340.3188
 30
0.0
  0
SPLINE
  5
8C
330
1F
100
AcDbEntity
  8
layer 1
 62
   250
370
     9
100
AcDbSpline
210
0.0
220
0.0
230
1.0
 70
    11
 71
     3
 72
    20
 73
    16
 74
     0
 42
0.0000000001
 43
0.0000000001
 40
0.0
 40
0.0
 40
0.0
 40
0.0
 40
0.25
 40
0.25
 40
0.25
 40
0.25
 40
0.5
 40
0.5
 40
0.5
 40
0.5
 40
0.75
 40
0.75
 40
0.75
 40
0.75
 40
1.0
 40
1.0
 40
1.0
 40
1.0
 10
843.5471
 20
-328.2962
 30
0.0
 10
843.5471
 20
-328.2962
 30
0.0
 10
839.0857
 20
-328.2962
 30
0.0
 10
839.0857
 20
-328.2962
 30
0.0
 10
839.0857
 20
-328.2962
 30
0.0
 10
839.0857
 20
-328.2962
 30
0.0
 10
839.0857
 20
-326.1961
 30
0.0
 10
839.0857
 20
-326.1961
 30
0.0
 10
839.0857
 20
-326.1961
 30
0.0
 10
839.0857
 20
-326.1961
 30
0.0
 10
843.5471
 20
-326.1961
 30
0.0
 10
843.5471
 20
-326.1961
 30
0.0
 10
843.5471
 20
-326.1961
 30
0.0
 10
843.5471
 20
-326.1961
 30
0.0
 10
843.5471
 20
-328.2962
 30
0.0
 10
843.5471
 20
-328.2962
 30
0.0
  0
SPLINE
  5
8D
330
1F
100
AcDbEntity
  8
layer 1
 62
   250
370
     9
100
AcDbSpline
210
0.0
220
0.0
230
1.0
 70
    11
 71
     3
 72
    20
 73
    16
 74
     0
 42
0.0000000001
 43
0.0000000001
 40
0.0
 40
0.0
 40
0.0
 40
0.0
 40
0.25
 40
0.25
 40
0.25
 40
0.25
 40
0.5
 40
0.5
 40
0.5
 40
0.5
 40
0.75
 40
0.75
 40
0.75
 40
0.75
 40
1.0
 40
1.0
 40
1.0
 40
1.0
 10
849.2057
 20
-328.2962
 30
0.0
 10
849.2057
 20
-328.2962
 30
0.0
 10
844.7445
 20
-328.2962
 30
0.0
 10
844.7445
 20
-328.2962
 30
0.0
 10
844.7445
 20
-328.2962
 30
0.0
 10
844.7445
 20
-328.2962
 30
0.0
 10
844.7445
 20
-326.1961
 30
0.0
 10
844.7445
 20
-326.1961
 30
0.0
 10
844.7445
 20
-326.1961
 30
0.0
 10
844.7445
 20
-326.1961
 30
0.0
 10
849.2057
 20
-326.1961
 30
0.0
 10
849.2057
 20
-326.1961
 30
0.0
 10
849.2057
 20
-326.1961
 30
0.0
 10
849.2057
 20
-326.1961
 30
0.0
 10
849.2057
 20
-328.2962
 30
0.0
 10
849.2057
 20
-328.2962
 30
0.0
  0
SPLINE
  5
8E
330
1F
100
AcDbEntity
  8
layer 1
 62
   250
370
     9
100
AcDbSpline
210
0.0
220
0.0
230
1.0
 70
    11
 71
     3
 72
    20
 73
    16
 74
     0
 42
0.0000000001
 43
0.0000000001
 40
0.0
 40
0.0
 40
0.0
 40
0.0
 40
0.25
 40
0.25
 40
0.25
 40
0.25
 40
0.5
 40
0.5
 40
0.5
 40
0.5
 40
0.75
 40
0.75
 40
0.75
 40
0.75
 40
1.0
 40
1.0
 40
1.0
 40
1.0
 10
856.0617
 20
-328.2962
 30
0.0
 10
856.0617
 20
-328.2962
 30
0.0
 10
856.0617
 20
-326.1961
 30
0.0
 10
856.0617
 20
-326.1961
 30
0.0
 10
856.0617
 20
-326.1961
 30
0.0
 10
856.0617
 20
-326.1961
 30
0.0
 10
860.5232
 20
-326.1961
 30
0.0
 10
860.5232
 20
-326.1961
 30
0.0
 10
860.5232
 20
-326.1961
 30
0.0
 10
860.5232
 20
-326.1961
 30
0.0
 10
860.5232
 20
-328.2962
 30
0.0
 10
860.5232
 20
-328.2962
 30
0.0
 10
860.5232
 20
-328.2962
 30
0.0
 10
860.5232
 20
-328.2962
 30
0.0
 10
856.0617
 20
-328.2962
 30
0.0
 10
856.0617
 20
-328.2962
 30
0.0
  0
SPLINE
  5
8F
330
1F
100
AcDbEntity
  8
layer 1
 62
   250
370
     9
100
AcDbSpline
210
0.0
220
0.0
230
1.0
 70
    11
 71
     3
 72
    20
 73
    16
 74
     0
 42
0.0000000001
 43
0.0000000001
 40
0.0
 40
0.0
 40
0.0
 40
0.0
 40
0.25
 40
0.25
 40
0.25
 40
0.25
 40
0.5
 40
0.5
 40
0.5
 40
0.5
 40
0.75
 40
0.75
 40
0.75
 40
0.75
 40
1.0
 40
1.0
 40
1.0
 40
1.0
 10
854.8644
 20
-326.1961
 30
0.0
 10
854.8644
 20
-326.1961
 30
0.0
 10
854.8644
 20
-328.2962
 30
0.0
 10
854.8644
 20
-328.2962
 30
0.0
 10
854.8644
 20
-328.2962
 30
0.0
 10
854.8644
 20
-328.2962
 30
0.0
 10
850.4031
 20
-328.2962
 30
0.0
 10
850.4031
 20
-328.2962
 30
0.0
 10
850.4031
 20
-328.2962
 30
0.0
 10
850.4031
 20
-328.2962
 30
0.0
 10
850.4031
 20
-326.1961
 30
0.0
 10
850.4031
 20
-326.1961
 30
0.0
 10
850.4031
 20
-326.1961
 30
0.0
 10
850.4031
 20
-326.1961
 30
0.0
 10
854.8644
 20
-326.1961
 30
0.0
 10
854.8644
 20
-326.1961
 30
0.0
  0
SPLINE
  5
90
330
1F
100
AcDbEntity
  8
layer 1
 62
   250
370
     9
100
AcDbSpline
210
0.0
220
0.0
230
1.0
 70
    11
 71
     3
 72
    20
 73
    16
 74
     0
 42
0.0000000001
 43
0.0000000001
 40
0.0
 40
0.0
 40
0.0
 40
0.0
 40
0.25
 40
0.25
 40
0.25
 40
0.25
 40
0.5
 40
0.5
 40
0.5
 40
0.5
 40
0.75
 40
0.75
 40
0.75
 40
0.75
 40
1.0
 40
1.0
 40
1.0
 40
1.0
 10
846.916
 20
-334.8018
 30
0.0
 10
847.0235
 20
-333.3791
 30
0.0
 10
847.826
 20
-332.7425
 30
0.0
 10
849.2057
 20
-332.6245
 30
0.0
 10
849.2057
 20
-332.6245
 30
0.0
 10
849.2057
 20
-332.6245
 30
0.0
 10
849.2057
 20
-336.9979
 30
0.0
 10
849.2057
 20
-336.9979
 30
0.0
 10
849.2057
 20
-336.9979
 30
0.0
 10
849.2057
 20
-336.9979
 30
0.0
 10
844.7395
 20
-336.9979
 30
0.0
 10
844.7395
 20
-336.9979
 30
0.0
 10
844.7395
 20
-336.9979
 30
0.0
 10
844.8283
 20
-335.7253
 30
0.0
 10
845.5545
 20
-334.8273
 30
0.0
 10
846.916
 20
-334.8018
 30
0.0
  0
SPLINE
  5
91
330
1F
100
AcDbEntity
  8
layer 1
 62
   250
370
     9
100
AcDbSpline
210
0.0
220
0.0
230
1.0
 70
    11
 71
     3
 72
    20
 73
    16
 74
     0
 42
0.0000000001
 43
0.0000000001
 40
0.0
 40
0.0
 40
0.0
 40
0.0
 40
0.25
 40
0.25
 40
0.25
 40
0.25
 40
0.5
 40
0.5
 40
0.5
 40
0.5
 40
0.75
 40
0.75
 40
0.75
 40
0.75
 40
1.0
 40
1.0
 40
1.0
 40
1.0
 10
850.4031
 20
-336.9979
 30
0.0
 10
850.4031
 20
-336.9979
 30
0.0
 10
850.4031
 20
-332.6245
 30
0.0
 10
850.4031
 20
-332.6245
 30
0.0
 10
850.4031
 20
-332.6245
 30
0.0
 10
851.7557
 20
-332.7402
 30
0.0
 10
852.6102
 20
-333.3808
 30
0.0
 10
852.6928
 20
-334.8018
 30
0.0
 10
852.6928
 20
-334.8018
 30
0.0
 10
854.0593
 20
-334.8274
 30
0.0
 10
854.7788
 20
-335.7026
 30
0.0
 10
854.8692
 20
-336.9979
 30
0.0
 10
854.8692
 20
-336.9979
 30
0.0
 10
854.8692
 20
-336.9979
 30
0.0
 10
850.4031
 20
-336.9979
 30
0.0
 10
850.4031
 20
-336.9979
 30
0.0
  0
SPLINE
  5
92
330
1F
100
AcDbEntity
  8
layer 1
 62
   250
370
     9
100
AcDbSpline
210
0.0
220
0.0
230
1.0
 70
    11
 71
     3
 72
    40
 73
    36
 74
     0
 42
0.0000000001
 43
0.0000000001
 40
0.0
 40
0.0
 40
0.0
 40
0.0
 40
0.1111111111111111
 40
0.1111111111111111
 40
0.1111111111111111
 40
0.1111111111111111
 40
0.2222222222222222
 40
0.2222222222222222
 40
0.2222222222222222
 40
0.2222222222222222
 40
0.3333333333333333
 40
0.3333333333333333
 40
0.3333333333333333
 40
0.3333333333333333
 40
0.4444444444444444
 40
0.4444444444444444
 40
0.4444444444444444
 40
0.4444444444444444
 40
0.5555555555555556
 40
0.5555555555555556
 40
0.5555555555555556
 40
0.5555555555555556
 40
0.6666666666666667
 40
0.6666666666666667
 40
0.6666666666666667
 40
0.6666666666666667
 40
0.7777777777777779
 40
0.7777777777777779
 40
0.7777777777777779
 40
0.7777777777777779
 40
0.8888888888888891
 40
0.8888888888888891
 40
0.8888888888888891
 40
0.8888888888888891
 40
1.0
 40
1.0
 40
1.0
 40
1.0
 10
849.2057
 20
-331.4526
 30
0.0
 10
847.3645
 20
-331.4882
 30
0.0
 10
845.75
 20
-332.5466
 30
0.0
 10
845.8306
 20
-333.9036
 30
0.0
 10
845.8306
 20
-333.9036
 30
0.0
 10
844.2289
 20
-334.1493
 30
0.0
 10
843.5426
 20
-335.5731
 30
0.0
 10
843.5456
 20
-336.9979
 30
0.0
 10
843.5456
 20
-336.9979
 30
0.0
 10
843.5456
 20
-336.9979
 30
0.0
 10
839.0857
 20
-336.9979
 30
0.0
 10
839.0857
 20
-336.9979
 30
0.0
 10
839.0857
 20
-336.9979
 30
0.0
 10
839.0857
 20
-336.9979
 30
0.0
 10
839.0857
 20
-335.0389
 30
0.0
 10
839.0857
 20
-335.0389
 30
0.0
 10
839.0857
 20
-335.0389
 30
0.0
 10
840.7211
 20
-334.9625
 30
0.0
 10
842.0478
 20
-334.3772
 30
0.0
 10
842.3989
 20
-332.5264
 30
0.0
 10
842.3989
 20
-332.5264
 30
0.0
 10
843.6921
 20
-332.5483
 30
0.0
 10
844.646
 20
-331.4533
 30
0.0
 10
844.7459
 20
-329.4936
 30
0.0
 10
844.7459
 20
-329.4936
 30
0.0
 10
844.7459
 20
-329.4936
 30
0.0
 10
849.2057
 20
-329.4936
 30
0.0
 10
849.2057
 20
-329.4936
 30
0.0
 10
849.2057
 20
-329.4936
 30
0.0
 10
849.2057
 20
-329.4936
 30
0.0
 10
849.2057
 20
-331.4526
 30
0.0
 10
849.2057
 20
-331.4526
 30
0.0
 10
849.2057
 20
-331.4526
 30
0.0
 10
849.2057
 20
-331.4526
 30
0.0
 10
849.2057
 20
-331.4526
 30
0.0
 10
849.2057
 20
-331.4526
 30
0.0
  0
SPLINE
  5
93
330
1F
100
AcDbEntity
  8
layer 1
 62
   250
370
     9
100
AcDbSpline
210
0.0
220
0.0
230
1.0
 70
    11
 71
     3
 72
    20
 73
    16
 74
     0
 42
0.0000000001
 43
0.0000000001
 40
0.0
 40
0.0
 40
0.0
 40
0.0
 40
0.25
 40
0.25
 40
0.25
 40
0.25
 40
0.5
 40
0.5
 40
0.5
 40
0.5
 40
0.75
 40
0.75
 40
0.75
 40
0.75
 40
1.0
 40
1.0
 40
1.0
 40
1.0
 10
841.3754
 20
-331.6899
 30
0.0
 10
841.2672
 20
-333.1189
 30
0.0
 10
840.4613
 20
-333.7498
 30
0.0
 10
839.0857
 20
-333.867
 30
0.0
 10
839.0857
 20
-333.867
 30
0.0
 10
839.0857
 20
-333.867
 30
0.0
 10
839.0857
 20
-329.4936
 30
0.0
 10
839.0857
 20
-329.4936
 30
0.0
 10
839.0857
 20
-329.4936
 30
0.0
 10
839.0857
 20
-329.4936
 30
0.0
 10
843.5517
 20
-329.4936
 30
0.0
 10
843.5517
 20
-329.4936
 30
0.0
 10
843.5517
 20
-329.4936
 30
0.0
 10
843.4631
 20
-330.7664
 30
0.0
 10
842.737
 20
-331.6644
 30
0.0
 10
841.3754
 20
-331.6899
 30
0.0
  0
SPLINE
  5
94
330
1F
100
AcDbEntity
  8
layer 1
 62
   250
370
     9
100
AcDbSpline
210
0.0
220
0.0
230
1.0
 70
    11
 71
     3
 72
    36
 73
    32
 74
     0
 42
0.0000000001
 43
0.0000000001
 40
0.0
 40
0.0
 40
0.0
 40
0.0
 40
0.125
 40
0.125
 40
0.125
 40
0.125
 40
0.25
 40
0.25
 40
0.25
 40
0.25
 40
0.375
 40
0.375
 40
0.375
 40
0.375
 40
0.5
 40
0.5
 40
0.5
 40
0.5
 40
0.625
 40
0.625
 40
0.625
 40
0.625
 40
0.75
 40
0.75
 40
0.75
 40
0.75
 40
0.875
 40
0.875
 40
0.875
 40
0.875
 40
1.0
 40
1.0
 40
1.0
 40
1.0
 10
857.1793
 20
-332.7199
 30
0.0
 10
857.3042
 20
-333.9607
 30
0.0
 10
858.3166
 20
-334.9701
 30
0.0
 10
860.5232
 20
-335.0389
 30
0.0
 10
860.5232
 20
-335.0389
 30
0.0
 10
860.5232
 20
-335.0389
 30
0.0
 10
860.5232
 20
-336.9979
 30
0.0
 10
860.5232
 20
-336.9979
 30
0.0
 10
860.5232
 20
-336.9979
 30
0.0
 10
860.5232
 20
-336.9979
 30
0.0
 10
856.0633
 20
-336.9979
 30
0.0
 10
856.0633
 20
-336.9979
 30
0.0
 10
856.0633
 20
-336.9979
 30
0.0
 10
856.0234
 20
-334.7489
 30
0.0
 10
854.7431
 20
-333.8856
 30
0.0
 10
853.7213
 20
-333.8193
 30
0.0
 10
853.7213
 20
-333.8193
 30
0.0
 10
853.6935
 20
-332.8535
 30
0.0
 10
852.7258
 20
-331.6747
 30
0.0
 10
850.4031
 20
-331.4526
 30
0.0
 10
850.4031
 20
-331.4526
 30
0.0
 10
850.4031
 20
-331.4526
 30
0.0
 10
850.4031
 20
-329.4936
 30
0.0
 10
850.4031
 20
-329.4936
 30
0.0
 10
850.4031
 20
-329.4936
 30
0.0
 10
850.4031
 20
-329.4936
 30
0.0
 10
854.8629
 20
-329.4936
 30
0.0
 10
854.8629
 20
-329.4936
 30
0.0
 10
854.8629
 20
-329.4936
 30
0.0
 10
854.9413
 20
-331.4962
 30
0.0
 10
855.9472
 20
-332.5317
 30
0.0
 10
857.1793
 20
-332.7199
 30
0.0
  0
SPLINE
  5
95
330
1F
100
AcDbEntity
  8
layer 1
 62
   250
370
     9
100
AcDbSpline
210
0.0
220
0.0
230
1.0
 70
    11
 71
     3
 72
    20
 73
    16
 74
     0
 42
0.0000000001
 43
0.0000000001
 40
0.0
 40
0.0
 40
0.0
 40
0.0
 40
0.25
 40
0.25
 40
0.25
 40
0.25
 40
0.5
 40
0.5
 40
0.5
 40
0.5
 40
0.75
 40
0.75
 40
0.75
 40
0.75
 40
1.0
 40
1.0
 40
1.0
 40
1.0
 10
860.5232
 20
-329.4936
 30
0.0
 10
860.5232
 20
-329.4936
 30
0.0
 10
860.5232
 20
-333.867
 30
0.0
 10
860.5232
 20
-333.867
 30
0.0
 10
860.5232
 20
-333.867
 30
0.0
 10
859.171
 20
-333.7518
 30
0.0
 10
858.3156
 20
-333.1105
 30
0.0
 10
858.2334
 20
-331.6899
 30
0.0
 10
858.2334
 20
-331.6899
 30
0.0
 10
856.8668
 20
-331.6643
 30
0.0
 10
856.1474
 20
-330.7889
 30
0.0
 10
856.057
 20
-329.4936
 30
0.0
 10
856.057
 20
-329.4936
 30
0.0
 10
856.057
 20
-329.4936
 30
0.0
 10
860.5232
 20
-329.4936
 30
0.0
 10
860.5232
 20
-329.4936
 30
0.0
  0
SPLINE
  5
96
330
1F
100
AcDbEntity
  8
layer 1
 62
   250
370
     9
100
AcDbSpline
210
0.0
220
0.0
230
1.0
 70
    11
 71
     3
 72
    20
 73
    16
 74
     0
 42
0.0000000001
 43
0.0000000001
 40
0.0
 40
0.0
 40
0.0
 40
0.0
 40
0.25
 40
0.25
 40
0.25
 40
0.25
 40
0.5
 40
0.5
 40
0.5
 40
0.5
 40
0.75
 40
0.75
 40
0.75
 40
0.75
 40
1.0
 40
1.0
 40
1.0
 40
1.0
 10
866.8866
 20
-333.8409
 30
0.0
 10
866.8866
 20
-333.8409
 30
0.0
 10
861.7205
 20
-333.8409
 30
0.0
 10
861.7205
 20
-333.8409
 30
0.0
 10
861.7205
 20
-333.8409
 30
0.0
 10
861.7205
 20
-333.8409
 30
0.0
 10
861.7205
 20
-326.1961
 30
0.0
 10
861.7205
 20
-326.1961
 30
0.0
 10
861.7205
 20
-326.1961
 30
0.0
 10
861.7205
 20
-326.1961
 30
0.0
 10
866.8866
 20
-326.1961
 30
0.0
 10
866.8866
 20
-326.1961
 30
0.0
 10
866.8866
 20
-326.1961
 30
0.0
 10
866.8866
 20
-326.1961
 30
0.0
 10
866.8866
 20
-333.8409
 30
0.0
 10
866.8866
 20
-333.8409
 30
0.0
  0
SPLINE
  5
97
330
1F
100
AcDbEntity
  8
layer 1
 62
   250
370
     9
100
AcDbSpline
210
0.0
220
0.0
230
1.0
 70
    11
 71
     3
 72
    20
 73
    16
 74
     0
 42
0.0000000001
 43
0.0000000001
 40
0.0
 40
0.0
 40
0.0
 40
0.0
 40
0.25
 40
0.25
 40
0.25
 40
0.25
 40
0.5
 40
0.5
 40
0.5
 40
0.5
 40
0.75
 40
0.75
 40
0.75
 40
0.75
 40
1.0
 40
1.0
 40
1.0
 40
1.0
 10
866.8866
 20
-340.3188
 30
0.0
 10
866.8866
 20
-340.3188
 30
0.0
 10
861.7205
 20
-340.3188
 30
0.0
 10
861.7205
 20
-340.3188
 30
0.0
 10
861.7205
 20
-340.3188
 30
0.0
 10
861.7205
 20
-340.3188
 30
0.0
 10
861.7205
 20
-335.0383
 30
0.0
 10
861.7205
 20
-335.0383
 30
0.0
 10
861.7205
 20
-335.0383
 30
0.0
 10
861.7205
 20
-335.0383
 30
0.0
 10
866.8866
 20
-335.0383
 30
0.0
 10
866.8866
 20
-335.0383
 30
0.0
 10
866.8866
 20
-335.0383
 30
0.0
 10
866.8866
 20
-335.0383
 30
0.0
 10
866.8866
 20
-340.3188
 30
0.0
 10
866.8866
 20
-340.3188
 30
0.0
  0
SPLINE
  5
98
330
1F
100
AcDbEntity
  8
layer 1
 62
   250
370
     9
100
AcDbSpline
210
0.0
220
0.0
230
1.0
 70
    11
 71
     3
 72
    36
 73
    32
 74
     0
 42
0.0000000001
 43
0.0000000001
 40
0.0
 40
0.0
 40
0.0
 40
0.0
 40
0.125
 40
0.125
 40
0.125
 40
0.125
 40
0.25
 40
0.25
 40
0.25
 40
0.25
 40
0.375
 40
0.375
 40
0.375
 40
0.375
 40
0.5
 40
0.5
 40
0.5
 40
0.5
 40
0.625
 40
0.625
 40
0.625
 40
0.625
 40
0.75
 40
0.75
 40
0.75
 40
0.75
 40
0.875
 40
0.875
 40
0.875
 40
0.875
 40
1.0
 40
1.0
 40
1.0
 40
1.0
 10
866.8866
 20
-343.4777
 30
0.0
 10
865.1166
 20
-343.4881
 30
0.0
 10
863.5326
 20
-344.2211
 30
0.0
 10
863.2679
 20
-345.5717
 30
0.0
 10
863.2679
 20
-345.5717
 30
0.0
 10
861.6479
 20
-345.7765
 30
0.0
 10
860.4862
 20
-347.4242
 30
0.0
 10
860.5206
 20
-349.0204
 30
0.0
 10
860.5206
 20
-349.0204
 30
0.0
 10
860.5206
 20
-349.0204
 30
0.0
 10
856.0617
 20
-349.0204
 30
0.0
 10
856.0617
 20
-349.0204
 30
0.0
 10
856.0617
 20
-349.0204
 30
0.0
 10
856.0617
 20
-349.0204
 30
0.0
 10
856.0617
 20
-347.0617
 30
0.0
 10
856.0617
 20
-347.0617
 30
0.0
 10
856.0617
 20
-347.0617
 30
0.0
 10
857.4671
 20
-347.0629
 30
0.0
 10
859.092
 20
-346.2809
 30
0.0
 10
859.3115
 20
-344.6219
 30
0.0
 10
859.3115
 20
-344.6219
 30
0.0
 10
860.5559
 20
-344.6804
 30
0.0
 10
861.6631
 20
-343.4142
 30
0.0
 10
861.7219
 20
-341.5163
 30
0.0
 10
861.7219
 20
-341.5163
 30
0.0
 10
861.7219
 20
-341.5163
 30
0.0
 10
866.8866
 20
-341.5163
 30
0.0
 10
866.8866
 20
-341.5163
 30
0.0
 10
866.8866
 20
-341.5163
 30
0.0
 10
866.8866
 20
-341.5163
 30
0.0
 10
866.8866
 20
-343.4777
 30
0.0
 10
866.8866
 20
-343.4777
 30
0.0
  0
SPLINE
  5
99
330
1F
100
AcDbEntity
  8
layer 1
 62
   250
370
     9
100
AcDbSpline
210
0.0
220
0.0
230
1.0
 70
    11
 71
     3
 72
    20
 73
    16
 74
     0
 42
0.0000000001
 43
0.0000000001
 40
0.0
 40
0.0
 40
0.0
 40
0.0
 40
0.25
 40
0.25
 40
0.25
 40
0.25
 40
0.5
 40
0.5
 40
0.5
 40
0.5
 40
0.75
 40
0.75
 40
0.75
 40
0.75
 40
1.0
 40
1.0
 40
1.0
 40
1.0
 10
864.2351
 20
-346.6081
 30
0.0
 10
864.3603
 20
-345.202
 30
0.0
 10
865.6624
 20
-344.744
 30
0.0
 10
866.8866
 20
-344.6558
 30
0.0
 10
866.8866
 20
-344.6558
 30
0.0
 10
866.8866
 20
-344.6558
 30
0.0
 10
866.8866
 20
-349.0204
 30
0.0
 10
866.8866
 20
-349.0204
 30
0.0
 10
866.8866
 20
-349.0204
 30
0.0
 10
866.8866
 20
-349.0204
 30
0.0
 10
861.7142
 20
-349.0204
 30
0.0
 10
861.7142
 20
-349.0204
 30
0.0
 10
861.7142
 20
-349.0204
 30
0.0
 10
861.8292
 20
-347.6733
 30
0.0
 10
862.8489
 20
-346.6417
 30
0.0
 10
864.2351
 20
-346.6081
 30
0.0
  0
SPLINE
  5
9A
330
1F
100
AcDbEntity
  8
layer 1
 62
   250
370
     9
100
AcDbSpline
210
0.0
220
0.0
230
1.0
 70
    11
 71
     3
 72
    20
 73
    16
 74
     0
 42
0.0000000001
 43
0.0000000001
 40
0.0
 40
0.0
 40
0.0
 40
0.0
 40
0.25
 40
0.25
 40
0.25
 40
0.25
 40
0.5
 40
0.5
 40
0.5
 40
0.5
 40
0.75
 40
0.75
 40
0.75
 40
0.75
 40
1.0
 40
1.0
 40
1.0
 40
1.0
 10
866.8866
 20
-357.8275
 30
0.0
 10
866.8866
 20
-357.8275
 30
0.0
 10
861.7205
 20
-357.8275
 30
0.0
 10
861.7205
 20
-357.8275
 30
0.0
 10
861.7205
 20
-357.8275
 30
0.0
 10
861.7205
 20
-357.8275
 30
0.0
 10
861.7205
 20
-350.2179
 30
0.0
 10
861.7205
 20
-350.2179
 30
0.0
 10
861.7205
 20
-350.2179
 30
0.0
 10
861.7205
 20
-350.2179
 30
0.0
 10
866.8866
 20
-350.2179
 30
0.0
 10
866.8866
 20
-350.2179
 30
0.0
 10
866.8866
 20
-350.2179
 30
0.0
 10
866.8866
 20
-350.2179
 30
0.0
 10
866.8866
 20
-357.8275
 30
0.0
 10
866.8866
 20
-357.8275
 30
0.0
  0
SPLINE
  5
9B
330
1F
100
AcDbEntity
  8
layer 1
 62
   250
370
     9
100
AcDbSpline
210
0.0
220
0.0
230
1.0
 70
    11
 71
     3
 72
    20
 73
    16
 74
     0
 42
0.0000000001
 43
0.0000000001
 40
0.0
 40
0.0
 40
0.0
 40
0.0
 40
0.25
 40
0.25
 40
0.25
 40
0.25
 40
0.5
 40
0.5
 40
0.5
 40
0.5
 40
0.75
 40
0.75
 40
0.75
 40
0.75
 40
1.0
 40
1.0
 40
1.0
 40
1.0
 10
861.7205
 20
-361.5833
 30
0.0
 10
861.7205
 20
-361.5833
 30
0.0
 10
866.8866
 20
-361.5833
 30
0.0
 10
866.8866
 20
-361.5833
 30
0.0
 10
866.8866
 20
-361.5833
 30
0.0
 10
866.8866
 20
-361.5833
 30
0.0
 10
866.8866
 20
-359.0249
 30
0.0
 10
866.8866
 20
-359.0249
 30
0.0
 10
866.8866
 20
-359.0249
 30
0.0
 10
866.8866
 20
-359.0249
 30
0.0
 10
861.7205
 20
-359.0249
 30
0.0
 10
861.7205
 20
-359.0249
 30
0.0
 10
861.7205
 20
-359.0249
 30
0.0
 10
861.7205
 20
-359.0249
 30
0.0
 10
861.7205
 20
-361.5833
 30
0.0
 10
861.7205
 20
-361.5833
 30
0.0
  0
SPLINE
  5
9C
330
1F
100
AcDbEntity
  8
layer 1
 62
   250
370
     9
100
AcDbSpline
210
0.0
220
0.0
230
1.0
 70
    11
 71
     3
 72
    36
 73
    32
 74
     0
 42
0.0000000001
 43
0.0000000001
 40
0.0
 40
0.0
 40
0.0
 40
0.0
 40
0.125
 40
0.125
 40
0.125
 40
0.125
 40
0.25
 40
0.25
 40
0.25
 40
0.25
 40
0.375
 40
0.375
 40
0.375
 40
0.375
 40
0.5
 40
0.5
 40
0.5
 40
0.5
 40
0.625
 40
0.625
 40
0.625
 40
0.625
 40
0.75
 40
0.75
 40
0.75
 40
0.75
 40
0.875
 40
0.875
 40
0.875
 40
0.875
 40
1.0
 40
1.0
 40
1.0
 40
1.0
 10
856.061
 20
-361.5833
 30
0.0
 10
856.061
 20
-361.5833
 30
0.0
 10
860.5232
 20
-361.5833
 30
0.0
 10
860.5232
 20
-361.5833
 30
0.0
 10
860.5232
 20
-361.5833
 30
0.0
 10
860.5232
 20
-361.5833
 30
0.0
 10
860.5232
 20
-359.0257
 30
0.0
 10
860.5232
 20
-359.0257
 30
0.0
 10
860.5232
 20
-359.0257
 30
0.0
 10
858.7431
 20
-358.8434
 30
0.0
 10
857.5684
 20
-358.471
 30
0.0
 10
857.206
 20
-356.6241
 30
0.0
 10
857.206
 20
-356.6241
 30
0.0
 10
855.8487
 20
-356.4951
 30
0.0
 10
854.9216
 20
-355.3752
 30
0.0
 10
854.8629
 20
-353.4804
 30
0.0
 10
854.8629
 20
-353.4804
 30
0.0
 10
854.8629
 20
-353.4804
 30
0.0
 10
850.4031
 20
-353.4804
 30
0.0
 10
850.4031
 20
-353.4804
 30
0.0
 10
850.4031
 20
-353.4804
 30
0.0
 10
850.4031
 20
-353.4804
 30
0.0
 10
850.4031
 20
-355.4333
 30
0.0
 10
850.4031
 20
-355.4333
 30
0.0
 10
850.4031
 20
-355.4333
 30
0.0
 10
852.1439
 20
-355.4707
 30
0.0
 10
853.6126
 20
-356.5079
 30
0.0
 10
853.7954
 20
-358.1696
 30
0.0
 10
853.7954
 20
-358.1696
 30
0.0
 10
855.4453
 20
-358.4242
 30
0.0
 10
856.0846
 20
-359.8661
 30
0.0
 10
856.061
 20
-361.5833
 30
0.0
  0
SPLINE
  5
9D
330
1F
100
AcDbEntity
  8
layer 1
 62
   250
370
     9
100
AcDbSpline
210
0.0
220
0.0
230
1.0
 70
    11
 71
     3
 72
    20
 73
    16
 74
     0
 42
0.0000000001
 43
0.0000000001
 40
0.0
 40
0.0
 40
0.0
 40
0.0
 40
0.25
 40
0.25
 40
0.25
 40
0.25
 40
0.5
 40
0.5
 40
0.5
 40
0.5
 40
0.75
 40
0.75
 40
0.75
 40
0.75
 40
1.0
 40
1.0
 40
1.0
 40
1.0
 10
850.4031
 20
-361.5833
 30
0.0
 10
850.4031
 20
-361.5833
 30
0.0
 10
854.8642
 20
-361.5833
 30
0.0
 10
854.8642
 20
-361.5833
 30
0.0
 10
854.8642
 20
-361.5833
 30
0.0
 10
854.8113
 20
-360.3795
 30
0.0
 10
854.0823
 20
-359.0999
 30
0.0
 10
852.7429
 20
-359.0614
 30
0.0
 10
852.7429
 20
-359.0614
 30
0.0
 10
852.6294
 20
-357.6155
 30
0.0
 10
851.849
 20
-356.7577
 30
0.0
 10
850.4031
 20
-356.6103
 30
0.0
 10
850.4031
 20
-356.6103
 30
0.0
 10
850.4031
 20
-356.6103
 30
0.0
 10
850.4031
 20
-361.5833
 30
0.0
 10
850.4031
 20
-361.5833
 30
0.0
  0
SPLINE
  5
9E
330
1F
100
AcDbEntity
  8
layer 1
 62
   250
370
     9
100
AcDbSpline
210
0.0
220
0.0
230
1.0
 70
    11
 71
     3
 72
    20
 73
    16
 74
     0
 42
0.0000000001
 43
0.0000000001
 40
0.0
 40
0.0
 40
0.0
 40
0.0
 40
0.25
 40
0.25
 40
0.25
 40
0.25
 40
0.5
 40
0.5
 40
0.5
 40
0.5
 40
0.75
 40
0.75
 40
0.75
 40
0.75
 40
1.0
 40
1.0
 40
1.0
 40
1.0
 10
844.7447
 20
-361.5833
 30
0.0
 10
844.7447
 20
-361.5833
 30
0.0
 10
849.2057
 20
-361.5833
 30
0.0
 10
849.2057
 20
-361.5833
 30
0.0
 10
849.2057
 20
-361.5833
 30
0.0
 10
849.2057
 20
-361.5833
 30
0.0
 10
849.2057
 20
-356.6103
 30
0.0
 10
849.2057
 20
-356.6103
 30
0.0
 10
849.2057
 20
-356.6103
 30
0.0
 10
847.7599
 20
-356.7577
 30
0.0
 10
846.9795
 20
-357.6155
 30
0.0
 10
846.866
 20
-359.0614
 30
0.0
 10
846.866
 20
-359.0614
 30
0.0
 10
845.5267
 20
-359.0999
 30
0.0
 10
844.7976
 20
-360.3793
 30
0.0
 10
844.7447
 20
-361.5833
 30
0.0
  0
SPLINE
  5
9F
330
1F
100
AcDbEntity
  8
layer 1
 62
   250
370
     9
100
AcDbSpline
210
0.0
220
0.0
230
1.0
 70
    11
 71
     3
 72
    20
 73
    16
 74
     0
 42
0.0000000001
 43
0.0000000001
 40
0.0
 40
0.0
 40
0.0
 40
0.0
 40
0.25
 40
0.25
 40
0.25
 40
0.25
 40
0.5
 40
0.5
 40
0.5
 40
0.5
 40
0.75
 40
0.75
 40
0.75
 40
0.75
 40
1.0
 40
1.0
 40
1.0
 40
1.0
 10
839.0857
 20
-341.5174
 30
0.0
 10
839.0857
 20
-341.5174
 30
0.0
 10
843.5471
 20
-341.5163
 30
0.0
 10
843.5471
 20
-341.5163
 30
0.0
 10
843.5471
 20
-341.5163
 30
0.0
 10
843.5471
 20
-341.5163
 30
0.0
 10
843.5471
 20
-345.8897
 30
0.0
 10
843.5471
 20
-345.8897
 30
0.0
 10
843.5471
 20
-345.8897
 30
0.0
 10
842.1947
 20
-345.7744
 30
0.0
 10
841.3397
 20
-345.1332
 30
0.0
 10
841.2575
 20
-343.7124
 30
0.0
 10
841.2575
 20
-343.7124
 30
0.0
 10
839.9479
 20
-343.6878
 30
0.0
 10
839.1739
 20
-342.7831
 30
0.0
 10
839.0857
 20
-341.5174
 30
0.0
  0
SPLINE
  5
A0
330
1F
100
AcDbEntity
  8
layer 1
 62
   250
370
     9
100
AcDbSpline
210
0.0
220
0.0
230
1.0
 70
    11
 71
     3
 72
    24
 73
    20
 74
     0
 42
0.0000000001
 43
0.0000000001
 40
0.0
 40
0.0
 40
0.0
 40
0.0
 40
0.2
 40
0.2
 40
0.2
 40
0.2
 40
0.4
 40
0.4
 40
0.4
 40
0.4
 40
0.6000000000000001
 40
0.6000000000000001
 40
0.6000000000000001
 40
0.6000000000000001
 40
0.8
 40
0.8
 40
0.8
 40
0.8
 40
1.0
 40
1.0
 40
1.0
 40
1.0
 10
839.0857
 20
-348.9677
 30
0.0
 10
839.0857
 20
-348.9677
 30
0.0
 10
839.0857
 20
-344.0094
 30
0.0
 10
839.0857
 20
-344.0094
 30
0.0
 10
839.0857
 20
-344.0094
 30
0.0
 10
839.417
 20
-344.3892
 30
0.0
 10
839.8248
 20
-344.6316
 30
0.0
 10
840.2753
 20
-344.5972
 30
0.0
 10
840.2753
 20
-344.5972
 30
0.0
 10
840.5819
 20
-346.2791
 30
0.0
 10
841.9342
 20
-346.9778
 30
0.0
 10
843.5471
 20
-347.0617
 30
0.0
 10
843.5471
 20
-347.0617
 30
0.0
 10
843.5471
 20
-347.0617
 30
0.0
 10
843.5471
 20
-349.0204
 30
0.0
 10
843.5471
 20
-349.0204
 30
0.0
 10
843.5471
 20
-349.0204
 30
0.0
 10
843.1748
 20
-349.0204
 30
0.0
 10
839.0894
 20
-349.0494
 30
0.0
 10
839.0857
 20
-348.9677
 30
0.0
  0
SPLINE
  5
A1
330
1F
100
AcDbEntity
  8
layer 1
 62
   250
370
     9
100
AcDbSpline
210
0.0
220
0.0
230
1.0
 70
    11
 71
     3
 72
    36
 73
    32
 74
     0
 42
0.0000000001
 43
0.0000000001
 40
0.0
 40
0.0
 40
0.0
 40
0.0
 40
0.125
 40
0.125
 40
0.125
 40
0.125
 40
0.25
 40
0.25
 40
0.25
 40
0.25
 40
0.375
 40
0.375
 40
0.375
 40
0.375
 40
0.5
 40
0.5
 40
0.5
 40
0.5
 40
0.625
 40
0.625
 40
0.625
 40
0.625
 40
0.75
 40
0.75
 40
0.75
 40
0.75
 40
0.875
 40
0.875
 40
0.875
 40
0.875
 40
1.0
 40
1.0
 40
1.0
 40
1.0
 10
839.0857
 20
-361.5833
 30
0.0
 10
839.0857
 20
-361.5833
 30
0.0
 10
843.5476
 20
-361.5833
 30
0.0
 10
843.5476
 20
-361.5833
 30
0.0
 10
843.5476
 20
-361.5833
 30
0.0
 10
843.524
 20
-359.9303
 30
0.0
 10
844.3551
 20
-358.3176
 30
0.0
 10
845.8133
 20
-358.1696
 30
0.0
 10
845.8133
 20
-358.1696
 30
0.0
 10
845.9321
 20
-356.6998
 30
0.0
 10
847.4648
 20
-355.4707
 30
0.0
 10
849.2057
 20
-355.4333
 30
0.0
 10
849.2057
 20
-355.4333
 30
0.0
 10
849.2057
 20
-355.4333
 30
0.0
 10
849.2057
 20
-353.4804
 30
0.0
 10
849.2057
 20
-353.4804
 30
0.0
 10
849.2057
 20
-353.4804
 30
0.0
 10
849.2057
 20
-353.4804
 30
0.0
 10
844.7431
 20
-353.4804
 30
0.0
 10
844.7431
 20
-353.4804
 30
0.0
 10
844.7431
 20
-353.4804
 30
0.0
 10
844.6849
 20
-355.3111
 30
0.0
 10
843.7118
 20
-356.4348
 30
0.0
 10
842.3574
 20
-356.5175
 30
0.0
 10
842.3574
 20
-356.5175
 30
0.0
 10
842.2296
 20
-358.1286
 30
0.0
 10
840.8438
 20
-358.9278
 30
0.0
 10
839.0857
 20
-359.0256
 30
0.0
 10
839.0857
 20
-359.0256
 30
0.0
 10
839.0857
 20
-359.0256
 30
0.0
 10
839.0857
 20
-361.5833
 30
0.0
 10
839.0857
 20
-361.5833
 30
0.0
  0
SPLINE
  5
A2
330
1F
100
AcDbEntity
  8
layer 1
 62
   250
370
     9
100
AcDbSpline
210
0.0
220
0.0
230
1.0
 70
    11
 71
     3
 72
    20
 73
    16
 74
     0
 42
0.0000000001
 43
0.0000000001
 40
0.0
 40
0.0
 40
0.0
 40
0.0
 40
0.25
 40
0.25
 40
0.25
 40
0.25
 40
0.5
 40
0.5
 40
0.5
 40
0.5
 40
0.75
 40
0.75
 40
0.75
 40
0.75
 40
1.0
 40
1.0
 40
1.0
 40
1.0
 10
893.5978
 20
-295.5183
 30
0.0
 10
893.7059
 20
-294.0907
 30
0.0
 10
894.5107
 20
-293.4595
 30
0.0
 10
895.8849
 20
-293.3412
 30
0.0
 10
895.8849
 20
-293.3412
 30
0.0
 10
895.8849
 20
-293.3412
 30
0.0
 10
895.8849
 20
-297.7144
 30
0.0
 10
895.8849
 20
-297.7144
 30
0.0
 10
895.8849
 20
-297.7144
 30
0.0
 10
895.8849
 20
-297.7144
 30
0.0
 10
891.4215
 20
-297.7144
 30
0.0
 10
891.4215
 20
-297.7144
 30
0.0
 10
891.4215
 20
-297.7144
 30
0.0
 10
891.5103
 20
-296.4416
 30
0.0
 10
892.2364
 20
-295.5439
 30
0.0
 10
893.5978
 20
-295.5183
 30
0.0
  0
SPLINE
  5
A3
330
1F
100
AcDbEntity
  8
layer 1
 62
   250
370
     9
100
AcDbSpline
210
0.0
220
0.0
230
1.0
 70
    11
 71
     3
 72
    20
 73
    16
 74
     0
 42
0.0000000001
 43
0.0000000001
 40
0.0
 40
0.0
 40
0.0
 40
0.0
 40
0.25
 40
0.25
 40
0.25
 40
0.25
 40
0.5
 40
0.5
 40
0.5
 40
0.5
 40
0.75
 40
0.75
 40
0.75
 40
0.75
 40
1.0
 40
1.0
 40
1.0
 40
1.0
 10
891.4235
 20
-300.9769
 30
0.0
 10
891.4235
 20
-300.9769
 30
0.0
 10
891.4235
 20
-298.9119
 30
0.0
 10
891.4235
 20
-298.9119
 30
0.0
 10
891.4235
 20
-298.9119
 30
0.0
 10
891.4235
 20
-298.9119
 30
0.0
 10
895.8849
 20
-298.9119
 30
0.0
 10
895.8849
 20
-298.9119
 30
0.0
 10
895.8849
 20
-298.9119
 30
0.0
 10
895.8849
 20
-298.9119
 30
0.0
 10
895.8849
 20
-300.9769
 30
0.0
 10
895.8849
 20
-300.9769
 30
0.0
 10
895.8849
 20
-300.9769
 30
0.0
 10
895.8849
 20
-300.9769
 30
0.0
 10
891.4235
 20
-300.9769
 30
0.0
 10
891.4235
 20
-300.9769
 30
0.0
  0
SPLINE
  5
A4
330
1F
100
AcDbEntity
  8
layer 1
 62
   250
370
     9
100
AcDbSpline
210
0.0
220
0.0
230
1.0
 70
    11
 71
     3
 72
    20
 73
    16
 74
     0
 42
0.0000000001
 43
0.0000000001
 40
0.0
 40
0.0
 40
0.0
 40
0.0
 40
0.25
 40
0.25
 40
0.25
 40
0.25
 40
0.5
 40
0.5
 40
0.5
 40
0.5
 40
0.75
 40
0.75
 40
0.75
 40
0.75
 40
1.0
 40
1.0
 40
1.0
 40
1.0
 10
874.4474
 20
-300.9769
 30
0.0
 10
874.4474
 20
-300.9769
 30
0.0
 10
874.4474
 20
-298.9119
 30
0.0
 10
874.4474
 20
-298.9119
 30
0.0
 10
874.4474
 20
-298.9119
 30
0.0
 10
874.4474
 20
-298.9119
 30
0.0
 10
878.9089
 20
-298.9119
 30
0.0
 10
878.9089
 20
-298.9119
 30
0.0
 10
878.9089
 20
-298.9119
 30
0.0
 10
878.9089
 20
-298.9119
 30
0.0
 10
878.9089
 20
-300.9769
 30
0.0
 10
878.9089
 20
-300.9769
 30
0.0
 10
878.9089
 20
-300.9769
 30
0.0
 10
878.9089
 20
-300.9769
 30
0.0
 10
874.4474
 20
-300.9769
 30
0.0
 10
874.4474
 20
-300.9769
 30
0.0
  0
SPLINE
  5
A5
330
1F
100
AcDbEntity
  8
layer 1
 62
   250
370
     9
100
AcDbSpline
210
0.0
220
0.0
230
1.0
 70
    11
 71
     3
 72
    20
 73
    16
 74
     0
 42
0.0000000001
 43
0.0000000001
 40
0.0
 40
0.0
 40
0.0
 40
0.0
 40
0.25
 40
0.25
 40
0.25
 40
0.25
 40
0.5
 40
0.5
 40
0.5
 40
0.5
 40
0.75
 40
0.75
 40
0.75
 40
0.75
 40
1.0
 40
1.0
 40
1.0
 40
1.0
 10
874.4474
 20
-297.7144
 30
0.0
 10
874.4474
 20
-297.7144
 30
0.0
 10
874.4474
 20
-293.3411
 30
0.0
 10
874.4474
 20
-293.3411
 30
0.0
 10
874.4474
 20
-293.3411
 30
0.0
 10
875.7996
 20
-293.4564
 30
0.0
 10
876.655
 20
-294.0977
 30
0.0
 10
876.7372
 20
-295.5183
 30
0.0
 10
876.7372
 20
-295.5183
 30
0.0
 10
878.1037
 20
-295.5439
 30
0.0
 10
878.8233
 20
-296.4191
 30
0.0
 10
878.9136
 20
-297.7144
 30
0.0
 10
878.9136
 20
-297.7144
 30
0.0
 10
878.9136
 20
-297.7144
 30
0.0
 10
874.4474
 20
-297.7144
 30
0.0
 10
874.4474
 20
-297.7144
 30
0.0
  0
SPLINE
  5
A6
330
1F
100
AcDbEntity
  8
layer 1
 62
   250
370
     9
100
AcDbSpline
210
0.0
220
0.0
230
1.0
 70
    11
 71
     3
 72
    20
 73
    16
 74
     0
 42
0.0000000001
 43
0.0000000001
 40
0.0
 40
0.0
 40
0.0
 40
0.0
 40
0.25
 40
0.25
 40
0.25
 40
0.25
 40
0.5
 40
0.5
 40
0.5
 40
0.5
 40
0.75
 40
0.75
 40
0.75
 40
0.75
 40
1.0
 40
1.0
 40
1.0
 40
1.0
 10
874.4429
 20
-309.6785
 30
0.0
 10
874.533
 20
-308.3833
 30
0.0
 10
875.2521
 20
-307.5081
 30
0.0
 10
876.6192
 20
-307.4824
 30
0.0
 10
876.6192
 20
-307.4824
 30
0.0
 10
876.7274
 20
-306.0533
 30
0.0
 10
877.5332
 20
-305.4225
 30
0.0
 10
878.9089
 20
-305.3051
 30
0.0
 10
878.9089
 20
-305.3051
 30
0.0
 10
878.9089
 20
-305.3051
 30
0.0
 10
878.9089
 20
-309.6785
 30
0.0
 10
878.9089
 20
-309.6785
 30
0.0
 10
878.9089
 20
-309.6785
 30
0.0
 10
878.9089
 20
-309.6785
 30
0.0
 10
874.4429
 20
-309.6785
 30
0.0
 10
874.4429
 20
-309.6785
 30
0.0
  0
SPLINE
  5
A7
330
1F
100
AcDbEntity
  8
layer 1
 62
   250
370
     9
100
AcDbSpline
210
0.0
220
0.0
230
1.0
 70
    11
 71
     3
 72
    20
 73
    16
 74
     0
 42
0.0000000001
 43
0.0000000001
 40
0.0
 40
0.0
 40
0.0
 40
0.0
 40
0.25
 40
0.25
 40
0.25
 40
0.25
 40
0.5
 40
0.5
 40
0.5
 40
0.5
 40
0.75
 40
0.75
 40
0.75
 40
0.75
 40
1.0
 40
1.0
 40
1.0
 40
1.0
 10
885.7649
 20
-304.1339
 30
0.0
 10
885.7649
 20
-304.1339
 30
0.0
 10
885.7649
 20
-298.9119
 30
0.0
 10
885.7649
 20
-298.9119
 30
0.0
 10
885.7649
 20
-298.9119
 30
0.0
 10
885.7649
 20
-298.9119
 30
0.0
 10
890.2261
 20
-298.9119
 30
0.0
 10
890.2261
 20
-298.9119
 30
0.0
 10
890.2261
 20
-298.9119
 30
0.0
 10
890.2261
 20
-298.9119
 30
0.0
 10
890.2261
 20
-304.1339
 30
0.0
 10
890.2261
 20
-304.1339
 30
0.0
 10
890.2261
 20
-304.1339
 30
0.0
 10
890.2261
 20
-304.1339
 30
0.0
 10
885.7649
 20
-304.1339
 30
0.0
 10
885.7649
 20
-304.1339
 30
0.0
  0
SPLINE
  5
A8
330
1F
100
AcDbEntity
  8
layer 1
 62
   250
370
     9
100
AcDbSpline
210
0.0
220
0.0
230
1.0
 70
    11
 71
     3
 72
    20
 73
    16
 74
     0
 42
0.0000000001
 43
0.0000000001
 40
0.0
 40
0.0
 40
0.0
 40
0.0
 40
0.25
 40
0.25
 40
0.25
 40
0.25
 40
0.5
 40
0.5
 40
0.5
 40
0.5
 40
0.75
 40
0.75
 40
0.75
 40
0.75
 40
1.0
 40
1.0
 40
1.0
 40
1.0
 10
885.7649
 20
-312.9995
 30
0.0
 10
885.7649
 20
-312.9995
 30
0.0
 10
885.7649
 20
-305.3314
 30
0.0
 10
885.7649
 20
-305.3314
 30
0.0
 10
885.7649
 20
-305.3314
 30
0.0
 10
885.7649
 20
-305.3314
 30
0.0
 10
890.2261
 20
-305.3314
 30
0.0
 10
890.2261
 20
-305.3314
 30
0.0
 10
890.2261
 20
-305.3314
 30
0.0
 10
890.2261
 20
-305.3314
 30
0.0
 10
890.2261
 20
-312.9995
 30
0.0
 10
890.2261
 20
-312.9995
 30
0.0
 10
890.2261
 20
-312.9995
 30
0.0
 10
890.2261
 20
-312.9995
 30
0.0
 10
885.7649
 20
-312.9995
 30
0.0
 10
885.7649
 20
-312.9995
 30
0.0
  0
SPLINE
  5
A9
330
1F
100
AcDbEntity
  8
layer 1
 62
   250
370
     9
100
AcDbSpline
210
0.0
220
0.0
230
1.0
 70
    11
 71
     3
 72
    20
 73
    16
 74
     0
 42
0.0000000001
 43
0.0000000001
 40
0.0
 40
0.0
 40
0.0
 40
0.0
 40
0.25
 40
0.25
 40
0.25
 40
0.25
 40
0.5
 40
0.5
 40
0.5
 40
0.5
 40
0.75
 40
0.75
 40
0.75
 40
0.75
 40
1.0
 40
1.0
 40
1.0
 40
1.0
 10
884.5675
 20
-305.3314
 30
0.0
 10
884.5675
 20
-305.3314
 30
0.0
 10
884.5675
 20
-312.9995
 30
0.0
 10
884.5675
 20
-312.9995
 30
0.0
 10
884.5675
 20
-312.9995
 30
0.0
 10
884.5675
 20
-312.9995
 30
0.0
 10
880.1062
 20
-312.9995
 30
0.0
 10
880.1062
 20
-312.9995
 30
0.0
 10
880.1062
 20
-312.9995
 30
0.0
 10
880.1062
 20
-312.9995
 30
0.0
 10
880.1062
 20
-305.3314
 30
0.0
 10
880.1062
 20
-305.3314
 30
0.0
 10
880.1062
 20
-305.3314
 30
0.0
 10
880.1062
 20
-305.3314
 30
0.0
 10
884.5675
 20
-305.3314
 30
0.0
 10
884.5675
 20
-305.3314
 30
0.0
  0
SPLINE
  5
AA
330
1F
100
AcDbEntity
  8
layer 1
 62
   250
370
     9
100
AcDbSpline
210
0.0
220
0.0
230
1.0
 70
    11
 71
     3
 72
    20
 73
    16
 74
     0
 42
0.0000000001
 43
0.0000000001
 40
0.0
 40
0.0
 40
0.0
 40
0.0
 40
0.25
 40
0.25
 40
0.25
 40
0.25
 40
0.5
 40
0.5
 40
0.5
 40
0.5
 40
0.75
 40
0.75
 40
0.75
 40
0.75
 40
1.0
 40
1.0
 40
1.0
 40
1.0
 10
884.5675
 20
-298.9119
 30
0.0
 10
884.5675
 20
-298.9119
 30
0.0
 10
884.5675
 20
-304.1339
 30
0.0
 10
884.5675
 20
-304.1339
 30
0.0
 10
884.5675
 20
-304.1339
 30
0.0
 10
884.5675
 20
-304.1339
 30
0.0
 10
880.1062
 20
-304.1339
 30
0.0
 10
880.1062
 20
-304.1339
 30
0.0
 10
880.1062
 20
-304.1339
 30
0.0
 10
880.1062
 20
-304.1339
 30
0.0
 10
880.1062
 20
-298.9119
 30
0.0
 10
880.1062
 20
-298.9119
 30
0.0
 10
880.1062
 20
-298.9119
 30
0.0
 10
880.1062
 20
-298.9119
 30
0.0
 10
884.5675
 20
-298.9119
 30
0.0
 10
884.5675
 20
-298.9119
 30
0.0
  0
SPLINE
  5
AB
330
1F
100
AcDbEntity
  8
layer 1
 62
   250
370
     9
100
AcDbSpline
210
0.0
220
0.0
230
1.0
 70
    11
 71
     3
 72
    20
 73
    16
 74
     0
 42
0.0000000001
 43
0.0000000001
 40
0.0
 40
0.0
 40
0.0
 40
0.0
 40
0.25
 40
0.25
 40
0.25
 40
0.25
 40
0.5
 40
0.5
 40
0.5
 40
0.5
 40
0.75
 40
0.75
 40
0.75
 40
0.75
 40
1.0
 40
1.0
 40
1.0
 40
1.0
 10
895.8849
 20
-312.9995
 30
0.0
 10
895.8849
 20
-312.9995
 30
0.0
 10
891.4235
 20
-312.9995
 30
0.0
 10
891.4235
 20
-312.9995
 30
0.0
 10
891.4235
 20
-312.9995
 30
0.0
 10
891.4235
 20
-312.9995
 30
0.0
 10
891.4235
 20
-310.876
 30
0.0
 10
891.4235
 20
-310.876
 30
0.0
 10
891.4235
 20
-310.876
 30
0.0
 10
891.4235
 20
-310.876
 30
0.0
 10
895.8849
 20
-310.876
 30
0.0
 10
895.8849
 20
-310.876
 30
0.0
 10
895.8849
 20
-310.876
 30
0.0
 10
895.8849
 20
-310.876
 30
0.0
 10
895.8849
 20
-312.9995
 30
0.0
 10
895.8849
 20
-312.9995
 30
0.0
  0
SPLINE
  5
AC
330
1F
100
AcDbEntity
  8
layer 1
 62
   250
370
     9
100
AcDbSpline
210
0.0
220
0.0
230
1.0
 70
    11
 71
     3
 72
    20
 73
    16
 74
     0
 42
0.0000000001
 43
0.0000000001
 40
0.0
 40
0.0
 40
0.0
 40
0.0
 40
0.25
 40
0.25
 40
0.25
 40
0.25
 40
0.5
 40
0.5
 40
0.5
 40
0.5
 40
0.75
 40
0.75
 40
0.75
 40
0.75
 40
1.0
 40
1.0
 40
1.0
 40
1.0
 10
874.4474
 20
-310.876
 30
0.0
 10
874.4474
 20
-310.876
 30
0.0
 10
878.9089
 20
-310.876
 30
0.0
 10
878.9089
 20
-310.876
 30
0.0
 10
878.9089
 20
-310.876
 30
0.0
 10
878.9089
 20
-310.876
 30
0.0
 10
878.9089
 20
-312.9995
 30
0.0
 10
878.9089
 20
-312.9995
 30
0.0
 10
878.9089
 20
-312.9995
 30
0.0
 10
878.9089
 20
-312.9995
 30
0.0
 10
874.4474
 20
-312.9995
 30
0.0
 10
874.4474
 20
-312.9995
 30
0.0
 10
874.4474
 20
-312.9995
 30
0.0
 10
874.4474
 20
-312.9995
 30
0.0
 10
874.4474
 20
-310.876
 30
0.0
 10
874.4474
 20
-310.876
 30
0.0
  0
SPLINE
  5
AD
330
1F
100
AcDbEntity
  8
layer 1
 62
   250
370
     9
100
AcDbSpline
210
0.0
220
0.0
230
1.0
 70
    11
 71
     3
 72
    20
 73
    16
 74
     0
 42
0.0000000001
 43
0.0000000001
 40
0.0
 40
0.0
 40
0.0
 40
0.0
 40
0.25
 40
0.25
 40
0.25
 40
0.25
 40
0.5
 40
0.5
 40
0.5
 40
0.5
 40
0.75
 40
0.75
 40
0.75
 40
0.75
 40
1.0
 40
1.0
 40
1.0
 40
1.0
 10
891.4235
 20
-322.8986
 30
0.0
 10
891.4235
 20
-322.8986
 30
0.0
 10
895.8849
 20
-322.8986
 30
0.0
 10
895.8849
 20
-322.8986
 30
0.0
 10
895.8849
 20
-322.8986
 30
0.0
 10
895.8849
 20
-322.8986
 30
0.0
 10
895.8849
 20
-324.9987
 30
0.0
 10
895.8849
 20
-324.9987
 30
0.0
 10
895.8849
 20
-324.9987
 30
0.0
 10
895.8849
 20
-324.9987
 30
0.0
 10
891.4235
 20
-324.9987
 30
0.0
 10
891.4235
 20
-324.9987
 30
0.0
 10
891.4235
 20
-324.9987
 30
0.0
 10
891.4235
 20
-324.9987
 30
0.0
 10
891.4235
 20
-322.8986
 30
0.0
 10
891.4235
 20
-322.8986
 30
0.0
  0
SPLINE
  5
AE
330
1F
100
AcDbEntity
  8
layer 1
 62
   250
370
     9
100
AcDbSpline
210
0.0
220
0.0
230
1.0
 70
    11
 71
     3
 72
    20
 73
    16
 74
     0
 42
0.0000000001
 43
0.0000000001
 40
0.0
 40
0.0
 40
0.0
 40
0.0
 40
0.25
 40
0.25
 40
0.25
 40
0.25
 40
0.5
 40
0.5
 40
0.5
 40
0.5
 40
0.75
 40
0.75
 40
0.75
 40
0.75
 40
1.0
 40
1.0
 40
1.0
 40
1.0
 10
885.7649
 20
-322.8986
 30
0.0
 10
885.7649
 20
-322.8986
 30
0.0
 10
890.2261
 20
-322.8986
 30
0.0
 10
890.2261
 20
-322.8986
 30
0.0
 10
890.2261
 20
-322.8986
 30
0.0
 10
890.2261
 20
-322.8986
 30
0.0
 10
890.2261
 20
-324.9987
 30
0.0
 10
890.2261
 20
-324.9987
 30
0.0
 10
890.2261
 20
-324.9987
 30
0.0
 10
890.2261
 20
-324.9987
 30
0.0
 10
885.7649
 20
-324.9987
 30
0.0
 10
885.7649
 20
-324.9987
 30
0.0
 10
885.7649
 20
-324.9987
 30
0.0
 10
885.7649
 20
-324.9987
 30
0.0
 10
885.7649
 20
-322.8986
 30
0.0
 10
885.7649
 20
-322.8986
 30
0.0
  0
SPLINE
  5
AF
330
1F
100
AcDbEntity
  8
layer 1
 62
   250
370
     9
100
AcDbSpline
210
0.0
220
0.0
230
1.0
 70
    11
 71
     3
 72
    20
 73
    16
 74
     0
 42
0.0000000001
 43
0.0000000001
 40
0.0
 40
0.0
 40
0.0
 40
0.0
 40
0.25
 40
0.25
 40
0.25
 40
0.25
 40
0.5
 40
0.5
 40
0.5
 40
0.5
 40
0.75
 40
0.75
 40
0.75
 40
0.75
 40
1.0
 40
1.0
 40
1.0
 40
1.0
 10
878.9089
 20
-322.8986
 30
0.0
 10
878.9089
 20
-322.8986
 30
0.0
 10
878.9089
 20
-324.9987
 30
0.0
 10
878.9089
 20
-324.9987
 30
0.0
 10
878.9089
 20
-324.9987
 30
0.0
 10
878.9089
 20
-324.9987
 30
0.0
 10
874.4474
 20
-324.9987
 30
0.0
 10
874.4474
 20
-324.9987
 30
0.0
 10
874.4474
 20
-324.9987
 30
0.0
 10
874.4474
 20
-324.9987
 30
0.0
 10
874.4474
 20
-322.8986
 30
0.0
 10
874.4474
 20
-322.8986
 30
0.0
 10
874.4474
 20
-322.8986
 30
0.0
 10
874.4474
 20
-322.8986
 30
0.0
 10
878.9089
 20
-322.8986
 30
0.0
 10
878.9089
 20
-322.8986
 30
0.0
  0
SPLINE
  5
B0
330
1F
100
AcDbEntity
  8
layer 1
 62
   250
370
     9
100
AcDbSpline
210
0.0
220
0.0
230
1.0
 70
    11
 71
     3
 72
    20
 73
    16
 74
     0
 42
0.0000000001
 43
0.0000000001
 40
0.0
 40
0.0
 40
0.0
 40
0.0
 40
0.25
 40
0.25
 40
0.25
 40
0.25
 40
0.5
 40
0.5
 40
0.5
 40
0.5
 40
0.75
 40
0.75
 40
0.75
 40
0.75
 40
1.0
 40
1.0
 40
1.0
 40
1.0
 10
880.1062
 20
-324.9987
 30
0.0
 10
880.1062
 20
-324.9987
 30
0.0
 10
880.1062
 20
-322.8986
 30
0.0
 10
880.1062
 20
-322.8986
 30
0.0
 10
880.1062
 20
-322.8986
 30
0.0
 10
880.1062
 20
-322.8986
 30
0.0
 10
884.5675
 20
-322.8986
 30
0.0
 10
884.5675
 20
-322.8986
 30
0.0
 10
884.5675
 20
-322.8986
 30
0.0
 10
884.5675
 20
-322.8986
 30
0.0
 10
884.5675
 20
-324.9987
 30
0.0
 10
884.5675
 20
-324.9987
 30
0.0
 10
884.5675
 20
-324.9987
 30
0.0
 10
884.5675
 20
-324.9987
 30
0.0
 10
880.1062
 20
-324.9987
 30
0.0
 10
880.1062
 20
-324.9987
 30
0.0
  0
SPLINE
  5
B1
330
1F
100
AcDbEntity
  8
layer 1
 62
   250
370
     9
100
AcDbSpline
210
0.0
220
0.0
230
1.0
 70
    11
 71
     3
 72
    20
 73
    16
 74
     0
 42
0.0000000001
 43
0.0000000001
 40
0.0
 40
0.0
 40
0.0
 40
0.0
 40
0.25
 40
0.25
 40
0.25
 40
0.25
 40
0.5
 40
0.5
 40
0.5
 40
0.5
 40
0.75
 40
0.75
 40
0.75
 40
0.75
 40
1.0
 40
1.0
 40
1.0
 40
1.0
 10
888.0546
 20
-316.393
 30
0.0
 10
887.9471
 20
-317.8157
 30
0.0
 10
887.1446
 20
-318.4523
 30
0.0
 10
885.7649
 20
-318.5704
 30
0.0
 10
885.7649
 20
-318.5704
 30
0.0
 10
885.7649
 20
-318.5704
 30
0.0
 10
885.7649
 20
-314.1969
 30
0.0
 10
885.7649
 20
-314.1969
 30
0.0
 10
885.7649
 20
-314.1969
 30
0.0
 10
885.7649
 20
-314.1969
 30
0.0
 10
890.2311
 20
-314.1969
 30
0.0
 10
890.2311
 20
-314.1969
 30
0.0
 10
890.2311
 20
-314.1969
 30
0.0
 10
890.1423
 20
-315.4695
 30
0.0
 10
889.4161
 20
-316.3675
 30
0.0
 10
888.0546
 20
-316.393
 30
0.0
  0
SPLINE
  5
B2
330
1F
100
AcDbEntity
  8
layer 1
 62
   250
370
     9
100
AcDbSpline
210
0.0
220
0.0
230
1.0
 70
    11
 71
     3
 72
    20
 73
    16
 74
     0
 42
0.0000000001
 43
0.0000000001
 40
0.0
 40
0.0
 40
0.0
 40
0.0
 40
0.25
 40
0.25
 40
0.25
 40
0.25
 40
0.5
 40
0.5
 40
0.5
 40
0.5
 40
0.75
 40
0.75
 40
0.75
 40
0.75
 40
1.0
 40
1.0
 40
1.0
 40
1.0
 10
884.5675
 20
-314.1969
 30
0.0
 10
884.5675
 20
-314.1969
 30
0.0
 10
884.5675
 20
-318.5704
 30
0.0
 10
884.5675
 20
-318.5704
 30
0.0
 10
884.5675
 20
-318.5704
 30
0.0
 10
883.2149
 20
-318.4546
 30
0.0
 10
882.3604
 20
-317.814
 30
0.0
 10
882.2778
 20
-316.393
 30
0.0
 10
882.2778
 20
-316.393
 30
0.0
 10
880.9113
 20
-316.3674
 30
0.0
 10
880.1918
 20
-315.4922
 30
0.0
 10
880.1014
 20
-314.1969
 30
0.0
 10
880.1014
 20
-314.1969
 30
0.0
 10
880.1014
 20
-314.1969
 30
0.0
 10
884.5675
 20
-314.1969
 30
0.0
 10
884.5675
 20
-314.1969
 30
0.0
  0
SPLINE
  5
B3
330
1F
100
AcDbEntity
  8
layer 1
 62
   250
370
     9
100
AcDbSpline
210
0.0
220
0.0
230
1.0
 70
    11
 71
     3
 72
    40
 73
    36
 74
     0
 42
0.0000000001
 43
0.0000000001
 40
0.0
 40
0.0
 40
0.0
 40
0.0
 40
0.1111111111111111
 40
0.1111111111111111
 40
0.1111111111111111
 40
0.1111111111111111
 40
0.2222222222222222
 40
0.2222222222222222
 40
0.2222222222222222
 40
0.2222222222222222
 40
0.3333333333333333
 40
0.3333333333333333
 40
0.3333333333333333
 40
0.3333333333333333
 40
0.4444444444444444
 40
0.4444444444444444
 40
0.4444444444444444
 40
0.4444444444444444
 40
0.5555555555555556
 40
0.5555555555555556
 40
0.5555555555555556
 40
0.5555555555555556
 40
0.6666666666666667
 40
0.6666666666666667
 40
0.6666666666666667
 40
0.6666666666666667
 40
0.7777777777777779
 40
0.7777777777777779
 40
0.7777777777777779
 40
0.7777777777777779
 40
0.8888888888888891
 40
0.8888888888888891
 40
0.8888888888888891
 40
0.8888888888888891
 40
1.0
 40
1.0
 40
1.0
 40
1.0
 10
885.7649
 20
-319.7422
 30
0.0
 10
887.6061
 20
-319.7067
 30
0.0
 10
889.2206
 20
-318.6483
 30
0.0
 10
889.14
 20
-317.2912
 30
0.0
 10
889.14
 20
-317.2912
 30
0.0
 10
890.7416
 20
-317.0455
 30
0.0
 10
891.428
 20
-315.6217
 30
0.0
 10
891.425
 20
-314.1969
 30
0.0
 10
891.425
 20
-314.1969
 30
0.0
 10
891.425
 20
-314.1969
 30
0.0
 10
895.8849
 20
-314.1969
 30
0.0
 10
895.8849
 20
-314.1969
 30
0.0
 10
895.8849
 20
-314.1969
 30
0.0
 10
895.8849
 20
-314.1969
 30
0.0
 10
895.8849
 20
-316.1559
 30
0.0
 10
895.8849
 20
-316.1559
 30
0.0
 10
895.8849
 20
-316.1559
 30
0.0
 10
894.2495
 20
-316.2324
 30
0.0
 10
892.9228
 20
-316.8176
 30
0.0
 10
892.5716
 20
-318.6684
 30
0.0
 10
892.5716
 20
-318.6684
 30
0.0
 10
891.2784
 20
-318.6465
 30
0.0
 10
890.3246
 20
-319.7415
 30
0.0
 10
890.2247
 20
-321.7013
 30
0.0
 10
890.2247
 20
-321.7013
 30
0.0
 10
890.2247
 20
-321.7013
 30
0.0
 10
885.7649
 20
-321.7013
 30
0.0
 10
885.7649
 20
-321.7013
 30
0.0
 10
885.7649
 20
-321.7013
 30
0.0
 10
885.7649
 20
-321.7013
 30
0.0
 10
885.7649
 20
-319.7422
 30
0.0
 10
885.7649
 20
-319.7422
 30
0.0
 10
885.7649
 20
-319.7422
 30
0.0
 10
885.7649
 20
-319.7422
 30
0.0
 10
885.7649
 20
-319.7422
 30
0.0
 10
885.7649
 20
-319.7422
 30
0.0
  0
SPLINE
  5
B4
330
1F
100
AcDbEntity
  8
layer 1
 62
   250
370
     9
100
AcDbSpline
210
0.0
220
0.0
230
1.0
 70
    11
 71
     3
 72
    20
 73
    16
 74
     0
 42
0.0000000001
 43
0.0000000001
 40
0.0
 40
0.0
 40
0.0
 40
0.0
 40
0.25
 40
0.25
 40
0.25
 40
0.25
 40
0.5
 40
0.5
 40
0.5
 40
0.5
 40
0.75
 40
0.75
 40
0.75
 40
0.75
 40
1.0
 40
1.0
 40
1.0
 40
1.0
 10
893.5952
 20
-319.5049
 30
0.0
 10
893.7034
 20
-318.0759
 30
0.0
 10
894.5093
 20
-317.445
 30
0.0
 10
895.8849
 20
-317.3278
 30
0.0
 10
895.8849
 20
-317.3278
 30
0.0
 10
895.8849
 20
-317.3278
 30
0.0
 10
895.8849
 20
-321.7013
 30
0.0
 10
895.8849
 20
-321.7013
 30
0.0
 10
895.8849
 20
-321.7013
 30
0.0
 10
895.8849
 20
-321.7013
 30
0.0
 10
891.4189
 20
-321.7013
 30
0.0
 10
891.4189
 20
-321.7013
 30
0.0
 10
891.4189
 20
-321.7013
 30
0.0
 10
891.5075
 20
-320.4284
 30
0.0
 10
892.2336
 20
-319.5304
 30
0.0
 10
893.5952
 20
-319.5049
 30
0.0
  0
SPLINE
  5
B5
330
1F
100
AcDbEntity
  8
layer 1
 62
   250
370
     9
100
AcDbSpline
210
0.0
220
0.0
230
1.0
 70
    11
 71
     3
 72
    36
 73
    32
 74
     0
 42
0.0000000001
 43
0.0000000001
 40
0.0
 40
0.0
 40
0.0
 40
0.0
 40
0.125
 40
0.125
 40
0.125
 40
0.125
 40
0.25
 40
0.25
 40
0.25
 40
0.25
 40
0.375
 40
0.375
 40
0.375
 40
0.375
 40
0.5
 40
0.5
 40
0.5
 40
0.5
 40
0.625
 40
0.625
 40
0.625
 40
0.625
 40
0.75
 40
0.75
 40
0.75
 40
0.75
 40
0.875
 40
0.875
 40
0.875
 40
0.875
 40
1.0
 40
1.0
 40
1.0
 40
1.0
 10
877.7913
 20
-318.475
 30
0.0
 10
877.6664
 20
-317.2341
 30
0.0
 10
876.654
 20
-316.2247
 30
0.0
 10
874.4474
 20
-316.1559
 30
0.0
 10
874.4474
 20
-316.1559
 30
0.0
 10
874.4474
 20
-316.1559
 30
0.0
 10
874.4474
 20
-314.1969
 30
0.0
 10
874.4474
 20
-314.1969
 30
0.0
 10
874.4474
 20
-314.1969
 30
0.0
 10
874.4474
 20
-314.1969
 30
0.0
 10
878.9073
 20
-314.1969
 30
0.0
 10
878.9073
 20
-314.1969
 30
0.0
 10
878.9073
 20
-314.1969
 30
0.0
 10
878.9472
 20
-316.4459
 30
0.0
 10
880.2275
 20
-317.3093
 30
0.0
 10
881.2493
 20
-317.3755
 30
0.0
 10
881.2493
 20
-317.3755
 30
0.0
 10
881.2771
 20
-318.3413
 30
0.0
 10
882.2448
 20
-319.5201
 30
0.0
 10
884.5675
 20
-319.7422
 30
0.0
 10
884.5675
 20
-319.7422
 30
0.0
 10
884.5675
 20
-319.7422
 30
0.0
 10
884.5675
 20
-321.7013
 30
0.0
 10
884.5675
 20
-321.7013
 30
0.0
 10
884.5675
 20
-321.7013
 30
0.0
 10
884.5675
 20
-321.7013
 30
0.0
 10
880.1077
 20
-321.7013
 30
0.0
 10
880.1077
 20
-321.7013
 30
0.0
 10
880.1077
 20
-321.7013
 30
0.0
 10
880.0293
 20
-319.6986
 30
0.0
 10
879.0234
 20
-318.6631
 30
0.0
 10
877.7913
 20
-318.475
 30
0.0
  0
SPLINE
  5
B6
330
1F
100
AcDbEntity
  8
layer 1
 62
   250
370
     9
100
AcDbSpline
210
0.0
220
0.0
230
1.0
 70
    11
 71
     3
 72
    20
 73
    16
 74
     0
 42
0.0000000001
 43
0.0000000001
 40
0.0
 40
0.0
 40
0.0
 40
0.0
 40
0.25
 40
0.25
 40
0.25
 40
0.25
 40
0.5
 40
0.5
 40
0.5
 40
0.5
 40
0.75
 40
0.75
 40
0.75
 40
0.75
 40
1.0
 40
1.0
 40
1.0
 40
1.0
 10
874.4474
 20
-321.7013
 30
0.0
 10
874.4474
 20
-321.7013
 30
0.0
 10
874.4474
 20
-317.3278
 30
0.0
 10
874.4474
 20
-317.3278
 30
0.0
 10
874.4474
 20
-317.3278
 30
0.0
 10
875.7996
 20
-317.443
 30
0.0
 10
876.655
 20
-318.0843
 30
0.0
 10
876.7372
 20
-319.5049
 30
0.0
 10
876.7372
 20
-319.5049
 30
0.0
 10
878.1038
 20
-319.5305
 30
0.0
 10
878.8232
 20
-320.4059
 30
0.0
 10
878.9136
 20
-321.7013
 30
0.0
 10
878.9136
 20
-321.7013
 30
0.0
 10
878.9136
 20
-321.7013
 30
0.0
 10
874.4474
 20
-321.7013
 30
0.0
 10
874.4474
 20
-321.7013
 30
0.0
  0
SPLINE
  5
B7
330
1F
100
AcDbEntity
  8
layer 1
 62
   250
370
     9
100
AcDbSpline
210
0.0
220
0.0
230
1.0
 70
    11
 71
     3
 72
    20
 73
    16
 74
     0
 42
0.0000000001
 43
0.0000000001
 40
0.0
 40
0.0
 40
0.0
 40
0.0
 40
0.25
 40
0.25
 40
0.25
 40
0.25
 40
0.5
 40
0.5
 40
0.5
 40
0.5
 40
0.75
 40
0.75
 40
0.75
 40
0.75
 40
1.0
 40
1.0
 40
1.0
 40
1.0
 10
868.084
 20
-317.3539
 30
0.0
 10
868.084
 20
-317.3539
 30
0.0
 10
873.2501
 20
-317.3539
 30
0.0
 10
873.2501
 20
-317.3539
 30
0.0
 10
873.2501
 20
-317.3539
 30
0.0
 10
873.2501
 20
-317.3539
 30
0.0
 10
873.2501
 20
-324.9987
 30
0.0
 10
873.2501
 20
-324.9987
 30
0.0
 10
873.2501
 20
-324.9987
 30
0.0
 10
873.2501
 20
-324.9987
 30
0.0
 10
868.084
 20
-324.9987
 30
0.0
 10
868.084
 20
-324.9987
 30
0.0
 10
868.084
 20
-324.9987
 30
0.0
 10
868.084
 20
-324.9987
 30
0.0
 10
868.084
 20
-317.3539
 30
0.0
 10
868.084
 20
-317.3539
 30
0.0
  0
SPLINE
  5
B8
330
1F
100
AcDbEntity
  8
layer 1
 62
   250
370
     9
100
AcDbSpline
210
0.0
220
0.0
230
1.0
 70
    11
 71
     3
 72
    20
 73
    16
 74
     0
 42
0.0000000001
 43
0.0000000001
 40
0.0
 40
0.0
 40
0.0
 40
0.0
 40
0.25
 40
0.25
 40
0.25
 40
0.25
 40
0.5
 40
0.5
 40
0.5
 40
0.5
 40
0.75
 40
0.75
 40
0.75
 40
0.75
 40
1.0
 40
1.0
 40
1.0
 40
1.0
 10
868.084
 20
-310.876
 30
0.0
 10
868.084
 20
-310.876
 30
0.0
 10
873.2501
 20
-310.876
 30
0.0
 10
873.2501
 20
-310.876
 30
0.0
 10
873.2501
 20
-310.876
 30
0.0
 10
873.2501
 20
-310.876
 30
0.0
 10
873.2501
 20
-316.1565
 30
0.0
 10
873.2501
 20
-316.1565
 30
0.0
 10
873.2501
 20
-316.1565
 30
0.0
 10
873.2501
 20
-316.1565
 30
0.0
 10
868.084
 20
-316.1565
 30
0.0
 10
868.084
 20
-316.1565
 30
0.0
 10
868.084
 20
-316.1565
 30
0.0
 10
868.084
 20
-316.1565
 30
0.0
 10
868.084
 20
-310.876
 30
0.0
 10
868.084
 20
-310.876
 30
0.0
  0
SPLINE
  5
B9
330
1F
100
AcDbEntity
  8
layer 1
 62
   250
370
     9
100
AcDbSpline
210
0.0
220
0.0
230
1.0
 70
    11
 71
     3
 72
    36
 73
    32
 74
     0
 42
0.0000000001
 43
0.0000000001
 40
0.0
 40
0.0
 40
0.0
 40
0.0
 40
0.125
 40
0.125
 40
0.125
 40
0.125
 40
0.25
 40
0.25
 40
0.25
 40
0.25
 40
0.375
 40
0.375
 40
0.375
 40
0.375
 40
0.5
 40
0.5
 40
0.5
 40
0.5
 40
0.625
 40
0.625
 40
0.625
 40
0.625
 40
0.75
 40
0.75
 40
0.75
 40
0.75
 40
0.875
 40
0.875
 40
0.875
 40
0.875
 40
1.0
 40
1.0
 40
1.0
 40
1.0
 10
868.084
 20
-307.7171
 30
0.0
 10
869.854
 20
-307.7067
 30
0.0
 10
871.438
 20
-306.9737
 30
0.0
 10
871.7027
 20
-305.6231
 30
0.0
 10
871.7027
 20
-305.6231
 30
0.0
 10
873.3227
 20
-305.4183
 30
0.0
 10
874.4844
 20
-303.7706
 30
0.0
 10
874.45
 20
-302.1744
 30
0.0
 10
874.45
 20
-302.1744
 30
0.0
 10
874.45
 20
-302.1744
 30
0.0
 10
878.9089
 20
-302.1744
 30
0.0
 10
878.9089
 20
-302.1744
 30
0.0
 10
878.9089
 20
-302.1744
 30
0.0
 10
878.9089
 20
-302.1744
 30
0.0
 10
878.9089
 20
-304.1331
 30
0.0
 10
878.9089
 20
-304.1331
 30
0.0
 10
878.9089
 20
-304.1331
 30
0.0
 10
877.5035
 20
-304.132
 30
0.0
 10
875.8786
 20
-304.914
 30
0.0
 10
875.6591
 20
-306.5729
 30
0.0
 10
875.6591
 20
-306.5729
 30
0.0
 10
874.4147
 20
-306.5145
 30
0.0
 10
873.3075
 20
-307.7807
 30
0.0
 10
873.2487
 20
-309.6785
 30
0.0
 10
873.2487
 20
-309.6785
 30
0.0
 10
873.2487
 20
-309.6785
 30
0.0
 10
868.084
 20
-309.6785
 30
0.0
 10
868.084
 20
-309.6785
 30
0.0
 10
868.084
 20
-309.6785
 30
0.0
 10
868.084
 20
-309.6785
 30
0.0
 10
868.084
 20
-307.7171
 30
0.0
 10
868.084
 20
-307.7171
 30
0.0
  0
SPLINE
  5
BA
330
1F
100
AcDbEntity
  8
layer 1
 62
   250
370
     9
100
AcDbSpline
210
0.0
220
0.0
230
1.0
 70
    11
 71
     3
 72
    20
 73
    16
 74
     0
 42
0.0000000001
 43
0.0000000001
 40
0.0
 40
0.0
 40
0.0
 40
0.0
 40
0.25
 40
0.25
 40
0.25
 40
0.25
 40
0.5
 40
0.5
 40
0.5
 40
0.5
 40
0.75
 40
0.75
 40
0.75
 40
0.75
 40
1.0
 40
1.0
 40
1.0
 40
1.0
 10
870.7355
 20
-304.5867
 30
0.0
 10
870.6103
 20
-305.9928
 30
0.0
 10
869.3082
 20
-306.4508
 30
0.0
 10
868.084
 20
-306.539
 30
0.0
 10
868.084
 20
-306.539
 30
0.0
 10
868.084
 20
-306.539
 30
0.0
 10
868.084
 20
-302.1744
 30
0.0
 10
868.084
 20
-302.1744
 30
0.0
 10
868.084
 20
-302.1744
 30
0.0
 10
868.084
 20
-302.1744
 30
0.0
 10
873.2564
 20
-302.1744
 30
0.0
 10
873.2564
 20
-302.1744
 30
0.0
 10
873.2564
 20
-302.1744
 30
0.0
 10
873.1413
 20
-303.5215
 30
0.0
 10
872.1217
 20
-304.5531
 30
0.0
 10
870.7355
 20
-304.5867
 30
0.0
  0
SPLINE
  5
BB
330
1F
100
AcDbEntity
  8
layer 1
 62
   250
370
     9
100
AcDbSpline
210
0.0
220
0.0
230
1.0
 70
    11
 71
     3
 72
    20
 73
    16
 74
     0
 42
0.0000000001
 43
0.0000000001
 40
0.0
 40
0.0
 40
0.0
 40
0.0
 40
0.25
 40
0.25
 40
0.25
 40
0.25
 40
0.5
 40
0.5
 40
0.5
 40
0.5
 40
0.75
 40
0.75
 40
0.75
 40
0.75
 40
1.0
 40
1.0
 40
1.0
 40
1.0
 10
868.084
 20
-293.3674
 30
0.0
 10
868.084
 20
-293.3674
 30
0.0
 10
873.2501
 20
-293.3674
 30
0.0
 10
873.2501
 20
-293.3674
 30
0.0
 10
873.2501
 20
-293.3674
 30
0.0
 10
873.2501
 20
-293.3674
 30
0.0
 10
873.2501
 20
-300.9769
 30
0.0
 10
873.2501
 20
-300.9769
 30
0.0
 10
873.2501
 20
-300.9769
 30
0.0
 10
873.2501
 20
-300.9769
 30
0.0
 10
868.084
 20
-300.9769
 30
0.0
 10
868.084
 20
-300.9769
 30
0.0
 10
868.084
 20
-300.9769
 30
0.0
 10
868.084
 20
-300.9769
 30
0.0
 10
868.084
 20
-293.3674
 30
0.0
 10
868.084
 20
-293.3674
 30
0.0
  0
SPLINE
  5
BC
330
1F
100
AcDbEntity
  8
layer 1
 62
   250
370
     9
100
AcDbSpline
210
0.0
220
0.0
230
1.0
 70
    11
 71
     3
 72
    20
 73
    16
 74
     0
 42
0.0000000001
 43
0.0000000001
 40
0.0
 40
0.0
 40
0.0
 40
0.0
 40
0.25
 40
0.25
 40
0.25
 40
0.25
 40
0.5
 40
0.5
 40
0.5
 40
0.5
 40
0.75
 40
0.75
 40
0.75
 40
0.75
 40
1.0
 40
1.0
 40
1.0
 40
1.0
 10
873.2501
 20
-289.6116
 30
0.0
 10
873.2501
 20
-289.6116
 30
0.0
 10
868.084
 20
-289.6116
 30
0.0
 10
868.084
 20
-289.6116
 30
0.0
 10
868.084
 20
-289.6116
 30
0.0
 10
868.084
 20
-289.6116
 30
0.0
 10
868.084
 20
-292.1699
 30
0.0
 10
868.084
 20
-292.1699
 30
0.0
 10
868.084
 20
-292.1699
 30
0.0
 10
868.084
 20
-292.1699
 30
0.0
 10
873.2501
 20
-292.1699
 30
0.0
 10
873.2501
 20
-292.1699
 30
0.0
 10
873.2501
 20
-292.1699
 30
0.0
 10
873.2501
 20
-292.1699
 30
0.0
 10
873.2501
 20
-289.6116
 30
0.0
 10
873.2501
 20
-289.6116
 30
0.0
  0
SPLINE
  5
BD
330
1F
100
AcDbEntity
  8
layer 1
 62
   250
370
     9
100
AcDbSpline
210
0.0
220
0.0
230
1.0
 70
    11
 71
     3
 72
    36
 73
    32
 74
     0
 42
0.0000000001
 43
0.0000000001
 40
0.0
 40
0.0
 40
0.0
 40
0.0
 40
0.125
 40
0.125
 40
0.125
 40
0.125
 40
0.25
 40
0.25
 40
0.25
 40
0.25
 40
0.375
 40
0.375
 40
0.375
 40
0.375
 40
0.5
 40
0.5
 40
0.5
 40
0.5
 40
0.625
 40
0.625
 40
0.625
 40
0.625
 40
0.75
 40
0.75
 40
0.75
 40
0.75
 40
0.875
 40
0.875
 40
0.875
 40
0.875
 40
1.0
 40
1.0
 40
1.0
 40
1.0
 10
878.9096
 20
-289.6116
 30
0.0
 10
878.9096
 20
-289.6116
 30
0.0
 10
874.4474
 20
-289.6116
 30
0.0
 10
874.4474
 20
-289.6116
 30
0.0
 10
874.4474
 20
-289.6116
 30
0.0
 10
874.4474
 20
-289.6116
 30
0.0
 10
874.4474
 20
-292.1691
 30
0.0
 10
874.4474
 20
-292.1691
 30
0.0
 10
874.4474
 20
-292.1691
 30
0.0
 10
876.2275
 20
-292.3514
 30
0.0
 10
877.4022
 20
-292.7238
 30
0.0
 10
877.7646
 20
-294.5708
 30
0.0
 10
877.7646
 20
-294.5708
 30
0.0
 10
879.1219
 20
-294.6997
 30
0.0
 10
880.049
 20
-295.8196
 30
0.0
 10
880.1077
 20
-297.7144
 30
0.0
 10
880.1077
 20
-297.7144
 30
0.0
 10
880.1077
 20
-297.7144
 30
0.0
 10
884.5675
 20
-297.7144
 30
0.0
 10
884.5675
 20
-297.7144
 30
0.0
 10
884.5675
 20
-297.7144
 30
0.0
 10
884.5675
 20
-297.7144
 30
0.0
 10
884.5675
 20
-295.7616
 30
0.0
 10
884.5675
 20
-295.7616
 30
0.0
 10
884.5675
 20
-295.7616
 30
0.0
 10
882.8267
 20
-295.7242
 30
0.0
 10
881.358
 20
-294.687
 30
0.0
 10
881.1752
 20
-293.0252
 30
0.0
 10
881.1752
 20
-293.0252
 30
0.0
 10
879.5253
 20
-292.7706
 30
0.0
 10
878.886
 20
-291.3287
 30
0.0
 10
878.9096
 20
-289.6116
 30
0.0
  0
SPLINE
  5
BE
330
1F
100
AcDbEntity
  8
layer 1
 62
   250
370
     9
100
AcDbSpline
210
0.0
220
0.0
230
1.0
 70
    11
 71
     3
 72
    20
 73
    16
 74
     0
 42
0.0000000001
 43
0.0000000001
 40
0.0
 40
0.0
 40
0.0
 40
0.0
 40
0.25
 40
0.25
 40
0.25
 40
0.25
 40
0.5
 40
0.5
 40
0.5
 40
0.5
 40
0.75
 40
0.75
 40
0.75
 40
0.75
 40
1.0
 40
1.0
 40
1.0
 40
1.0
 10
884.5675
 20
-289.6116
 30
0.0
 10
884.5675
 20
-289.6116
 30
0.0
 10
880.1064
 20
-289.6116
 30
0.0
 10
880.1064
 20
-289.6116
 30
0.0
 10
880.1064
 20
-289.6116
 30
0.0
 10
880.1593
 20
-290.8153
 30
0.0
 10
880.8882
 20
-292.0949
 30
0.0
 10
882.2277
 20
-292.1334
 30
0.0
 10
882.2277
 20
-292.1334
 30
0.0
 10
882.3412
 20
-293.5793
 30
0.0
 10
883.1216
 20
-294.4371
 30
0.0
 10
884.5675
 20
-294.5845
 30
0.0
 10
884.5675
 20
-294.5845
 30
0.0
 10
884.5675
 20
-294.5845
 30
0.0
 10
884.5675
 20
-289.6116
 30
0.0
 10
884.5675
 20
-289.6116
 30
0.0
  0
SPLINE
  5
BF
330
1F
100
AcDbEntity
  8
layer 1
 62
   250
370
     9
100
AcDbSpline
210
0.0
220
0.0
230
1.0
 70
    11
 71
     3
 72
    20
 73
    16
 74
     0
 42
0.0000000001
 43
0.0000000001
 40
0.0
 40
0.0
 40
0.0
 40
0.0
 40
0.25
 40
0.25
 40
0.25
 40
0.25
 40
0.5
 40
0.5
 40
0.5
 40
0.5
 40
0.75
 40
0.75
 40
0.75
 40
0.75
 40
1.0
 40
1.0
 40
1.0
 40
1.0
 10
890.2259
 20
-289.6116
 30
0.0
 10
890.2259
 20
-289.6116
 30
0.0
 10
885.7649
 20
-289.6116
 30
0.0
 10
885.7649
 20
-289.6116
 30
0.0
 10
885.7649
 20
-289.6116
 30
0.0
 10
885.7649
 20
-289.6116
 30
0.0
 10
885.7649
 20
-294.5845
 30
0.0
 10
885.7649
 20
-294.5845
 30
0.0
 10
885.7649
 20
-294.5845
 30
0.0
 10
887.2107
 20
-294.4371
 30
0.0
 10
887.9911
 20
-293.5793
 30
0.0
 10
888.1046
 20
-292.1334
 30
0.0
 10
888.1046
 20
-292.1334
 30
0.0
 10
889.4439
 20
-292.0949
 30
0.0
 10
890.173
 20
-290.8155
 30
0.0
 10
890.2259
 20
-289.6116
 30
0.0
  0
SPLINE
  5
C0
330
1F
100
AcDbEntity
  8
layer 1
 62
   250
370
     9
100
AcDbSpline
210
0.0
220
0.0
230
1.0
 70
    11
 71
     3
 72
    20
 73
    16
 74
     0
 42
0.0000000001
 43
0.0000000001
 40
0.0
 40
0.0
 40
0.0
 40
0.0
 40
0.25
 40
0.25
 40
0.25
 40
0.25
 40
0.5
 40
0.5
 40
0.5
 40
0.5
 40
0.75
 40
0.75
 40
0.75
 40
0.75
 40
1.0
 40
1.0
 40
1.0
 40
1.0
 10
895.8849
 20
-309.6774
 30
0.0
 10
895.8849
 20
-309.6774
 30
0.0
 10
891.4235
 20
-309.6785
 30
0.0
 10
891.4235
 20
-309.6785
 30
0.0
 10
891.4235
 20
-309.6785
 30
0.0
 10
891.4235
 20
-309.6785
 30
0.0
 10
891.4235
 20
-305.3051
 30
0.0
 10
891.4235
 20
-305.3051
 30
0.0
 10
891.4235
 20
-305.3051
 30
0.0
 10
892.7759
 20
-305.4204
 30
0.0
 10
893.6309
 20
-306.0616
 30
0.0
 10
893.7131
 20
-307.4824
 30
0.0
 10
893.7131
 20
-307.4824
 30
0.0
 10
895.0227
 20
-307.507
 30
0.0
 10
895.7967
 20
-308.4118
 30
0.0
 10
895.8849
 20
-309.6774
 30
0.0
  0
SPLINE
  5
C1
330
1F
100
AcDbEntity
  8
layer 1
 62
   250
370
     9
100
AcDbSpline
210
0.0
220
0.0
230
1.0
 70
    11
 71
     3
 72
    24
 73
    20
 74
     0
 42
0.0000000001
 43
0.0000000001
 40
0.0
 40
0.0
 40
0.0
 40
0.0
 40
0.2
 40
0.2
 40
0.2
 40
0.2
 40
0.4
 40
0.4
 40
0.4
 40
0.4
 40
0.6000000000000001
 40
0.6000000000000001
 40
0.6000000000000001
 40
0.6000000000000001
 40
0.8
 40
0.8
 40
0.8
 40
0.8
 40
1.0
 40
1.0
 40
1.0
 40
1.0
 10
895.8849
 20
-302.2271
 30
0.0
 10
895.8849
 20
-302.2271
 30
0.0
 10
895.8849
 20
-307.1854
 30
0.0
 10
895.8849
 20
-307.1854
 30
0.0
 10
895.8849
 20
-307.1854
 30
0.0
 10
895.5536
 20
-306.8056
 30
0.0
 10
895.1458
 20
-306.5632
 30
0.0
 10
894.6953
 20
-306.5976
 30
0.0
 10
894.6953
 20
-306.5976
 30
0.0
 10
894.3887
 20
-304.9157
 30
0.0
 10
893.0364
 20
-304.217
 30
0.0
 10
891.4235
 20
-304.1331
 30
0.0
 10
891.4235
 20
-304.1331
 30
0.0
 10
891.4235
 20
-304.1331
 30
0.0
 10
891.4235
 20
-302.1744
 30
0.0
 10
891.4235
 20
-302.1744
 30
0.0
 10
891.4235
 20
-302.1744
 30
0.0
 10
891.7958
 20
-302.1744
 30
0.0
 10
895.8812
 20
-302.1454
 30
0.0
 10
895.8849
 20
-302.2271
 30
0.0
  0
SPLINE
  5
C2
330
1F
100
AcDbEntity
  8
layer 1
 62
   250
370
     9
100
AcDbSpline
210
0.0
220
0.0
230
1.0
 70
    11
 71
     3
 72
    36
 73
    32
 74
     0
 42
0.0000000001
 43
0.0000000001
 40
0.0
 40
0.0
 40
0.0
 40
0.0
 40
0.125
 40
0.125
 40
0.125
 40
0.125
 40
0.25
 40
0.25
 40
0.25
 40
0.25
 40
0.375
 40
0.375
 40
0.375
 40
0.375
 40
0.5
 40
0.5
 40
0.5
 40
0.5
 40
0.625
 40
0.625
 40
0.625
 40
0.625
 40
0.75
 40
0.75
 40
0.75
 40
0.75
 40
0.875
 40
0.875
 40
0.875
 40
0.875
 40
1.0
 40
1.0
 40
1.0
 40
1.0
 10
895.8849
 20
-289.6116
 30
0.0
 10
895.8849
 20
-289.6116
 30
0.0
 10
891.423
 20
-289.6116
 30
0.0
 10
891.423
 20
-289.6116
 30
0.0
 10
891.423
 20
-289.6116
 30
0.0
 10
891.4466
 20
-291.2645
 30
0.0
 10
890.6155
 20
-292.8772
 30
0.0
 10
889.1573
 20
-293.0252
 30
0.0
 10
889.1573
 20
-293.0252
 30
0.0
 10
889.0385
 20
-294.4951
 30
0.0
 10
887.5058
 20
-295.7242
 30
0.0
 10
885.7649
 20
-295.7616
 30
0.0
 10
885.7649
 20
-295.7616
 30
0.0
 10
885.7649
 20
-295.7616
 30
0.0
 10
885.7649
 20
-297.7144
 30
0.0
 10
885.7649
 20
-297.7144
 30
0.0
 10
885.7649
 20
-297.7144
 30
0.0
 10
885.7649
 20
-297.7144
 30
0.0
 10
890.2275
 20
-297.7144
 30
0.0
 10
890.2275
 20
-297.7144
 30
0.0
 10
890.2275
 20
-297.7144
 30
0.0
 10
890.2857
 20
-295.8837
 30
0.0
 10
891.2588
 20
-294.76
 30
0.0
 10
892.6132
 20
-294.6774
 30
0.0
 10
892.6132
 20
-294.6774
 30
0.0
 10
892.741
 20
-293.0662
 30
0.0
 10
894.1268
 20
-292.267
 30
0.0
 10
895.8849
 20
-292.1693
 30
0.0
 10
895.8849
 20
-292.1693
 30
0.0
 10
895.8849
 20
-292.1693
 30
0.0
 10
895.8849
 20
-289.6116
 30
0.0
 10
895.8849
 20
-289.6116
 30
0.0
  0
SPLINE
  5
C3
330
1F
100
AcDbEntity
  8
layer 1
 62
   250
370
     9
100
AcDbSpline
210
0.0
220
0.0
230
1.0
 70
    11
 71
     3
 72
    20
 73
    16
 74
     0
 42
0.0000000001
 43
0.0000000001
 40
0.0
 40
0.0
 40
0.0
 40
0.0
 40
0.25
 40
0.25
 40
0.25
 40
0.25
 40
0.5
 40
0.5
 40
0.5
 40
0.5
 40
0.75
 40
0.75
 40
0.75
 40
0.75
 40
1.0
 40
1.0
 40
1.0
 40
1.0
 10
893.5978
 20
-355.6765
 30
0.0
 10
893.7059
 20
-357.1041
 30
0.0
 10
894.5107
 20
-357.7353
 30
0.0
 10
895.8849
 20
-357.8536
 30
0.0
 10
895.8849
 20
-357.8536
 30
0.0
 10
895.8849
 20
-357.8536
 30
0.0
 10
895.8849
 20
-353.4804
 30
0.0
 10
895.8849
 20
-353.4804
 30
0.0
 10
895.8849
 20
-353.4804
 30
0.0
 10
895.8849
 20
-353.4804
 30
0.0
 10
891.4215
 20
-353.4804
 30
0.0
 10
891.4215
 20
-353.4804
 30
0.0
 10
891.4215
 20
-353.4804
 30
0.0
 10
891.5103
 20
-354.7532
 30
0.0
 10
892.2364
 20
-355.6509
 30
0.0
 10
893.5978
 20
-355.6765
 30
0.0
  0
SPLINE
  5
C4
330
1F
100
AcDbEntity
  8
layer 1
 62
   250
370
     9
100
AcDbSpline
210
0.0
220
0.0
230
1.0
 70
    11
 71
     3
 72
    20
 73
    16
 74
     0
 42
0.0000000001
 43
0.0000000001
 40
0.0
 40
0.0
 40
0.0
 40
0.0
 40
0.25
 40
0.25
 40
0.25
 40
0.25
 40
0.5
 40
0.5
 40
0.5
 40
0.5
 40
0.75
 40
0.75
 40
0.75
 40
0.75
 40
1.0
 40
1.0
 40
1.0
 40
1.0
 10
891.4235
 20
-350.2179
 30
0.0
 10
891.4235
 20
-350.2179
 30
0.0
 10
891.4235
 20
-352.2829
 30
0.0
 10
891.4235
 20
-352.2829
 30
0.0
 10
891.4235
 20
-352.2829
 30
0.0
 10
891.4235
 20
-352.2829
 30
0.0
 10
895.8849
 20
-352.2829
 30
0.0
 10
895.8849
 20
-352.2829
 30
0.0
 10
895.8849
 20
-352.2829
 30
0.0
 10
895.8849
 20
-352.2829
 30
0.0
 10
895.8849
 20
-350.2179
 30
0.0
 10
895.8849
 20
-350.2179
 30
0.0
 10
895.8849
 20
-350.2179
 30
0.0
 10
895.8849
 20
-350.2179
 30
0.0
 10
891.4235
 20
-350.2179
 30
0.0
 10
891.4235
 20
-350.2179
 30
0.0
  0
SPLINE
  5
C5
330
1F
100
AcDbEntity
  8
layer 1
 62
   250
370
     9
100
AcDbSpline
210
0.0
220
0.0
230
1.0
 70
    11
 71
     3
 72
    20
 73
    16
 74
     0
 42
0.0000000001
 43
0.0000000001
 40
0.0
 40
0.0
 40
0.0
 40
0.0
 40
0.25
 40
0.25
 40
0.25
 40
0.25
 40
0.5
 40
0.5
 40
0.5
 40
0.5
 40
0.75
 40
0.75
 40
0.75
 40
0.75
 40
1.0
 40
1.0
 40
1.0
 40
1.0
 10
874.4474
 20
-350.2179
 30
0.0
 10
874.4474
 20
-350.2179
 30
0.0
 10
874.4474
 20
-352.2829
 30
0.0
 10
874.4474
 20
-352.2829
 30
0.0
 10
874.4474
 20
-352.2829
 30
0.0
 10
874.4474
 20
-352.2829
 30
0.0
 10
878.9089
 20
-352.2829
 30
0.0
 10
878.9089
 20
-352.2829
 30
0.0
 10
878.9089
 20
-352.2829
 30
0.0
 10
878.9089
 20
-352.2829
 30
0.0
 10
878.9089
 20
-350.2179
 30
0.0
 10
878.9089
 20
-350.2179
 30
0.0
 10
878.9089
 20
-350.2179
 30
0.0
 10
878.9089
 20
-350.2179
 30
0.0
 10
874.4474
 20
-350.2179
 30
0.0
 10
874.4474
 20
-350.2179
 30
0.0
  0
SPLINE
  5
C6
330
1F
100
AcDbEntity
  8
layer 1
 62
   250
370
     9
100
AcDbSpline
210
0.0
220
0.0
230
1.0
 70
    11
 71
     3
 72
    20
 73
    16
 74
     0
 42
0.0000000001
 43
0.0000000001
 40
0.0
 40
0.0
 40
0.0
 40
0.0
 40
0.25
 40
0.25
 40
0.25
 40
0.25
 40
0.5
 40
0.5
 40
0.5
 40
0.5
 40
0.75
 40
0.75
 40
0.75
 40
0.75
 40
1.0
 40
1.0
 40
1.0
 40
1.0
 10
874.4474
 20
-353.4804
 30
0.0
 10
874.4474
 20
-353.4804
 30
0.0
 10
874.4474
 20
-357.8537
 30
0.0
 10
874.4474
 20
-357.8537
 30
0.0
 10
874.4474
 20
-357.8537
 30
0.0
 10
875.7996
 20
-357.7384
 30
0.0
 10
876.655
 20
-357.0971
 30
0.0
 10
876.7372
 20
-355.6765
 30
0.0
 10
876.7372
 20
-355.6765
 30
0.0
 10
878.1037
 20
-355.6509
 30
0.0
 10
878.8233
 20
-354.7757
 30
0.0
 10
878.9136
 20
-353.4804
 30
0.0
 10
878.9136
 20
-353.4804
 30
0.0
 10
878.9136
 20
-353.4804
 30
0.0
 10
874.4474
 20
-353.4804
 30
0.0
 10
874.4474
 20
-353.4804
 30
0.0
  0
SPLINE
  5
C7
330
1F
100
AcDbEntity
  8
layer 1
 62
   250
370
     9
100
AcDbSpline
210
0.0
220
0.0
230
1.0
 70
    11
 71
     3
 72
    20
 73
    16
 74
     0
 42
0.0000000001
 43
0.0000000001
 40
0.0
 40
0.0
 40
0.0
 40
0.0
 40
0.25
 40
0.25
 40
0.25
 40
0.25
 40
0.5
 40
0.5
 40
0.5
 40
0.5
 40
0.75
 40
0.75
 40
0.75
 40
0.75
 40
1.0
 40
1.0
 40
1.0
 40
1.0
 10
874.4429
 20
-341.5163
 30
0.0
 10
874.533
 20
-342.8115
 30
0.0
 10
875.2521
 20
-343.6867
 30
0.0
 10
876.6192
 20
-343.7124
 30
0.0
 10
876.6192
 20
-343.7124
 30
0.0
 10
876.7274
 20
-345.1415
 30
0.0
 10
877.5332
 20
-345.7724
 30
0.0
 10
878.9089
 20
-345.8897
 30
0.0
 10
878.9089
 20
-345.8897
 30
0.0
 10
878.9089
 20
-345.8897
 30
0.0
 10
878.9089
 20
-341.5163
 30
0.0
 10
878.9089
 20
-341.5163
 30
0.0
 10
878.9089
 20
-341.5163
 30
0.0
 10
878.9089
 20
-341.5163
 30
0.0
 10
874.4429
 20
-341.5163
 30
0.0
 10
874.4429
 20
-341.5163
 30
0.0
  0
SPLINE
  5
C8
330
1F
100
AcDbEntity
  8
layer 1
 62
   250
370
     9
100
AcDbSpline
210
0.0
220
0.0
230
1.0
 70
    11
 71
     3
 72
    20
 73
    16
 74
     0
 42
0.0000000001
 43
0.0000000001
 40
0.0
 40
0.0
 40
0.0
 40
0.0
 40
0.25
 40
0.25
 40
0.25
 40
0.25
 40
0.5
 40
0.5
 40
0.5
 40
0.5
 40
0.75
 40
0.75
 40
0.75
 40
0.75
 40
1.0
 40
1.0
 40
1.0
 40
1.0
 10
885.7649
 20
-347.0609
 30
0.0
 10
885.7649
 20
-347.0609
 30
0.0
 10
885.7649
 20
-352.2829
 30
0.0
 10
885.7649
 20
-352.2829
 30
0.0
 10
885.7649
 20
-352.2829
 30
0.0
 10
885.7649
 20
-352.2829
 30
0.0
 10
890.2261
 20
-352.2829
 30
0.0
 10
890.2261
 20
-352.2829
 30
0.0
 10
890.2261
 20
-352.2829
 30
0.0
 10
890.2261
 20
-352.2829
 30
0.0
 10
890.2261
 20
-347.0609
 30
0.0
 10
890.2261
 20
-347.0609
 30
0.0
 10
890.2261
 20
-347.0609
 30
0.0
 10
890.2261
 20
-347.0609
 30
0.0
 10
885.7649
 20
-347.0609
 30
0.0
 10
885.7649
 20
-347.0609
 30
0.0
  0
SPLINE
  5
C9
330
1F
100
AcDbEntity
  8
layer 1
 62
   250
370
     9
100
AcDbSpline
210
0.0
220
0.0
230
1.0
 70
    11
 71
     3
 72
    20
 73
    16
 74
     0
 42
0.0000000001
 43
0.0000000001
 40
0.0
 40
0.0
 40
0.0
 40
0.0
 40
0.25
 40
0.25
 40
0.25
 40
0.25
 40
0.5
 40
0.5
 40
0.5
 40
0.5
 40
0.75
 40
0.75
 40
0.75
 40
0.75
 40
1.0
 40
1.0
 40
1.0
 40
1.0
 10
885.7649
 20
-338.1953
 30
0.0
 10
885.7649
 20
-338.1953
 30
0.0
 10
885.7649
 20
-345.8634
 30
0.0
 10
885.7649
 20
-345.8634
 30
0.0
 10
885.7649
 20
-345.8634
 30
0.0
 10
885.7649
 20
-345.8634
 30
0.0
 10
890.2261
 20
-345.8634
 30
0.0
 10
890.2261
 20
-345.8634
 30
0.0
 10
890.2261
 20
-345.8634
 30
0.0
 10
890.2261
 20
-345.8634
 30
0.0
 10
890.2261
 20
-338.1953
 30
0.0
 10
890.2261
 20
-338.1953
 30
0.0
 10
890.2261
 20
-338.1953
 30
0.0
 10
890.2261
 20
-338.1953
 30
0.0
 10
885.7649
 20
-338.1953
 30
0.0
 10
885.7649
 20
-338.1953
 30
0.0
  0
SPLINE
  5
CA
330
1F
100
AcDbEntity
  8
layer 1
 62
   250
370
     9
100
AcDbSpline
210
0.0
220
0.0
230
1.0
 70
    11
 71
     3
 72
    20
 73
    16
 74
     0
 42
0.0000000001
 43
0.0000000001
 40
0.0
 40
0.0
 40
0.0
 40
0.0
 40
0.25
 40
0.25
 40
0.25
 40
0.25
 40
0.5
 40
0.5
 40
0.5
 40
0.5
 40
0.75
 40
0.75
 40
0.75
 40
0.75
 40
1.0
 40
1.0
 40
1.0
 40
1.0
 10
884.5675
 20
-345.8634
 30
0.0
 10
884.5675
 20
-345.8634
 30
0.0
 10
884.5675
 20
-338.1953
 30
0.0
 10
884.5675
 20
-338.1953
 30
0.0
 10
884.5675
 20
-338.1953
 30
0.0
 10
884.5675
 20
-338.1953
 30
0.0
 10
880.1062
 20
-338.1953
 30
0.0
 10
880.1062
 20
-338.1953
 30
0.0
 10
880.1062
 20
-338.1953
 30
0.0
 10
880.1062
 20
-338.1953
 30
0.0
 10
880.1062
 20
-345.8634
 30
0.0
 10
880.1062
 20
-345.8634
 30
0.0
 10
880.1062
 20
-345.8634
 30
0.0
 10
880.1062
 20
-345.8634
 30
0.0
 10
884.5675
 20
-345.8634
 30
0.0
 10
884.5675
 20
-345.8634
 30
0.0
  0
SPLINE
  5
CB
330
1F
100
AcDbEntity
  8
layer 1
 62
   250
370
     9
100
AcDbSpline
210
0.0
220
0.0
230
1.0
 70
    11
 71
     3
 72
    20
 73
    16
 74
     0
 42
0.0000000001
 43
0.0000000001
 40
0.0
 40
0.0
 40
0.0
 40
0.0
 40
0.25
 40
0.25
 40
0.25
 40
0.25
 40
0.5
 40
0.5
 40
0.5
 40
0.5
 40
0.75
 40
0.75
 40
0.75
 40
0.75
 40
1.0
 40
1.0
 40
1.0
 40
1.0
 10
884.5675
 20
-352.2829
 30
0.0
 10
884.5675
 20
-352.2829
 30
0.0
 10
884.5675
 20
-347.0609
 30
0.0
 10
884.5675
 20
-347.0609
 30
0.0
 10
884.5675
 20
-347.0609
 30
0.0
 10
884.5675
 20
-347.0609
 30
0.0
 10
880.1062
 20
-347.0609
 30
0.0
 10
880.1062
 20
-347.0609
 30
0.0
 10
880.1062
 20
-347.0609
 30
0.0
 10
880.1062
 20
-347.0609
 30
0.0
 10
880.1062
 20
-352.2829
 30
0.0
 10
880.1062
 20
-352.2829
 30
0.0
 10
880.1062
 20
-352.2829
 30
0.0
 10
880.1062
 20
-352.2829
 30
0.0
 10
884.5675
 20
-352.2829
 30
0.0
 10
884.5675
 20
-352.2829
 30
0.0
  0
SPLINE
  5
CC
330
1F
100
AcDbEntity
  8
layer 1
 62
   250
370
     9
100
AcDbSpline
210
0.0
220
0.0
230
1.0
 70
    11
 71
     3
 72
    20
 73
    16
 74
     0
 42
0.0000000001
 43
0.0000000001
 40
0.0
 40
0.0
 40
0.0
 40
0.0
 40
0.25
 40
0.25
 40
0.25
 40
0.25
 40
0.5
 40
0.5
 40
0.5
 40
0.5
 40
0.75
 40
0.75
 40
0.75
 40
0.75
 40
1.0
 40
1.0
 40
1.0
 40
1.0
 10
895.8849
 20
-338.1953
 30
0.0
 10
895.8849
 20
-338.1953
 30
0.0
 10
891.4235
 20
-338.1953
 30
0.0
 10
891.4235
 20
-338.1953
 30
0.0
 10
891.4235
 20
-338.1953
 30
0.0
 10
891.4235
 20
-338.1953
 30
0.0
 10
891.4235
 20
-340.3188
 30
0.0
 10
891.4235
 20
-340.3188
 30
0.0
 10
891.4235
 20
-340.3188
 30
0.0
 10
891.4235
 20
-340.3188
 30
0.0
 10
895.8849
 20
-340.3188
 30
0.0
 10
895.8849
 20
-340.3188
 30
0.0
 10
895.8849
 20
-340.3188
 30
0.0
 10
895.8849
 20
-340.3188
 30
0.0
 10
895.8849
 20
-338.1953
 30
0.0
 10
895.8849
 20
-338.1953
 30
0.0
  0
SPLINE
  5
CD
330
1F
100
AcDbEntity
  8
layer 1
 62
   250
370
     9
100
AcDbSpline
210
0.0
220
0.0
230
1.0
 70
    11
 71
     3
 72
    20
 73
    16
 74
     0
 42
0.0000000001
 43
0.0000000001
 40
0.0
 40
0.0
 40
0.0
 40
0.0
 40
0.25
 40
0.25
 40
0.25
 40
0.25
 40
0.5
 40
0.5
 40
0.5
 40
0.5
 40
0.75
 40
0.75
 40
0.75
 40
0.75
 40
1.0
 40
1.0
 40
1.0
 40
1.0
 10
874.4474
 20
-340.3188
 30
0.0
 10
874.4474
 20
-340.3188
 30
0.0
 10
878.9089
 20
-340.3188
 30
0.0
 10
878.9089
 20
-340.3188
 30
0.0
 10
878.9089
 20
-340.3188
 30
0.0
 10
878.9089
 20
-340.3188
 30
0.0
 10
878.9089
 20
-338.1953
 30
0.0
 10
878.9089
 20
-338.1953
 30
0.0
 10
878.9089
 20
-338.1953
 30
0.0
 10
878.9089
 20
-338.1953
 30
0.0
 10
874.4474
 20
-338.1953
 30
0.0
 10
874.4474
 20
-338.1953
 30
0.0
 10
874.4474
 20
-338.1953
 30
0.0
 10
874.4474
 20
-338.1953
 30
0.0
 10
874.4474
 20
-340.3188
 30
0.0
 10
874.4474
 20
-340.3188
 30
0.0
  0
SPLINE
  5
CE
330
1F
100
AcDbEntity
  8
layer 1
 62
   250
370
     9
100
AcDbSpline
210
0.0
220
0.0
230
1.0
 70
    11
 71
     3
 72
    20
 73
    16
 74
     0
 42
0.0000000001
 43
0.0000000001
 40
0.0
 40
0.0
 40
0.0
 40
0.0
 40
0.25
 40
0.25
 40
0.25
 40
0.25
 40
0.5
 40
0.5
 40
0.5
 40
0.5
 40
0.75
 40
0.75
 40
0.75
 40
0.75
 40
1.0
 40
1.0
 40
1.0
 40
1.0
 10
891.4235
 20
-328.2962
 30
0.0
 10
891.4235
 20
-328.2962
 30
0.0
 10
895.8849
 20
-328.2962
 30
0.0
 10
895.8849
 20
-328.2962
 30
0.0
 10
895.8849
 20
-328.2962
 30
0.0
 10
895.8849
 20
-328.2962
 30
0.0
 10
895.8849
 20
-326.1961
 30
0.0
 10
895.8849
 20
-326.1961
 30
0.0
 10
895.8849
 20
-326.1961
 30
0.0
 10
895.8849
 20
-326.1961
 30
0.0
 10
891.4235
 20
-326.1961
 30
0.0
 10
891.4235
 20
-326.1961
 30
0.0
 10
891.4235
 20
-326.1961
 30
0.0
 10
891.4235
 20
-326.1961
 30
0.0
 10
891.4235
 20
-328.2962
 30
0.0
 10
891.4235
 20
-328.2962
 30
0.0
  0
SPLINE
  5
CF
330
1F
100
AcDbEntity
  8
layer 1
 62
   250
370
     9
100
AcDbSpline
210
0.0
220
0.0
230
1.0
 70
    11
 71
     3
 72
    20
 73
    16
 74
     0
 42
0.0000000001
 43
0.0000000001
 40
0.0
 40
0.0
 40
0.0
 40
0.0
 40
0.25
 40
0.25
 40
0.25
 40
0.25
 40
0.5
 40
0.5
 40
0.5
 40
0.5
 40
0.75
 40
0.75
 40
0.75
 40
0.75
 40
1.0
 40
1.0
 40
1.0
 40
1.0
 10
885.7649
 20
-328.2962
 30
0.0
 10
885.7649
 20
-328.2962
 30
0.0
 10
890.2261
 20
-328.2962
 30
0.0
 10
890.2261
 20
-328.2962
 30
0.0
 10
890.2261
 20
-328.2962
 30
0.0
 10
890.2261
 20
-328.2962
 30
0.0
 10
890.2261
 20
-326.1961
 30
0.0
 10
890.2261
 20
-326.1961
 30
0.0
 10
890.2261
 20
-326.1961
 30
0.0
 10
890.2261
 20
-326.1961
 30
0.0
 10
885.7649
 20
-326.1961
 30
0.0
 10
885.7649
 20
-326.1961
 30
0.0
 10
885.7649
 20
-326.1961
 30
0.0
 10
885.7649
 20
-326.1961
 30
0.0
 10
885.7649
 20
-328.2962
 30
0.0
 10
885.7649
 20
-328.2962
 30
0.0
  0
SPLINE
  5
D0
330
1F
100
AcDbEntity
  8
layer 1
 62
   250
370
     9
100
AcDbSpline
210
0.0
220
0.0
230
1.0
 70
    11
 71
     3
 72
    20
 73
    16
 74
     0
 42
0.0000000001
 43
0.0000000001
 40
0.0
 40
0.0
 40
0.0
 40
0.0
 40
0.25
 40
0.25
 40
0.25
 40
0.25
 40
0.5
 40
0.5
 40
0.5
 40
0.5
 40
0.75
 40
0.75
 40
0.75
 40
0.75
 40
1.0
 40
1.0
 40
1.0
 40
1.0
 10
878.9089
 20
-328.2962
 30
0.0
 10
878.9089
 20
-328.2962
 30
0.0
 10
878.9089
 20
-326.1961
 30
0.0
 10
878.9089
 20
-326.1961
 30
0.0
 10
878.9089
 20
-326.1961
 30
0.0
 10
878.9089
 20
-326.1961
 30
0.0
 10
874.4474
 20
-326.1961
 30
0.0
 10
874.4474
 20
-326.1961
 30
0.0
 10
874.4474
 20
-326.1961
 30
0.0
 10
874.4474
 20
-326.1961
 30
0.0
 10
874.4474
 20
-328.2962
 30
0.0
 10
874.4474
 20
-328.2962
 30
0.0
 10
874.4474
 20
-328.2962
 30
0.0
 10
874.4474
 20
-328.2962
 30
0.0
 10
878.9089
 20
-328.2962
 30
0.0
 10
878.9089
 20
-328.2962
 30
0.0
  0
SPLINE
  5
D1
330
1F
100
AcDbEntity
  8
layer 1
 62
   250
370
     9
100
AcDbSpline
210
0.0
220
0.0
230
1.0
 70
    11
 71
     3
 72
    20
 73
    16
 74
     0
 42
0.0000000001
 43
0.0000000001
 40
0.0
 40
0.0
 40
0.0
 40
0.0
 40
0.25
 40
0.25
 40
0.25
 40
0.25
 40
0.5
 40
0.5
 40
0.5
 40
0.5
 40
0.75
 40
0.75
 40
0.75
 40
0.75
 40
1.0
 40
1.0
 40
1.0
 40
1.0
 10
880.1062
 20
-326.1961
 30
0.0
 10
880.1062
 20
-326.1961
 30
0.0
 10
880.1062
 20
-328.2962
 30
0.0
 10
880.1062
 20
-328.2962
 30
0.0
 10
880.1062
 20
-328.2962
 30
0.0
 10
880.1062
 20
-328.2962
 30
0.0
 10
884.5675
 20
-328.2962
 30
0.0
 10
884.5675
 20
-328.2962
 30
0.0
 10
884.5675
 20
-328.2962
 30
0.0
 10
884.5675
 20
-328.2962
 30
0.0
 10
884.5675
 20
-326.1961
 30
0.0
 10
884.5675
 20
-326.1961
 30
0.0
 10
884.5675
 20
-326.1961
 30
0.0
 10
884.5675
 20
-326.1961
 30
0.0
 10
880.1062
 20
-326.1961
 30
0.0
 10
880.1062
 20
-326.1961
 30
0.0
  0
SPLINE
  5
D2
330
1F
100
AcDbEntity
  8
layer 1
 62
   250
370
     9
100
AcDbSpline
210
0.0
220
0.0
230
1.0
 70
    11
 71
     3
 72
    20
 73
    16
 74
     0
 42
0.0000000001
 43
0.0000000001
 40
0.0
 40
0.0
 40
0.0
 40
0.0
 40
0.25
 40
0.25
 40
0.25
 40
0.25
 40
0.5
 40
0.5
 40
0.5
 40
0.5
 40
0.75
 40
0.75
 40
0.75
 40
0.75
 40
1.0
 40
1.0
 40
1.0
 40
1.0
 10
888.0546
 20
-334.8018
 30
0.0
 10
887.9471
 20
-333.3791
 30
0.0
 10
887.1446
 20
-332.7425
 30
0.0
 10
885.7649
 20
-332.6245
 30
0.0
 10
885.7649
 20
-332.6245
 30
0.0
 10
885.7649
 20
-332.6245
 30
0.0
 10
885.7649
 20
-336.9979
 30
0.0
 10
885.7649
 20
-336.9979
 30
0.0
 10
885.7649
 20
-336.9979
 30
0.0
 10
885.7649
 20
-336.9979
 30
0.0
 10
890.2311
 20
-336.9979
 30
0.0
 10
890.2311
 20
-336.9979
 30
0.0
 10
890.2311
 20
-336.9979
 30
0.0
 10
890.1423
 20
-335.7253
 30
0.0
 10
889.4161
 20
-334.8273
 30
0.0
 10
888.0546
 20
-334.8018
 30
0.0
  0
SPLINE
  5
D3
330
1F
100
AcDbEntity
  8
layer 1
 62
   250
370
     9
100
AcDbSpline
210
0.0
220
0.0
230
1.0
 70
    11
 71
     3
 72
    20
 73
    16
 74
     0
 42
0.0000000001
 43
0.0000000001
 40
0.0
 40
0.0
 40
0.0
 40
0.0
 40
0.25
 40
0.25
 40
0.25
 40
0.25
 40
0.5
 40
0.5
 40
0.5
 40
0.5
 40
0.75
 40
0.75
 40
0.75
 40
0.75
 40
1.0
 40
1.0
 40
1.0
 40
1.0
 10
884.5675
 20
-336.9979
 30
0.0
 10
884.5675
 20
-336.9979
 30
0.0
 10
884.5675
 20
-332.6245
 30
0.0
 10
884.5675
 20
-332.6245
 30
0.0
 10
884.5675
 20
-332.6245
 30
0.0
 10
883.2149
 20
-332.7402
 30
0.0
 10
882.3604
 20
-333.3808
 30
0.0
 10
882.2778
 20
-334.8018
 30
0.0
 10
882.2778
 20
-334.8018
 30
0.0
 10
880.9113
 20
-334.8274
 30
0.0
 10
880.1918
 20
-335.7026
 30
0.0
 10
880.1014
 20
-336.9979
 30
0.0
 10
880.1014
 20
-336.9979
 30
0.0
 10
880.1014
 20
-336.9979
 30
0.0
 10
884.5675
 20
-336.9979
 30
0.0
 10
884.5675
 20
-336.9979
 30
0.0
  0
SPLINE
  5
D4
330
1F
100
AcDbEntity
  8
layer 1
 62
   250
370
     9
100
AcDbSpline
210
0.0
220
0.0
230
1.0
 70
    11
 71
     3
 72
    40
 73
    36
 74
     0
 42
0.0000000001
 43
0.0000000001
 40
0.0
 40
0.0
 40
0.0
 40
0.0
 40
0.1111111111111111
 40
0.1111111111111111
 40
0.1111111111111111
 40
0.1111111111111111
 40
0.2222222222222222
 40
0.2222222222222222
 40
0.2222222222222222
 40
0.2222222222222222
 40
0.3333333333333333
 40
0.3333333333333333
 40
0.3333333333333333
 40
0.3333333333333333
 40
0.4444444444444444
 40
0.4444444444444444
 40
0.4444444444444444
 40
0.4444444444444444
 40
0.5555555555555556
 40
0.5555555555555556
 40
0.5555555555555556
 40
0.5555555555555556
 40
0.6666666666666667
 40
0.6666666666666667
 40
0.6666666666666667
 40
0.6666666666666667
 40
0.7777777777777779
 40
0.7777777777777779
 40
0.7777777777777779
 40
0.7777777777777779
 40
0.8888888888888891
 40
0.8888888888888891
 40
0.8888888888888891
 40
0.8888888888888891
 40
1.0
 40
1.0
 40
1.0
 40
1.0
 10
885.7649
 20
-331.4526
 30
0.0
 10
887.6061
 20
-331.4882
 30
0.0
 10
889.2206
 20
-332.5466
 30
0.0
 10
889.14
 20
-333.9036
 30
0.0
 10
889.14
 20
-333.9036
 30
0.0
 10
890.7416
 20
-334.1493
 30
0.0
 10
891.428
 20
-335.5731
 30
0.0
 10
891.425
 20
-336.9979
 30
0.0
 10
891.425
 20
-336.9979
 30
0.0
 10
891.425
 20
-336.9979
 30
0.0
 10
895.8849
 20
-336.9979
 30
0.0
 10
895.8849
 20
-336.9979
 30
0.0
 10
895.8849
 20
-336.9979
 30
0.0
 10
895.8849
 20
-336.9979
 30
0.0
 10
895.8849
 20
-335.0389
 30
0.0
 10
895.8849
 20
-335.0389
 30
0.0
 10
895.8849
 20
-335.0389
 30
0.0
 10
894.2495
 20
-334.9625
 30
0.0
 10
892.9228
 20
-334.3772
 30
0.0
 10
892.5716
 20
-332.5264
 30
0.0
 10
892.5716
 20
-332.5264
 30
0.0
 10
891.2784
 20
-332.5483
 30
0.0
 10
890.3246
 20
-331.4533
 30
0.0
 10
890.2247
 20
-329.4936
 30
0.0
 10
890.2247
 20
-329.4936
 30
0.0
 10
890.2247
 20
-329.4936
 30
0.0
 10
885.7649
 20
-329.4936
 30
0.0
 10
885.7649
 20
-329.4936
 30
0.0
 10
885.7649
 20
-329.4936
 30
0.0
 10
885.7649
 20
-329.4936
 30
0.0
 10
885.7649
 20
-331.4526
 30
0.0
 10
885.7649
 20
-331.4526
 30
0.0
 10
885.7649
 20
-331.4526
 30
0.0
 10
885.7649
 20
-331.4526
 30
0.0
 10
885.7649
 20
-331.4526
 30
0.0
 10
885.7649
 20
-331.4526
 30
0.0
  0
SPLINE
  5
D5
330
1F
100
AcDbEntity
  8
layer 1
 62
   250
370
     9
100
AcDbSpline
210
0.0
220
0.0
230
1.0
 70
    11
 71
     3
 72
    20
 73
    16
 74
     0
 42
0.0000000001
 43
0.0000000001
 40
0.0
 40
0.0
 40
0.0
 40
0.0
 40
0.25
 40
0.25
 40
0.25
 40
0.25
 40
0.5
 40
0.5
 40
0.5
 40
0.5
 40
0.75
 40
0.75
 40
0.75
 40
0.75
 40
1.0
 40
1.0
 40
1.0
 40
1.0
 10
893.5952
 20
-331.6899
 30
0.0
 10
893.7034
 20
-333.1189
 30
0.0
 10
894.5093
 20
-333.7498
 30
0.0
 10
895.8849
 20
-333.867
 30
0.0
 10
895.8849
 20
-333.867
 30
0.0
 10
895.8849
 20
-333.867
 30
0.0
 10
895.8849
 20
-329.4936
 30
0.0
 10
895.8849
 20
-329.4936
 30
0.0
 10
895.8849
 20
-329.4936
 30
0.0
 10
895.8849
 20
-329.4936
 30
0.0
 10
891.4189
 20
-329.4936
 30
0.0
 10
891.4189
 20
-329.4936
 30
0.0
 10
891.4189
 20
-329.4936
 30
0.0
 10
891.5075
 20
-330.7664
 30
0.0
 10
892.2336
 20
-331.6644
 30
0.0
 10
893.5952
 20
-331.6899
 30
0.0
  0
SPLINE
  5
D6
330
1F
100
AcDbEntity
  8
layer 1
 62
   250
370
     9
100
AcDbSpline
210
0.0
220
0.0
230
1.0
 70
    11
 71
     3
 72
    36
 73
    32
 74
     0
 42
0.0000000001
 43
0.0000000001
 40
0.0
 40
0.0
 40
0.0
 40
0.0
 40
0.125
 40
0.125
 40
0.125
 40
0.125
 40
0.25
 40
0.25
 40
0.25
 40
0.25
 40
0.375
 40
0.375
 40
0.375
 40
0.375
 40
0.5
 40
0.5
 40
0.5
 40
0.5
 40
0.625
 40
0.625
 40
0.625
 40
0.625
 40
0.75
 40
0.75
 40
0.75
 40
0.75
 40
0.875
 40
0.875
 40
0.875
 40
0.875
 40
1.0
 40
1.0
 40
1.0
 40
1.0
 10
877.7913
 20
-332.7199
 30
0.0
 10
877.6664
 20
-333.9607
 30
0.0
 10
876.654
 20
-334.9701
 30
0.0
 10
874.4474
 20
-335.0389
 30
0.0
 10
874.4474
 20
-335.0389
 30
0.0
 10
874.4474
 20
-335.0389
 30
0.0
 10
874.4474
 20
-336.9979
 30
0.0
 10
874.4474
 20
-336.9979
 30
0.0
 10
874.4474
 20
-336.9979
 30
0.0
 10
874.4474
 20
-336.9979
 30
0.0
 10
878.9073
 20
-336.9979
 30
0.0
 10
878.9073
 20
-336.9979
 30
0.0
 10
878.9073
 20
-336.9979
 30
0.0
 10
878.9472
 20
-334.7489
 30
0.0
 10
880.2275
 20
-333.8856
 30
0.0
 10
881.2493
 20
-333.8193
 30
0.0
 10
881.2493
 20
-333.8193
 30
0.0
 10
881.2771
 20
-332.8535
 30
0.0
 10
882.2448
 20
-331.6747
 30
0.0
 10
884.5675
 20
-331.4526
 30
0.0
 10
884.5675
 20
-331.4526
 30
0.0
 10
884.5675
 20
-331.4526
 30
0.0
 10
884.5675
 20
-329.4936
 30
0.0
 10
884.5675
 20
-329.4936
 30
0.0
 10
884.5675
 20
-329.4936
 30
0.0
 10
884.5675
 20
-329.4936
 30
0.0
 10
880.1077
 20
-329.4936
 30
0.0
 10
880.1077
 20
-329.4936
 30
0.0
 10
880.1077
 20
-329.4936
 30
0.0
 10
880.0293
 20
-331.4962
 30
0.0
 10
879.0234
 20
-332.5317
 30
0.0
 10
877.7913
 20
-332.7199
 30
0.0
  0
SPLINE
  5
D7
330
1F
100
AcDbEntity
  8
layer 1
 62
   250
370
     9
100
AcDbSpline
210
0.0
220
0.0
230
1.0
 70
    11
 71
     3
 72
    20
 73
    16
 74
     0
 42
0.0000000001
 43
0.0000000001
 40
0.0
 40
0.0
 40
0.0
 40
0.0
 40
0.25
 40
0.25
 40
0.25
 40
0.25
 40
0.5
 40
0.5
 40
0.5
 40
0.5
 40
0.75
 40
0.75
 40
0.75
 40
0.75
 40
1.0
 40
1.0
 40
1.0
 40
1.0
 10
874.4474
 20
-329.4936
 30
0.0
 10
874.4474
 20
-329.4936
 30
0.0
 10
874.4474
 20
-333.867
 30
0.0
 10
874.4474
 20
-333.867
 30
0.0
 10
874.4474
 20
-333.867
 30
0.0
 10
875.7996
 20
-333.7518
 30
0.0
 10
876.655
 20
-333.1105
 30
0.0
 10
876.7372
 20
-331.6899
 30
0.0
 10
876.7372
 20
-331.6899
 30
0.0
 10
878.1038
 20
-331.6643
 30
0.0
 10
878.8232
 20
-330.7889
 30
0.0
 10
878.9136
 20
-329.4936
 30
0.0
 10
878.9136
 20
-329.4936
 30
0.0
 10
878.9136
 20
-329.4936
 30
0.0
 10
874.4474
 20
-329.4936
 30
0.0
 10
874.4474
 20
-329.4936
 30
0.0
  0
SPLINE
  5
D8
330
1F
100
AcDbEntity
  8
layer 1
 62
   250
370
     9
100
AcDbSpline
210
0.0
220
0.0
230
1.0
 70
    11
 71
     3
 72
    20
 73
    16
 74
     0
 42
0.0000000001
 43
0.0000000001
 40
0.0
 40
0.0
 40
0.0
 40
0.0
 40
0.25
 40
0.25
 40
0.25
 40
0.25
 40
0.5
 40
0.5
 40
0.5
 40
0.5
 40
0.75
 40
0.75
 40
0.75
 40
0.75
 40
1.0
 40
1.0
 40
1.0
 40
1.0
 10
868.084
 20
-333.8409
 30
0.0
 10
868.084
 20
-333.8409
 30
0.0
 10
873.2501
 20
-333.8409
 30
0.0
 10
873.2501
 20
-333.8409
 30
0.0
 10
873.2501
 20
-333.8409
 30
0.0
 10
873.2501
 20
-333.8409
 30
0.0
 10
873.2501
 20
-326.1961
 30
0.0
 10
873.2501
 20
-326.1961
 30
0.0
 10
873.2501
 20
-326.1961
 30
0.0
 10
873.2501
 20
-326.1961
 30
0.0
 10
868.084
 20
-326.1961
 30
0.0
 10
868.084
 20
-326.1961
 30
0.0
 10
868.084
 20
-326.1961
 30
0.0
 10
868.084
 20
-326.1961
 30
0.0
 10
868.084
 20
-333.8409
 30
0.0
 10
868.084
 20
-333.8409
 30
0.0
  0
SPLINE
  5
D9
330
1F
100
AcDbEntity
  8
layer 1
 62
   250
370
     9
100
AcDbSpline
210
0.0
220
0.0
230
1.0
 70
    11
 71
     3
 72
    20
 73
    16
 74
     0
 42
0.0000000001
 43
0.0000000001
 40
0.0
 40
0.0
 40
0.0
 40
0.0
 40
0.25
 40
0.25
 40
0.25
 40
0.25
 40
0.5
 40
0.5
 40
0.5
 40
0.5
 40
0.75
 40
0.75
 40
0.75
 40
0.75
 40
1.0
 40
1.0
 40
1.0
 40
1.0
 10
868.084
 20
-340.3188
 30
0.0
 10
868.084
 20
-340.3188
 30
0.0
 10
873.2501
 20
-340.3188
 30
0.0
 10
873.2501
 20
-340.3188
 30
0.0
 10
873.2501
 20
-340.3188
 30
0.0
 10
873.2501
 20
-340.3188
 30
0.0
 10
873.2501
 20
-335.0383
 30
0.0
 10
873.2501
 20
-335.0383
 30
0.0
 10
873.2501
 20
-335.0383
 30
0.0
 10
873.2501
 20
-335.0383
 30
0.0
 10
868.084
 20
-335.0383
 30
0.0
 10
868.084
 20
-335.0383
 30
0.0
 10
868.084
 20
-335.0383
 30
0.0
 10
868.084
 20
-335.0383
 30
0.0
 10
868.084
 20
-340.3188
 30
0.0
 10
868.084
 20
-340.3188
 30
0.0
  0
SPLINE
  5
DA
330
1F
100
AcDbEntity
  8
layer 1
 62
   250
370
     9
100
AcDbSpline
210
0.0
220
0.0
230
1.0
 70
    11
 71
     3
 72
    36
 73
    32
 74
     0
 42
0.0000000001
 43
0.0000000001
 40
0.0
 40
0.0
 40
0.0
 40
0.0
 40
0.125
 40
0.125
 40
0.125
 40
0.125
 40
0.25
 40
0.25
 40
0.25
 40
0.25
 40
0.375
 40
0.375
 40
0.375
 40
0.375
 40
0.5
 40
0.5
 40
0.5
 40
0.5
 40
0.625
 40
0.625
 40
0.625
 40
0.625
 40
0.75
 40
0.75
 40
0.75
 40
0.75
 40
0.875
 40
0.875
 40
0.875
 40
0.875
 40
1.0
 40
1.0
 40
1.0
 40
1.0
 10
868.084
 20
-343.4777
 30
0.0
 10
869.854
 20
-343.4881
 30
0.0
 10
871.438
 20
-344.2211
 30
0.0
 10
871.7027
 20
-345.5717
 30
0.0
 10
871.7027
 20
-345.5717
 30
0.0
 10
873.3227
 20
-345.7765
 30
0.0
 10
874.4844
 20
-347.4242
 30
0.0
 10
874.45
 20
-349.0204
 30
0.0
 10
874.45
 20
-349.0204
 30
0.0
 10
874.45
 20
-349.0204
 30
0.0
 10
878.9089
 20
-349.0204
 30
0.0
 10
878.9089
 20
-349.0204
 30
0.0
 10
878.9089
 20
-349.0204
 30
0.0
 10
878.9089
 20
-349.0204
 30
0.0
 10
878.9089
 20
-347.0617
 30
0.0
 10
878.9089
 20
-347.0617
 30
0.0
 10
878.9089
 20
-347.0617
 30
0.0
 10
877.5035
 20
-347.0629
 30
0.0
 10
875.8786
 20
-346.2809
 30
0.0
 10
875.6591
 20
-344.6219
 30
0.0
 10
875.6591
 20
-344.6219
 30
0.0
 10
874.4147
 20
-344.6804
 30
0.0
 10
873.3075
 20
-343.4142
 30
0.0
 10
873.2487
 20
-341.5163
 30
0.0
 10
873.2487
 20
-341.5163
 30
0.0
 10
873.2487
 20
-341.5163
 30
0.0
 10
868.084
 20
-341.5163
 30
0.0
 10
868.084
 20
-341.5163
 30
0.0
 10
868.084
 20
-341.5163
 30
0.0
 10
868.084
 20
-341.5163
 30
0.0
 10
868.084
 20
-343.4777
 30
0.0
 10
868.084
 20
-343.4777
 30
0.0
  0
SPLINE
  5
DB
330
1F
100
AcDbEntity
  8
layer 1
 62
   250
370
     9
100
AcDbSpline
210
0.0
220
0.0
230
1.0
 70
    11
 71
     3
 72
    20
 73
    16
 74
     0
 42
0.0000000001
 43
0.0000000001
 40
0.0
 40
0.0
 40
0.0
 40
0.0
 40
0.25
 40
0.25
 40
0.25
 40
0.25
 40
0.5
 40
0.5
 40
0.5
 40
0.5
 40
0.75
 40
0.75
 40
0.75
 40
0.75
 40
1.0
 40
1.0
 40
1.0
 40
1.0
 10
870.7355
 20
-346.6081
 30
0.0
 10
870.6103
 20
-345.202
 30
0.0
 10
869.3082
 20
-344.744
 30
0.0
 10
868.084
 20
-344.6558
 30
0.0
 10
868.084
 20
-344.6558
 30
0.0
 10
868.084
 20
-344.6558
 30
0.0
 10
868.084
 20
-349.0204
 30
0.0
 10
868.084
 20
-349.0204
 30
0.0
 10
868.084
 20
-349.0204
 30
0.0
 10
868.084
 20
-349.0204
 30
0.0
 10
873.2564
 20
-349.0204
 30
0.0
 10
873.2564
 20
-349.0204
 30
0.0
 10
873.2564
 20
-349.0204
 30
0.0
 10
873.1413
 20
-347.6733
 30
0.0
 10
872.1217
 20
-346.6417
 30
0.0
 10
870.7355
 20
-346.6081
 30
0.0
  0
SPLINE
  5
DC
330
1F
100
AcDbEntity
  8
layer 1
 62
   250
370
     9
100
AcDbSpline
210
0.0
220
0.0
230
1.0
 70
    11
 71
     3
 72
    20
 73
    16
 74
     0
 42
0.0000000001
 43
0.0000000001
 40
0.0
 40
0.0
 40
0.0
 40
0.0
 40
0.25
 40
0.25
 40
0.25
 40
0.25
 40
0.5
 40
0.5
 40
0.5
 40
0.5
 40
0.75
 40
0.75
 40
0.75
 40
0.75
 40
1.0
 40
1.0
 40
1.0
 40
1.0
 10
868.084
 20
-357.8275
 30
0.0
 10
868.084
 20
-357.8275
 30
0.0
 10
873.2501
 20
-357.8275
 30
0.0
 10
873.2501
 20
-357.8275
 30
0.0
 10
873.2501
 20
-357.8275
 30
0.0
 10
873.2501
 20
-357.8275
 30
0.0
 10
873.2501
 20
-350.2179
 30
0.0
 10
873.2501
 20
-350.2179
 30
0.0
 10
873.2501
 20
-350.2179
 30
0.0
 10
873.2501
 20
-350.2179
 30
0.0
 10
868.084
 20
-350.2179
 30
0.0
 10
868.084
 20
-350.2179
 30
0.0
 10
868.084
 20
-350.2179
 30
0.0
 10
868.084
 20
-350.2179
 30
0.0
 10
868.084
 20
-357.8275
 30
0.0
 10
868.084
 20
-357.8275
 30
0.0
  0
SPLINE
  5
DD
330
1F
100
AcDbEntity
  8
layer 1
 62
   250
370
     9
100
AcDbSpline
210
0.0
220
0.0
230
1.0
 70
    11
 71
     3
 72
    20
 73
    16
 74
     0
 42
0.0000000001
 43
0.0000000001
 40
0.0
 40
0.0
 40
0.0
 40
0.0
 40
0.25
 40
0.25
 40
0.25
 40
0.25
 40
0.5
 40
0.5
 40
0.5
 40
0.5
 40
0.75
 40
0.75
 40
0.75
 40
0.75
 40
1.0
 40
1.0
 40
1.0
 40
1.0
 10
873.2501
 20
-361.5833
 30
0.0
 10
873.2501
 20
-361.5833
 30
0.0
 10
868.084
 20
-361.5833
 30
0.0
 10
868.084
 20
-361.5833
 30
0.0
 10
868.084
 20
-361.5833
 30
0.0
 10
868.084
 20
-361.5833
 30
0.0
 10
868.084
 20
-359.0249
 30
0.0
 10
868.084
 20
-359.0249
 30
0.0
 10
868.084
 20
-359.0249
 30
0.0
 10
868.084
 20
-359.0249
 30
0.0
 10
873.2501
 20
-359.0249
 30
0.0
 10
873.2501
 20
-359.0249
 30
0.0
 10
873.2501
 20
-359.0249
 30
0.0
 10
873.2501
 20
-359.0249
 30
0.0
 10
873.2501
 20
-361.5833
 30
0.0
 10
873.2501
 20
-361.5833
 30
0.0
  0
SPLINE
  5
DE
330
1F
100
AcDbEntity
  8
layer 1
 62
   250
370
     9
100
AcDbSpline
210
0.0
220
0.0
230
1.0
 70
    11
 71
     3
 72
    36
 73
    32
 74
     0
 42
0.0000000001
 43
0.0000000001
 40
0.0
 40
0.0
 40
0.0
 40
0.0
 40
0.125
 40
0.125
 40
0.125
 40
0.125
 40
0.25
 40
0.25
 40
0.25
 40
0.25
 40
0.375
 40
0.375
 40
0.375
 40
0.375
 40
0.5
 40
0.5
 40
0.5
 40
0.5
 40
0.625
 40
0.625
 40
0.625
 40
0.625
 40
0.75
 40
0.75
 40
0.75
 40
0.75
 40
0.875
 40
0.875
 40
0.875
 40
0.875
 40
1.0
 40
1.0
 40
1.0
 40
1.0
 10
878.9096
 20
-361.5833
 30
0.0
 10
878.9096
 20
-361.5833
 30
0.0
 10
874.4474
 20
-361.5833
 30
0.0
 10
874.4474
 20
-361.5833
 30
0.0
 10
874.4474
 20
-361.5833
 30
0.0
 10
874.4474
 20
-361.5833
 30
0.0
 10
874.4474
 20
-359.0257
 30
0.0
 10
874.4474
 20
-359.0257
 30
0.0
 10
874.4474
 20
-359.0257
 30
0.0
 10
876.2275
 20
-358.8434
 30
0.0
 10
877.4022
 20
-358.471
 30
0.0
 10
877.7646
 20
-356.6241
 30
0.0
 10
877.7646
 20
-356.6241
 30
0.0
 10
879.1219
 20
-356.4951
 30
0.0
 10
880.049
 20
-355.3752
 30
0.0
 10
880.1077
 20
-353.4804
 30
0.0
 10
880.1077
 20
-353.4804
 30
0.0
 10
880.1077
 20
-353.4804
 30
0.0
 10
884.5675
 20
-353.4804
 30
0.0
 10
884.5675
 20
-353.4804
 30
0.0
 10
884.5675
 20
-353.4804
 30
0.0
 10
884.5675
 20
-353.4804
 30
0.0
 10
884.5675
 20
-355.4333
 30
0.0
 10
884.5675
 20
-355.4333
 30
0.0
 10
884.5675
 20
-355.4333
 30
0.0
 10
882.8267
 20
-355.4707
 30
0.0
 10
881.358
 20
-356.5079
 30
0.0
 10
881.1752
 20
-358.1696
 30
0.0
 10
881.1752
 20
-358.1696
 30
0.0
 10
879.5253
 20
-358.4242
 30
0.0
 10
878.886
 20
-359.8661
 30
0.0
 10
878.9096
 20
-361.5833
 30
0.0
  0
SPLINE
  5
DF
330
1F
100
AcDbEntity
  8
layer 1
 62
   250
370
     9
100
AcDbSpline
210
0.0
220
0.0
230
1.0
 70
    11
 71
     3
 72
    20
 73
    16
 74
     0
 42
0.0000000001
 43
0.0000000001
 40
0.0
 40
0.0
 40
0.0
 40
0.0
 40
0.25
 40
0.25
 40
0.25
 40
0.25
 40
0.5
 40
0.5
 40
0.5
 40
0.5
 40
0.75
 40
0.75
 40
0.75
 40
0.75
 40
1.0
 40
1.0
 40
1.0
 40
1.0
 10
884.5675
 20
-361.5833
 30
0.0
 10
884.5675
 20
-361.5833
 30
0.0
 10
880.1064
 20
-361.5833
 30
0.0
 10
880.1064
 20
-361.5833
 30
0.0
 10
880.1064
 20
-361.5833
 30
0.0
 10
880.1593
 20
-360.3795
 30
0.0
 10
880.8882
 20
-359.0999
 30
0.0
 10
882.2277
 20
-359.0614
 30
0.0
 10
882.2277
 20
-359.0614
 30
0.0
 10
882.3412
 20
-357.6155
 30
0.0
 10
883.1216
 20
-356.7577
 30
0.0
 10
884.5675
 20
-356.6103
 30
0.0
 10
884.5675
 20
-356.6103
 30
0.0
 10
884.5675
 20
-356.6103
 30
0.0
 10
884.5675
 20
-361.5833
 30
0.0
 10
884.5675
 20
-361.5833
 30
0.0
  0
SPLINE
  5
E0
330
1F
100
AcDbEntity
  8
layer 1
 62
   250
370
     9
100
AcDbSpline
210
0.0
220
0.0
230
1.0
 70
    11
 71
     3
 72
    20
 73
    16
 74
     0
 42
0.0000000001
 43
0.0000000001
 40
0.0
 40
0.0
 40
0.0
 40
0.0
 40
0.25
 40
0.25
 40
0.25
 40
0.25
 40
0.5
 40
0.5
 40
0.5
 40
0.5
 40
0.75
 40
0.75
 40
0.75
 40
0.75
 40
1.0
 40
1.0
 40
1.0
 40
1.0
 10
890.2259
 20
-361.5833
 30
0.0
 10
890.2259
 20
-361.5833
 30
0.0
 10
885.7649
 20
-361.5833
 30
0.0
 10
885.7649
 20
-361.5833
 30
0.0
 10
885.7649
 20
-361.5833
 30
0.0
 10
885.7649
 20
-361.5833
 30
0.0
 10
885.7649
 20
-356.6103
 30
0.0
 10
885.7649
 20
-356.6103
 30
0.0
 10
885.7649
 20
-356.6103
 30
0.0
 10
887.2107
 20
-356.7577
 30
0.0
 10
887.9911
 20
-357.6155
 30
0.0
 10
888.1046
 20
-359.0614
 30
0.0
 10
888.1046
 20
-359.0614
 30
0.0
 10
889.4439
 20
-359.0999
 30
0.0
 10
890.173
 20
-360.3793
 30
0.0
 10
890.2259
 20
-361.5833
 30
0.0
  0
SPLINE
  5
E1
330
1F
100
AcDbEntity
  8
layer 1
 62
   250
370
     9
100
AcDbSpline
210
0.0
220
0.0
230
1.0
 70
    11
 71
     3
 72
    20
 73
    16
 74
     0
 42
0.0000000001
 43
0.0000000001
 40
0.0
 40
0.0
 40
0.0
 40
0.0
 40
0.25
 40
0.25
 40
0.25
 40
0.25
 40
0.5
 40
0.5
 40
0.5
 40
0.5
 40
0.75
 40
0.75
 40
0.75
 40
0.75
 40
1.0
 40
1.0
 40
1.0
 40
1.0
 10
895.8849
 20
-341.5174
 30
0.0
 10
895.8849
 20
-341.5174
 30
0.0
 10
891.4235
 20
-341.5163
 30
0.0
 10
891.4235
 20
-341.5163
 30
0.0
 10
891.4235
 20
-341.5163
 30
0.0
 10
891.4235
 20
-341.5163
 30
0.0
 10
891.4235
 20
-345.8897
 30
0.0
 10
891.4235
 20
-345.8897
 30
0.0
 10
891.4235
 20
-345.8897
 30
0.0
 10
892.7759
 20
-345.7744
 30
0.0
 10
893.6309
 20
-345.1332
 30
0.0
 10
893.7131
 20
-343.7124
 30
0.0
 10
893.7131
 20
-343.7124
 30
0.0
 10
895.0227
 20
-343.6878
 30
0.0
 10
895.7967
 20
-342.7831
 30
0.0
 10
895.8849
 20
-341.5174
 30
0.0
  0
SPLINE
  5
E2
330
1F
100
AcDbEntity
  8
layer 1
 62
   250
370
     9
100
AcDbSpline
210
0.0
220
0.0
230
1.0
 70
    11
 71
     3
 72
    24
 73
    20
 74
     0
 42
0.0000000001
 43
0.0000000001
 40
0.0
 40
0.0
 40
0.0
 40
0.0
 40
0.2
 40
0.2
 40
0.2
 40
0.2
 40
0.4
 40
0.4
 40
0.4
 40
0.4
 40
0.6000000000000001
 40
0.6000000000000001
 40
0.6000000000000001
 40
0.6000000000000001
 40
0.8
 40
0.8
 40
0.8
 40
0.8
 40
1.0
 40
1.0
 40
1.0
 40
1.0
 10
895.8849
 20
-348.9677
 30
0.0
 10
895.8849
 20
-348.9677
 30
0.0
 10
895.8849
 20
-344.0094
 30
0.0
 10
895.8849
 20
-344.0094
 30
0.0
 10
895.8849
 20
-344.0094
 30
0.0
 10
895.5536
 20
-344.3892
 30
0.0
 10
895.1458
 20
-344.6316
 30
0.0
 10
894.6953
 20
-344.5972
 30
0.0
 10
894.6953
 20
-344.5972
 30
0.0
 10
894.3887
 20
-346.2791
 30
0.0
 10
893.0364
 20
-346.9778
 30
0.0
 10
891.4235
 20
-347.0617
 30
0.0
 10
891.4235
 20
-347.0617
 30
0.0
 10
891.4235
 20
-347.0617
 30
0.0
 10
891.4235
 20
-349.0204
 30
0.0
 10
891.4235
 20
-349.0204
 30
0.0
 10
891.4235
 20
-349.0204
 30
0.0
 10
891.7958
 20
-349.0204
 30
0.0
 10
895.8812
 20
-349.0494
 30
0.0
 10
895.8849
 20
-348.9677
 30
0.0
  0
SPLINE
  5
E3
330
1F
100
AcDbEntity
  8
layer 1
 62
   250
370
     9
100
AcDbSpline
210
0.0
220
0.0
230
1.0
 70
    11
 71
     3
 72
    36
 73
    32
 74
     0
 42
0.0000000001
 43
0.0000000001
 40
0.0
 40
0.0
 40
0.0
 40
0.0
 40
0.125
 40
0.125
 40
0.125
 40
0.125
 40
0.25
 40
0.25
 40
0.25
 40
0.25
 40
0.375
 40
0.375
 40
0.375
 40
0.375
 40
0.5
 40
0.5
 40
0.5
 40
0.5
 40
0.625
 40
0.625
 40
0.625
 40
0.625
 40
0.75
 40
0.75
 40
0.75
 40
0.75
 40
0.875
 40
0.875
 40
0.875
 40
0.875
 40
1.0
 40
1.0
 40
1.0
 40
1.0
 10
895.8849
 20
-361.5833
 30
0.0
 10
895.8849
 20
-361.5833
 30
0.0
 10
891.423
 20
-361.5833
 30
0.0
 10
891.423
 20
-361.5833
 30
0.0
 10
891.423
 20
-361.5833
 30
0.0
 10
891.4466
 20
-359.9303
 30
0.0
 10
890.6155
 20
-358.3176
 30
0.0
 10
889.1573
 20
-358.1696
 30
0.0
 10
889.1573
 20
-358.1696
 30
0.0
 10
889.0385
 20
-356.6998
 30
0.0
 10
887.5058
 20
-355.4707
 30
0.0
 10
885.7649
 20
-355.4333
 30
0.0
 10
885.7649
 20
-355.4333
 30
0.0
 10
885.7649
 20
-355.4333
 30
0.0
 10
885.7649
 20
-353.4804
 30
0.0
 10
885.7649
 20
-353.4804
 30
0.0
 10
885.7649
 20
-353.4804
 30
0.0
 10
885.7649
 20
-353.4804
 30
0.0
 10
890.2275
 20
-353.4804
 30
0.0
 10
890.2275
 20
-353.4804
 30
0.0
 10
890.2275
 20
-353.4804
 30
0.0
 10
890.2857
 20
-355.3111
 30
0.0
 10
891.2588
 20
-356.4348
 30
0.0
 10
892.6132
 20
-356.5175
 30
0.0
 10
892.6132
 20
-356.5175
 30
0.0
 10
892.741
 20
-358.1286
 30
0.0
 10
894.1268
 20
-358.9278
 30
0.0
 10
895.8849
 20
-359.0256
 30
0.0
 10
895.8849
 20
-359.0256
 30
0.0
 10
895.8849
 20
-359.0256
 30
0.0
 10
895.8849
 20
-361.5833
 30
0.0
 10
895.8849
 20
-361.5833
 30
0.0
  0
SPLINE
  5
E4
330
1F
100
AcDbEntity
  8
layer 1
 62
   250
370
     9
100
AcDbSpline
210
0.0
220
0.0
230
1.0
 70
    11
 71
     3
 72
    20
 73
    16
 74
     0
 42
0.0000000001
 43
0.0000000001
 40
0.0
 40
0.0
 40
0.0
 40
0.0
 40
0.25
 40
0.25
 40
0.25
 40
0.25
 40
0.5
 40
0.5
 40
0.5
 40
0.5
 40
0.75
 40
0.75
 40
0.75
 40
0.75
 40
1.0
 40
1.0
 40
1.0
 40
1.0
 10
837.5296
 20
-288.0554
 30
0.0
 10
837.5296
 20
-288.0554
 30
0.0
 10
897.441
 20
-288.0554
 30
0.0
 10
897.441
 20
-288.0554
 30
0.0
 10
897.441
 20
-288.0554
 30
0.0
 10
897.441
 20
-288.0554
 30
0.0
 10
897.441
 20
-363.1394
 30
0.0
 10
897.441
 20
-363.1394
 30
0.0
 10
897.441
 20
-363.1394
 30
0.0
 10
897.441
 20
-363.1394
 30
0.0
 10
837.5296
 20
-363.1394
 30
0.0
 10
837.5296
 20
-363.1394
 30
0.0
 10
837.5296
 20
-363.1394
 30
0.0
 10
837.5296
 20
-363.1394
 30
0.0
 10
837.5296
 20
-288.0554
 30
0.0
 10
837.5296
 20
-288.0554
 30
0.0
  0
SPLINE
  5
E5
330
1F
100
AcDbEntity
  8
layer 1
 62
   250
370
     9
100
AcDbSpline
210
0.0
220
0.0
230
1.0
 70
    11
 71
     3
 72
    20
 73
    16
 74
     0
 42
0.0000000001
 43
0.0000000001
 40
0.0
 40
0.0
 40
0.0
 40
0.0
 40
0.25
 40
0.25
 40
0.25
 40
0.25
 40
0.5
 40
0.5
 40
0.5
 40
0.5
 40
0.75
 40
0.75
 40
0.75
 40
0.75
 40
1.0
 40
1.0
 40
1.0
 40
1.0
 10
841.3728
 20
-295.5183
 30
0.0
 10
841.2647
 20
-294.0907
 30
0.0
 10
840.4599
 20
-293.4595
 30
0.0
 10
839.0857
 20
-293.3412
 30
0.0
 10
839.0857
 20
-293.3412
 30
0.0
 10
839.0857
 20
-293.3412
 30
0.0
 10
839.0857
 20
-297.7144
 30
0.0
 10
839.0857
 20
-297.7144
 30
0.0
 10
839.0857
 20
-297.7144
 30
0.0
 10
839.0857
 20
-297.7144
 30
0.0
 10
843.5491
 20
-297.7144
 30
0.0
 10
843.5491
 20
-297.7144
 30
0.0
 10
843.5491
 20
-297.7144
 30
0.0
 10
843.4603
 20
-296.4416
 30
0.0
 10
842.7342
 20
-295.5439
 30
0.0
 10
841.3728
 20
-295.5183
 30
0.0
  0
SPLINE
  5
E6
330
1F
100
AcDbEntity
  8
layer 1
 62
   250
370
     9
100
AcDbSpline
210
0.0
220
0.0
230
1.0
 70
    11
 71
     3
 72
    20
 73
    16
 74
     0
 42
0.0000000001
 43
0.0000000001
 40
0.0
 40
0.0
 40
0.0
 40
0.0
 40
0.25
 40
0.25
 40
0.25
 40
0.25
 40
0.5
 40
0.5
 40
0.5
 40
0.5
 40
0.75
 40
0.75
 40
0.75
 40
0.75
 40
1.0
 40
1.0
 40
1.0
 40
1.0
 10
843.5471
 20
-300.9769
 30
0.0
 10
843.5471
 20
-300.9769
 30
0.0
 10
843.5471
 20
-298.9119
 30
0.0
 10
843.5471
 20
-298.9119
 30
0.0
 10
843.5471
 20
-298.9119
 30
0.0
 10
843.5471
 20
-298.9119
 30
0.0
 10
839.0857
 20
-298.9119
 30
0.0
 10
839.0857
 20
-298.9119
 30
0.0
 10
839.0857
 20
-298.9119
 30
0.0
 10
839.0857
 20
-298.9119
 30
0.0
 10
839.0857
 20
-300.9769
 30
0.0
 10
839.0857
 20
-300.9769
 30
0.0
 10
839.0857
 20
-300.9769
 30
0.0
 10
839.0857
 20
-300.9769
 30
0.0
 10
843.5471
 20
-300.9769
 30
0.0
 10
843.5471
 20
-300.9769
 30
0.0
  0
SPLINE
  5
E7
330
1F
100
AcDbEntity
  8
layer 1
 62
   250
370
     9
100
AcDbSpline
210
0.0
220
0.0
230
1.0
 70
    11
 71
     3
 72
    20
 73
    16
 74
     0
 42
0.0000000001
 43
0.0000000001
 40
0.0
 40
0.0
 40
0.0
 40
0.0
 40
0.25
 40
0.25
 40
0.25
 40
0.25
 40
0.5
 40
0.5
 40
0.5
 40
0.5
 40
0.75
 40
0.75
 40
0.75
 40
0.75
 40
1.0
 40
1.0
 40
1.0
 40
1.0
 10
860.5232
 20
-300.9769
 30
0.0
 10
860.5232
 20
-300.9769
 30
0.0
 10
860.5232
 20
-298.9119
 30
0.0
 10
860.5232
 20
-298.9119
 30
0.0
 10
860.5232
 20
-298.9119
 30
0.0
 10
860.5232
 20
-298.9119
 30
0.0
 10
856.0617
 20
-298.9119
 30
0.0
 10
856.0617
 20
-298.9119
 30
0.0
 10
856.0617
 20
-298.9119
 30
0.0
 10
856.0617
 20
-298.9119
 30
0.0
 10
856.0617
 20
-300.9769
 30
0.0
 10
856.0617
 20
-300.9769
 30
0.0
 10
856.0617
 20
-300.9769
 30
0.0
 10
856.0617
 20
-300.9769
 30
0.0
 10
860.5232
 20
-300.9769
 30
0.0
 10
860.5232
 20
-300.9769
 30
0.0
  0
SPLINE
  5
E8
330
1F
100
AcDbEntity
  8
layer 1
 62
   250
370
     9
100
AcDbSpline
210
0.0
220
0.0
230
1.0
 70
    11
 71
     3
 72
    20
 73
    16
 74
     0
 42
0.0000000001
 43
0.0000000001
 40
0.0
 40
0.0
 40
0.0
 40
0.0
 40
0.25
 40
0.25
 40
0.25
 40
0.25
 40
0.5
 40
0.5
 40
0.5
 40
0.5
 40
0.75
 40
0.75
 40
0.75
 40
0.75
 40
1.0
 40
1.0
 40
1.0
 40
1.0
 10
860.5232
 20
-297.7144
 30
0.0
 10
860.5232
 20
-297.7144
 30
0.0
 10
860.5232
 20
-293.3411
 30
0.0
 10
860.5232
 20
-293.3411
 30
0.0
 10
860.5232
 20
-293.3411
 30
0.0
 10
859.171
 20
-293.4564
 30
0.0
 10
858.3156
 20
-294.0977
 30
0.0
 10
858.2334
 20
-295.5183
 30
0.0
 10
858.2334
 20
-295.5183
 30
0.0
 10
856.8669
 20
-295.5439
 30
0.0
 10
856.1473
 20
-296.4191
 30
0.0
 10
856.057
 20
-297.7144
 30
0.0
 10
856.057
 20
-297.7144
 30
0.0
 10
856.057
 20
-297.7144
 30
0.0
 10
860.5232
 20
-297.7144
 30
0.0
 10
860.5232
 20
-297.7144
 30
0.0
  0
SPLINE
  5
E9
330
1F
100
AcDbEntity
  8
layer 1
 62
   250
370
     9
100
AcDbSpline
210
0.0
220
0.0
230
1.0
 70
    11
 71
     3
 72
    20
 73
    16
 74
     0
 42
0.0000000001
 43
0.0000000001
 40
0.0
 40
0.0
 40
0.0
 40
0.0
 40
0.25
 40
0.25
 40
0.25
 40
0.25
 40
0.5
 40
0.5
 40
0.5
 40
0.5
 40
0.75
 40
0.75
 40
0.75
 40
0.75
 40
1.0
 40
1.0
 40
1.0
 40
1.0
 10
860.5277
 20
-309.6785
 30
0.0
 10
860.4376
 20
-308.3833
 30
0.0
 10
859.7185
 20
-307.5081
 30
0.0
 10
858.3514
 20
-307.4824
 30
0.0
 10
858.3514
 20
-307.4824
 30
0.0
 10
858.2432
 20
-306.0533
 30
0.0
 10
857.4374
 20
-305.4225
 30
0.0
 10
856.0617
 20
-305.3051
 30
0.0
 10
856.0617
 20
-305.3051
 30
0.0
 10
856.0617
 20
-305.3051
 30
0.0
 10
856.0617
 20
-309.6785
 30
0.0
 10
856.0617
 20
-309.6785
 30
0.0
 10
856.0617
 20
-309.6785
 30
0.0
 10
856.0617
 20
-309.6785
 30
0.0
 10
860.5277
 20
-309.6785
 30
0.0
 10
860.5277
 20
-309.6785
 30
0.0
  0
SPLINE
  5
EA
330
1F
100
AcDbEntity
  8
layer 1
 62
   250
370
     9
100
AcDbSpline
210
0.0
220
0.0
230
1.0
 70
    11
 71
     3
 72
    20
 73
    16
 74
     0
 42
0.0000000001
 43
0.0000000001
 40
0.0
 40
0.0
 40
0.0
 40
0.0
 40
0.25
 40
0.25
 40
0.25
 40
0.25
 40
0.5
 40
0.5
 40
0.5
 40
0.5
 40
0.75
 40
0.75
 40
0.75
 40
0.75
 40
1.0
 40
1.0
 40
1.0
 40
1.0
 10
849.2057
 20
-304.1339
 30
0.0
 10
849.2057
 20
-304.1339
 30
0.0
 10
849.2057
 20
-298.9119
 30
0.0
 10
849.2057
 20
-298.9119
 30
0.0
 10
849.2057
 20
-298.9119
 30
0.0
 10
849.2057
 20
-298.9119
 30
0.0
 10
844.7445
 20
-298.9119
 30
0.0
 10
844.7445
 20
-298.9119
 30
0.0
 10
844.7445
 20
-298.9119
 30
0.0
 10
844.7445
 20
-298.9119
 30
0.0
 10
844.7445
 20
-304.1339
 30
0.0
 10
844.7445
 20
-304.1339
 30
0.0
 10
844.7445
 20
-304.1339
 30
0.0
 10
844.7445
 20
-304.1339
 30
0.0
 10
849.2057
 20
-304.1339
 30
0.0
 10
849.2057
 20
-304.1339
 30
0.0
  0
SPLINE
  5
EB
330
1F
100
AcDbEntity
  8
layer 1
 62
   250
370
     9
100
AcDbSpline
210
0.0
220
0.0
230
1.0
 70
    11
 71
     3
 72
    20
 73
    16
 74
     0
 42
0.0000000001
 43
0.0000000001
 40
0.0
 40
0.0
 40
0.0
 40
0.0
 40
0.25
 40
0.25
 40
0.25
 40
0.25
 40
0.5
 40
0.5
 40
0.5
 40
0.5
 40
0.75
 40
0.75
 40
0.75
 40
0.75
 40
1.0
 40
1.0
 40
1.0
 40
1.0
 10
849.2057
 20
-312.9995
 30
0.0
 10
849.2057
 20
-312.9995
 30
0.0
 10
849.2057
 20
-305.3314
 30
0.0
 10
849.2057
 20
-305.3314
 30
0.0
 10
849.2057
 20
-305.3314
 30
0.0
 10
849.2057
 20
-305.3314
 30
0.0
 10
844.7445
 20
-305.3314
 30
0.0
 10
844.7445
 20
-305.3314
 30
0.0
 10
844.7445
 20
-305.3314
 30
0.0
 10
844.7445
 20
-305.3314
 30
0.0
 10
844.7445
 20
-312.9995
 30
0.0
 10
844.7445
 20
-312.9995
 30
0.0
 10
844.7445
 20
-312.9995
 30
0.0
 10
844.7445
 20
-312.9995
 30
0.0
 10
849.2057
 20
-312.9995
 30
0.0
 10
849.2057
 20
-312.9995
 30
0.0
  0
SPLINE
  5
EC
330
1F
100
AcDbEntity
  8
layer 1
 62
   250
370
     9
100
AcDbSpline
210
0.0
220
0.0
230
1.0
 70
    11
 71
     3
 72
    20
 73
    16
 74
     0
 42
0.0000000001
 43
0.0000000001
 40
0.0
 40
0.0
 40
0.0
 40
0.0
 40
0.25
 40
0.25
 40
0.25
 40
0.25
 40
0.5
 40
0.5
 40
0.5
 40
0.5
 40
0.75
 40
0.75
 40
0.75
 40
0.75
 40
1.0
 40
1.0
 40
1.0
 40
1.0
 10
850.4031
 20
-305.3314
 30
0.0
 10
850.4031
 20
-305.3314
 30
0.0
 10
850.4031
 20
-312.9995
 30
0.0
 10
850.4031
 20
-312.9995
 30
0.0
 10
850.4031
 20
-312.9995
 30
0.0
 10
850.4031
 20
-312.9995
 30
0.0
 10
854.8644
 20
-312.9995
 30
0.0
 10
854.8644
 20
-312.9995
 30
0.0
 10
854.8644
 20
-312.9995
 30
0.0
 10
854.8644
 20
-312.9995
 30
0.0
 10
854.8644
 20
-305.3314
 30
0.0
 10
854.8644
 20
-305.3314
 30
0.0
 10
854.8644
 20
-305.3314
 30
0.0
 10
854.8644
 20
-305.3314
 30
0.0
 10
850.4031
 20
-305.3314
 30
0.0
 10
850.4031
 20
-305.3314
 30
0.0
  0
SPLINE
  5
ED
330
1F
100
AcDbEntity
  8
layer 1
 62
   250
370
     9
100
AcDbSpline
210
0.0
220
0.0
230
1.0
 70
    11
 71
     3
 72
    20
 73
    16
 74
     0
 42
0.0000000001
 43
0.0000000001
 40
0.0
 40
0.0
 40
0.0
 40
0.0
 40
0.25
 40
0.25
 40
0.25
 40
0.25
 40
0.5
 40
0.5
 40
0.5
 40
0.5
 40
0.75
 40
0.75
 40
0.75
 40
0.75
 40
1.0
 40
1.0
 40
1.0
 40
1.0
 10
850.4031
 20
-298.9119
 30
0.0
 10
850.4031
 20
-298.9119
 30
0.0
 10
850.4031
 20
-304.1339
 30
0.0
 10
850.4031
 20
-304.1339
 30
0.0
 10
850.4031
 20
-304.1339
 30
0.0
 10
850.4031
 20
-304.1339
 30
0.0
 10
854.8644
 20
-304.1339
 30
0.0
 10
854.8644
 20
-304.1339
 30
0.0
 10
854.8644
 20
-304.1339
 30
0.0
 10
854.8644
 20
-304.1339
 30
0.0
 10
854.8644
 20
-298.9119
 30
0.0
 10
854.8644
 20
-298.9119
 30
0.0
 10
854.8644
 20
-298.9119
 30
0.0
 10
854.8644
 20
-298.9119
 30
0.0
 10
850.4031
 20
-298.9119
 30
0.0
 10
850.4031
 20
-298.9119
 30
0.0
  0
SPLINE
  5
EE
330
1F
100
AcDbEntity
  8
layer 1
 62
   250
370
     9
100
AcDbSpline
210
0.0
220
0.0
230
1.0
 70
    11
 71
     3
 72
    20
 73
    16
 74
     0
 42
0.0000000001
 43
0.0000000001
 40
0.0
 40
0.0
 40
0.0
 40
0.0
 40
0.25
 40
0.25
 40
0.25
 40
0.25
 40
0.5
 40
0.5
 40
0.5
 40
0.5
 40
0.75
 40
0.75
 40
0.75
 40
0.75
 40
1.0
 40
1.0
 40
1.0
 40
1.0
 10
839.0857
 20
-312.9995
 30
0.0
 10
839.0857
 20
-312.9995
 30
0.0
 10
843.5471
 20
-312.9995
 30
0.0
 10
843.5471
 20
-312.9995
 30
0.0
 10
843.5471
 20
-312.9995
 30
0.0
 10
843.5471
 20
-312.9995
 30
0.0
 10
843.5471
 20
-310.876
 30
0.0
 10
843.5471
 20
-310.876
 30
0.0
 10
843.5471
 20
-310.876
 30
0.0
 10
843.5471
 20
-310.876
 30
0.0
 10
839.0857
 20
-310.876
 30
0.0
 10
839.0857
 20
-310.876
 30
0.0
 10
839.0857
 20
-310.876
 30
0.0
 10
839.0857
 20
-310.876
 30
0.0
 10
839.0857
 20
-312.9995
 30
0.0
 10
839.0857
 20
-312.9995
 30
0.0
  0
SPLINE
  5
EF
330
1F
100
AcDbEntity
  8
layer 1
 62
   250
370
     9
100
AcDbSpline
210
0.0
220
0.0
230
1.0
 70
    11
 71
     3
 72
    20
 73
    16
 74
     0
 42
0.0000000001
 43
0.0000000001
 40
0.0
 40
0.0
 40
0.0
 40
0.0
 40
0.25
 40
0.25
 40
0.25
 40
0.25
 40
0.5
 40
0.5
 40
0.5
 40
0.5
 40
0.75
 40
0.75
 40
0.75
 40
0.75
 40
1.0
 40
1.0
 40
1.0
 40
1.0
 10
860.5232
 20
-310.876
 30
0.0
 10
860.5232
 20
-310.876
 30
0.0
 10
856.0617
 20
-310.876
 30
0.0
 10
856.0617
 20
-310.876
 30
0.0
 10
856.0617
 20
-310.876
 30
0.0
 10
856.0617
 20
-310.876
 30
0.0
 10
856.0617
 20
-312.9995
 30
0.0
 10
856.0617
 20
-312.9995
 30
0.0
 10
856.0617
 20
-312.9995
 30
0.0
 10
856.0617
 20
-312.9995
 30
0.0
 10
860.5232
 20
-312.9995
 30
0.0
 10
860.5232
 20
-312.9995
 30
0.0
 10
860.5232
 20
-312.9995
 30
0.0
 10
860.5232
 20
-312.9995
 30
0.0
 10
860.5232
 20
-310.876
 30
0.0
 10
860.5232
 20
-310.876
 30
0.0
  0
SPLINE
  5
F0
330
1F
100
AcDbEntity
  8
layer 1
 62
   250
370
     9
100
AcDbSpline
210
0.0
220
0.0
230
1.0
 70
    11
 71
     3
 72
    20
 73
    16
 74
     0
 42
0.0000000001
 43
0.0000000001
 40
0.0
 40
0.0
 40
0.0
 40
0.0
 40
0.25
 40
0.25
 40
0.25
 40
0.25
 40
0.5
 40
0.5
 40
0.5
 40
0.5
 40
0.75
 40
0.75
 40
0.75
 40
0.75
 40
1.0
 40
1.0
 40
1.0
 40
1.0
 10
843.5471
 20
-322.8986
 30
0.0
 10
843.5471
 20
-322.8986
 30
0.0
 10
839.0857
 20
-322.8986
 30
0.0
 10
839.0857
 20
-322.8986
 30
0.0
 10
839.0857
 20
-322.8986
 30
0.0
 10
839.0857
 20
-322.8986
 30
0.0
 10
839.0857
 20
-324.9987
 30
0.0
 10
839.0857
 20
-324.9987
 30
0.0
 10
839.0857
 20
-324.9987
 30
0.0
 10
839.0857
 20
-324.9987
 30
0.0
 10
843.5471
 20
-324.9987
 30
0.0
 10
843.5471
 20
-324.9987
 30
0.0
 10
843.5471
 20
-324.9987
 30
0.0
 10
843.5471
 20
-324.9987
 30
0.0
 10
843.5471
 20
-322.8986
 30
0.0
 10
843.5471
 20
-322.8986
 30
0.0
  0
SPLINE
  5
F1
330
1F
100
AcDbEntity
  8
layer 1
 62
   250
370
     9
100
AcDbSpline
210
0.0
220
0.0
230
1.0
 70
    11
 71
     3
 72
    20
 73
    16
 74
     0
 42
0.0000000001
 43
0.0000000001
 40
0.0
 40
0.0
 40
0.0
 40
0.0
 40
0.25
 40
0.25
 40
0.25
 40
0.25
 40
0.5
 40
0.5
 40
0.5
 40
0.5
 40
0.75
 40
0.75
 40
0.75
 40
0.75
 40
1.0
 40
1.0
 40
1.0
 40
1.0
 10
849.2057
 20
-322.8986
 30
0.0
 10
849.2057
 20
-322.8986
 30
0.0
 10
844.7445
 20
-322.8986
 30
0.0
 10
844.7445
 20
-322.8986
 30
0.0
 10
844.7445
 20
-322.8986
 30
0.0
 10
844.7445
 20
-322.8986
 30
0.0
 10
844.7445
 20
-324.9987
 30
0.0
 10
844.7445
 20
-324.9987
 30
0.0
 10
844.7445
 20
-324.9987
 30
0.0
 10
844.7445
 20
-324.9987
 30
0.0
 10
849.2057
 20
-324.9987
 30
0.0
 10
849.2057
 20
-324.9987
 30
0.0
 10
849.2057
 20
-324.9987
 30
0.0
 10
849.2057
 20
-324.9987
 30
0.0
 10
849.2057
 20
-322.8986
 30
0.0
 10
849.2057
 20
-322.8986
 30
0.0
  0
SPLINE
  5
F2
330
1F
100
AcDbEntity
  8
layer 1
 62
   250
370
     9
100
AcDbSpline
210
0.0
220
0.0
230
1.0
 70
    11
 71
     3
 72
    20
 73
    16
 74
     0
 42
0.0000000001
 43
0.0000000001
 40
0.0
 40
0.0
 40
0.0
 40
0.0
 40
0.25
 40
0.25
 40
0.25
 40
0.25
 40
0.5
 40
0.5
 40
0.5
 40
0.5
 40
0.75
 40
0.75
 40
0.75
 40
0.75
 40
1.0
 40
1.0
 40
1.0
 40
1.0
 10
856.0617
 20
-322.8986
 30
0.0
 10
856.0617
 20
-322.8986
 30
0.0
 10
856.0617
 20
-324.9987
 30
0.0
 10
856.0617
 20
-324.9987
 30
0.0
 10
856.0617
 20
-324.9987
 30
0.0
 10
856.0617
 20
-324.9987
 30
0.0
 10
860.5232
 20
-324.9987
 30
0.0
 10
860.5232
 20
-324.9987
 30
0.0
 10
860.5232
 20
-324.9987
 30
0.0
 10
860.5232
 20
-324.9987
 30
0.0
 10
860.5232
 20
-322.8986
 30
0.0
 10
860.5232
 20
-322.8986
 30
0.0
 10
860.5232
 20
-322.8986
 30
0.0
 10
860.5232
 20
-322.8986
 30
0.0
 10
856.0617
 20
-322.8986
 30
0.0
 10
856.0617
 20
-322.8986
 30
0.0
  0
SPLINE
  5
F3
330
1F
100
AcDbEntity
  8
layer 1
 62
   250
370
     9
100
AcDbSpline
210
0.0
220
0.0
230
1.0
 70
    11
 71
     3
 72
    20
 73
    16
 74
     0
 42
0.0000000001
 43
0.0000000001
 40
0.0
 40
0.0
 40
0.0
 40
0.0
 40
0.25
 40
0.25
 40
0.25
 40
0.25
 40
0.5
 40
0.5
 40
0.5
 40
0.5
 40
0.75
 40
0.75
 40
0.75
 40
0.75
 40
1.0
 40
1.0
 40
1.0
 40
1.0
 10
854.8644
 20
-324.9987
 30
0.0
 10
854.8644
 20
-324.9987
 30
0.0
 10
854.8644
 20
-322.8986
 30
0.0
 10
854.8644
 20
-322.8986
 30
0.0
 10
854.8644
 20
-322.8986
 30
0.0
 10
854.8644
 20
-322.8986
 30
0.0
 10
850.4031
 20
-322.8986
 30
0.0
 10
850.4031
 20
-322.8986
 30
0.0
 10
850.4031
 20
-322.8986
 30
0.0
 10
850.4031
 20
-322.8986
 30
0.0
 10
850.4031
 20
-324.9987
 30
0.0
 10
850.4031
 20
-324.9987
 30
0.0
 10
850.4031
 20
-324.9987
 30
0.0
 10
850.4031
 20
-324.9987
 30
0.0
 10
854.8644
 20
-324.9987
 30
0.0
 10
854.8644
 20
-324.9987
 30
0.0
  0
SPLINE
  5
F4
330
1F
100
AcDbEntity
  8
layer 1
 62
   250
370
     9
100
AcDbSpline
210
0.0
220
0.0
230
1.0
 70
    11
 71
     3
 72
    20
 73
    16
 74
     0
 42
0.0000000001
 43
0.0000000001
 40
0.0
 40
0.0
 40
0.0
 40
0.0
 40
0.25
 40
0.25
 40
0.25
 40
0.25
 40
0.5
 40
0.5
 40
0.5
 40
0.5
 40
0.75
 40
0.75
 40
0.75
 40
0.75
 40
1.0
 40
1.0
 40
1.0
 40
1.0
 10
846.916
 20
-316.393
 30
0.0
 10
847.0235
 20
-317.8157
 30
0.0
 10
847.826
 20
-318.4523
 30
0.0
 10
849.2057
 20
-318.5704
 30
0.0
 10
849.2057
 20
-318.5704
 30
0.0
 10
849.2057
 20
-318.5704
 30
0.0
 10
849.2057
 20
-314.1969
 30
0.0
 10
849.2057
 20
-314.1969
 30
0.0
 10
849.2057
 20
-314.1969
 30
0.0
 10
849.2057
 20
-314.1969
 30
0.0
 10
844.7395
 20
-314.1969
 30
0.0
 10
844.7395
 20
-314.1969
 30
0.0
 10
844.7395
 20
-314.1969
 30
0.0
 10
844.8283
 20
-315.4695
 30
0.0
 10
845.5545
 20
-316.3675
 30
0.0
 10
846.916
 20
-316.393
 30
0.0
  0
SPLINE
  5
F5
330
1F
100
AcDbEntity
  8
layer 1
 62
   250
370
     9
100
AcDbSpline
210
0.0
220
0.0
230
1.0
 70
    11
 71
     3
 72
    20
 73
    16
 74
     0
 42
0.0000000001
 43
0.0000000001
 40
0.0
 40
0.0
 40
0.0
 40
0.0
 40
0.25
 40
0.25
 40
0.25
 40
0.25
 40
0.5
 40
0.5
 40
0.5
 40
0.5
 40
0.75
 40
0.75
 40
0.75
 40
0.75
 40
1.0
 40
1.0
 40
1.0
 40
1.0
 10
850.4031
 20
-314.1969
 30
0.0
 10
850.4031
 20
-314.1969
 30
0.0
 10
850.4031
 20
-318.5704
 30
0.0
 10
850.4031
 20
-318.5704
 30
0.0
 10
850.4031
 20
-318.5704
 30
0.0
 10
851.7557
 20
-318.4546
 30
0.0
 10
852.6102
 20
-317.814
 30
0.0
 10
852.6928
 20
-316.393
 30
0.0
 10
852.6928
 20
-316.393
 30
0.0
 10
854.0593
 20
-316.3674
 30
0.0
 10
854.7788
 20
-315.4922
 30
0.0
 10
854.8692
 20
-314.1969
 30
0.0
 10
854.8692
 20
-314.1969
 30
0.0
 10
854.8692
 20
-314.1969
 30
0.0
 10
850.4031
 20
-314.1969
 30
0.0
 10
850.4031
 20
-314.1969
 30
0.0
  0
SPLINE
  5
F6
330
1F
100
AcDbEntity
  8
layer 1
 62
   250
370
     9
100
AcDbSpline
210
0.0
220
0.0
230
1.0
 70
    11
 71
     3
 72
    36
 73
    32
 74
     0
 42
0.0000000001
 43
0.0000000001
 40
0.0
 40
0.0
 40
0.0
 40
0.0
 40
0.125
 40
0.125
 40
0.125
 40
0.125
 40
0.25
 40
0.25
 40
0.25
 40
0.25
 40
0.375
 40
0.375
 40
0.375
 40
0.375
 40
0.5
 40
0.5
 40
0.5
 40
0.5
 40
0.625
 40
0.625
 40
0.625
 40
0.625
 40
0.75
 40
0.75
 40
0.75
 40
0.75
 40
0.875
 40
0.875
 40
0.875
 40
0.875
 40
1.0
 40
1.0
 40
1.0
 40
1.0
 10
849.2057
 20
-319.7422
 30
0.0
 10
847.3645
 20
-319.7067
 30
0.0
 10
845.75
 20
-318.6483
 30
0.0
 10
845.8306
 20
-317.2912
 30
0.0
 10
845.8306
 20
-317.2912
 30
0.0
 10
844.2289
 20
-317.0455
 30
0.0
 10
843.5426
 20
-315.6217
 30
0.0
 10
843.5456
 20
-314.1969
 30
0.0
 10
843.5456
 20
-314.1969
 30
0.0
 10
843.5456
 20
-314.1969
 30
0.0
 10
839.0857
 20
-314.1969
 30
0.0
 10
839.0857
 20
-314.1969
 30
0.0
 10
839.0857
 20
-314.1969
 30
0.0
 10
839.0857
 20
-314.1969
 30
0.0
 10
839.0857
 20
-316.1559
 30
0.0
 10
839.0857
 20
-316.1559
 30
0.0
 10
839.0857
 20
-316.1559
 30
0.0
 10
840.7211
 20
-316.2324
 30
0.0
 10
842.0478
 20
-316.8176
 30
0.0
 10
842.3989
 20
-318.6684
 30
0.0
 10
842.3989
 20
-318.6684
 30
0.0
 10
843.6921
 20
-318.6465
 30
0.0
 10
844.646
 20
-319.7415
 30
0.0
 10
844.7459
 20
-321.7013
 30
0.0
 10
844.7459
 20
-321.7013
 30
0.0
 10
844.7459
 20
-321.7013
 30
0.0
 10
849.2057
 20
-321.7013
 30
0.0
 10
849.2057
 20
-321.7013
 30
0.0
 10
849.2057
 20
-321.7013
 30
0.0
 10
849.2057
 20
-321.7013
 30
0.0
 10
849.2057
 20
-319.7422
 30
0.0
 10
849.2057
 20
-319.7422
 30
0.0
  0
SPLINE
  5
F7
330
1F
100
AcDbEntity
  8
layer 1
 62
   250
370
     9
100
AcDbSpline
210
0.0
220
0.0
230
1.0
 70
    11
 71
     3
 72
    20
 73
    16
 74
     0
 42
0.0000000001
 43
0.0000000001
 40
0.0
 40
0.0
 40
0.0
 40
0.0
 40
0.25
 40
0.25
 40
0.25
 40
0.25
 40
0.5
 40
0.5
 40
0.5
 40
0.5
 40
0.75
 40
0.75
 40
0.75
 40
0.75
 40
1.0
 40
1.0
 40
1.0
 40
1.0
 10
841.3754
 20
-319.5049
 30
0.0
 10
841.2672
 20
-318.0759
 30
0.0
 10
840.4613
 20
-317.445
 30
0.0
 10
839.0857
 20
-317.3278
 30
0.0
 10
839.0857
 20
-317.3278
 30
0.0
 10
839.0857
 20
-317.3278
 30
0.0
 10
839.0857
 20
-321.7013
 30
0.0
 10
839.0857
 20
-321.7013
 30
0.0
 10
839.0857
 20
-321.7013
 30
0.0
 10
839.0857
 20
-321.7013
 30
0.0
 10
843.5517
 20
-321.7013
 30
0.0
 10
843.5517
 20
-321.7013
 30
0.0
 10
843.5517
 20
-321.7013
 30
0.0
 10
843.4631
 20
-320.4284
 30
0.0
 10
842.737
 20
-319.5304
 30
0.0
 10
841.3754
 20
-319.5049
 30
0.0
  0
SPLINE
  5
F8
330
1F
100
AcDbEntity
  8
layer 1
 62
   250
370
     9
100
AcDbSpline
210
0.0
220
0.0
230
1.0
 70
    11
 71
     3
 72
    36
 73
    32
 74
     0
 42
0.0000000001
 43
0.0000000001
 40
0.0
 40
0.0
 40
0.0
 40
0.0
 40
0.125
 40
0.125
 40
0.125
 40
0.125
 40
0.25
 40
0.25
 40
0.25
 40
0.25
 40
0.375
 40
0.375
 40
0.375
 40
0.375
 40
0.5
 40
0.5
 40
0.5
 40
0.5
 40
0.625
 40
0.625
 40
0.625
 40
0.625
 40
0.75
 40
0.75
 40
0.75
 40
0.75
 40
0.875
 40
0.875
 40
0.875
 40
0.875
 40
1.0
 40
1.0
 40
1.0
 40
1.0
 10
857.1793
 20
-318.475
 30
0.0
 10
857.3042
 20
-317.2341
 30
0.0
 10
858.3166
 20
-316.2247
 30
0.0
 10
860.5232
 20
-316.1559
 30
0.0
 10
860.5232
 20
-316.1559
 30
0.0
 10
860.5232
 20
-316.1559
 30
0.0
 10
860.5232
 20
-314.1969
 30
0.0
 10
860.5232
 20
-314.1969
 30
0.0
 10
860.5232
 20
-314.1969
 30
0.0
 10
860.5232
 20
-314.1969
 30
0.0
 10
856.0633
 20
-314.1969
 30
0.0
 10
856.0633
 20
-314.1969
 30
0.0
 10
856.0633
 20
-314.1969
 30
0.0
 10
856.0234
 20
-316.4459
 30
0.0
 10
854.7431
 20
-317.3093
 30
0.0
 10
853.7213
 20
-317.3755
 30
0.0
 10
853.7213
 20
-317.3755
 30
0.0
 10
853.6935
 20
-318.3413
 30
0.0
 10
852.7258
 20
-319.5201
 30
0.0
 10
850.4031
 20
-319.7422
 30
0.0
 10
850.4031
 20
-319.7422
 30
0.0
 10
850.4031
 20
-319.7422
 30
0.0
 10
850.4031
 20
-321.7013
 30
0.0
 10
850.4031
 20
-321.7013
 30
0.0
 10
850.4031
 20
-321.7013
 30
0.0
 10
850.4031
 20
-321.7013
 30
0.0
 10
854.8629
 20
-321.7013
 30
0.0
 10
854.8629
 20
-321.7013
 30
0.0
 10
854.8629
 20
-321.7013
 30
0.0
 10
854.9413
 20
-319.6986
 30
0.0
 10
855.9472
 20
-318.6631
 30
0.0
 10
857.1793
 20
-318.475
 30
0.0
  0
SPLINE
  5
F9
330
1F
100
AcDbEntity
  8
layer 1
 62
   250
370
     9
100
AcDbSpline
210
0.0
220
0.0
230
1.0
 70
    11
 71
     3
 72
    20
 73
    16
 74
     0
 42
0.0000000001
 43
0.0000000001
 40
0.0
 40
0.0
 40
0.0
 40
0.0
 40
0.25
 40
0.25
 40
0.25
 40
0.25
 40
0.5
 40
0.5
 40
0.5
 40
0.5
 40
0.75
 40
0.75
 40
0.75
 40
0.75
 40
1.0
 40
1.0
 40
1.0
 40
1.0
 10
860.5232
 20
-321.7013
 30
0.0
 10
860.5232
 20
-321.7013
 30
0.0
 10
860.5232
 20
-317.3278
 30
0.0
 10
860.5232
 20
-317.3278
 30
0.0
 10
860.5232
 20
-317.3278
 30
0.0
 10
859.171
 20
-317.443
 30
0.0
 10
858.3156
 20
-318.0843
 30
0.0
 10
858.2334
 20
-319.5049
 30
0.0
 10
858.2334
 20
-319.5049
 30
0.0
 10
856.8668
 20
-319.5305
 30
0.0
 10
856.1474
 20
-320.4059
 30
0.0
 10
856.057
 20
-321.7013
 30
0.0
 10
856.057
 20
-321.7013
 30
0.0
 10
856.057
 20
-321.7013
 30
0.0
 10
860.5232
 20
-321.7013
 30
0.0
 10
860.5232
 20
-321.7013
 30
0.0
  0
SPLINE
  5
FA
330
1F
100
AcDbEntity
  8
layer 1
 62
   250
370
     9
100
AcDbSpline
210
0.0
220
0.0
230
1.0
 70
    11
 71
     3
 72
    20
 73
    16
 74
     0
 42
0.0000000001
 43
0.0000000001
 40
0.0
 40
0.0
 40
0.0
 40
0.0
 40
0.25
 40
0.25
 40
0.25
 40
0.25
 40
0.5
 40
0.5
 40
0.5
 40
0.5
 40
0.75
 40
0.75
 40
0.75
 40
0.75
 40
1.0
 40
1.0
 40
1.0
 40
1.0
 10
866.8866
 20
-317.3539
 30
0.0
 10
866.8866
 20
-317.3539
 30
0.0
 10
861.7205
 20
-317.3539
 30
0.0
 10
861.7205
 20
-317.3539
 30
0.0
 10
861.7205
 20
-317.3539
 30
0.0
 10
861.7205
 20
-317.3539
 30
0.0
 10
861.7205
 20
-324.9987
 30
0.0
 10
861.7205
 20
-324.9987
 30
0.0
 10
861.7205
 20
-324.9987
 30
0.0
 10
861.7205
 20
-324.9987
 30
0.0
 10
866.8866
 20
-324.9987
 30
0.0
 10
866.8866
 20
-324.9987
 30
0.0
 10
866.8866
 20
-324.9987
 30
0.0
 10
866.8866
 20
-324.9987
 30
0.0
 10
866.8866
 20
-317.3539
 30
0.0
 10
866.8866
 20
-317.3539
 30
0.0
  0
SPLINE
  5
FB
330
1F
100
AcDbEntity
  8
layer 1
 62
   250
370
     9
100
AcDbSpline
210
0.0
220
0.0
230
1.0
 70
    11
 71
     3
 72
    20
 73
    16
 74
     0
 42
0.0000000001
 43
0.0000000001
 40
0.0
 40
0.0
 40
0.0
 40
0.0
 40
0.25
 40
0.25
 40
0.25
 40
0.25
 40
0.5
 40
0.5
 40
0.5
 40
0.5
 40
0.75
 40
0.75
 40
0.75
 40
0.75
 40
1.0
 40
1.0
 40
1.0
 40
1.0
 10
866.8866
 20
-310.876
 30
0.0
 10
866.8866
 20
-310.876
 30
0.0
 10
861.7205
 20
-310.876
 30
0.0
 10
861.7205
 20
-310.876
 30
0.0
 10
861.7205
 20
-310.876
 30
0.0
 10
861.7205
 20
-310.876
 30
0.0
 10
861.7205
 20
-316.1565
 30
0.0
 10
861.7205
 20
-316.1565
 30
0.0
 10
861.7205
 20
-316.1565
 30
0.0
 10
861.7205
 20
-316.1565
 30
0.0
 10
866.8866
 20
-316.1565
 30
0.0
 10
866.8866
 20
-316.1565
 30
0.0
 10
866.8866
 20
-316.1565
 30
0.0
 10
866.8866
 20
-316.1565
 30
0.0
 10
866.8866
 20
-310.876
 30
0.0
 10
866.8866
 20
-310.876
 30
0.0
  0
SPLINE
  5
FC
330
1F
100
AcDbEntity
  8
layer 1
 62
   250
370
     9
100
AcDbSpline
210
0.0
220
0.0
230
1.0
 70
    11
 71
     3
 72
    36
 73
    32
 74
     0
 42
0.0000000001
 43
0.0000000001
 40
0.0
 40
0.0
 40
0.0
 40
0.0
 40
0.125
 40
0.125
 40
0.125
 40
0.125
 40
0.25
 40
0.25
 40
0.25
 40
0.25
 40
0.375
 40
0.375
 40
0.375
 40
0.375
 40
0.5
 40
0.5
 40
0.5
 40
0.5
 40
0.625
 40
0.625
 40
0.625
 40
0.625
 40
0.75
 40
0.75
 40
0.75
 40
0.75
 40
0.875
 40
0.875
 40
0.875
 40
0.875
 40
1.0
 40
1.0
 40
1.0
 40
1.0
 10
866.8866
 20
-307.7171
 30
0.0
 10
865.1166
 20
-307.7067
 30
0.0
 10
863.5326
 20
-306.9737
 30
0.0
 10
863.2679
 20
-305.6231
 30
0.0
 10
863.2679
 20
-305.6231
 30
0.0
 10
861.6479
 20
-305.4183
 30
0.0
 10
860.4862
 20
-303.7706
 30
0.0
 10
860.5206
 20
-302.1744
 30
0.0
 10
860.5206
 20
-302.1744
 30
0.0
 10
860.5206
 20
-302.1744
 30
0.0
 10
856.0617
 20
-302.1744
 30
0.0
 10
856.0617
 20
-302.1744
 30
0.0
 10
856.0617
 20
-302.1744
 30
0.0
 10
856.0617
 20
-302.1744
 30
0.0
 10
856.0617
 20
-304.1331
 30
0.0
 10
856.0617
 20
-304.1331
 30
0.0
 10
856.0617
 20
-304.1331
 30
0.0
 10
857.4671
 20
-304.132
 30
0.0
 10
859.092
 20
-304.914
 30
0.0
 10
859.3115
 20
-306.5729
 30
0.0
 10
859.3115
 20
-306.5729
 30
0.0
 10
860.5559
 20
-306.5145
 30
0.0
 10
861.6631
 20
-307.7807
 30
0.0
 10
861.7219
 20
-309.6785
 30
0.0
 10
861.7219
 20
-309.6785
 30
0.0
 10
861.7219
 20
-309.6785
 30
0.0
 10
866.8866
 20
-309.6785
 30
0.0
 10
866.8866
 20
-309.6785
 30
0.0
 10
866.8866
 20
-309.6785
 30
0.0
 10
866.8866
 20
-309.6785
 30
0.0
 10
866.8866
 20
-307.7171
 30
0.0
 10
866.8866
 20
-307.7171
 30
0.0
  0
SPLINE
  5
FD
330
1F
100
AcDbEntity
  8
layer 1
 62
   250
370
     9
100
AcDbSpline
210
0.0
220
0.0
230
1.0
 70
    11
 71
     3
 72
    20
 73
    16
 74
     0
 42
0.0000000001
 43
0.0000000001
 40
0.0
 40
0.0
 40
0.0
 40
0.0
 40
0.25
 40
0.25
 40
0.25
 40
0.25
 40
0.5
 40
0.5
 40
0.5
 40
0.5
 40
0.75
 40
0.75
 40
0.75
 40
0.75
 40
1.0
 40
1.0
 40
1.0
 40
1.0
 10
864.2351
 20
-304.5867
 30
0.0
 10
864.3603
 20
-305.9928
 30
0.0
 10
865.6624
 20
-306.4508
 30
0.0
 10
866.8866
 20
-306.539
 30
0.0
 10
866.8866
 20
-306.539
 30
0.0
 10
866.8866
 20
-306.539
 30
0.0
 10
866.8866
 20
-302.1744
 30
0.0
 10
866.8866
 20
-302.1744
 30
0.0
 10
866.8866
 20
-302.1744
 30
0.0
 10
866.8866
 20
-302.1744
 30
0.0
 10
861.7142
 20
-302.1744
 30
0.0
 10
861.7142
 20
-302.1744
 30
0.0
 10
861.7142
 20
-302.1744
 30
0.0
 10
861.8292
 20
-303.5215
 30
0.0
 10
862.8489
 20
-304.5531
 30
0.0
 10
864.2351
 20
-304.5867
 30
0.0
  0
SPLINE
  5
FE
330
1F
100
AcDbEntity
  8
layer 1
 62
   250
370
     9
100
AcDbSpline
210
0.0
220
0.0
230
1.0
 70
    11
 71
     3
 72
    20
 73
    16
 74
     0
 42
0.0000000001
 43
0.0000000001
 40
0.0
 40
0.0
 40
0.0
 40
0.0
 40
0.25
 40
0.25
 40
0.25
 40
0.25
 40
0.5
 40
0.5
 40
0.5
 40
0.5
 40
0.75
 40
0.75
 40
0.75
 40
0.75
 40
1.0
 40
1.0
 40
1.0
 40
1.0
 10
866.8866
 20
-293.3674
 30
0.0
 10
866.8866
 20
-293.3674
 30
0.0
 10
861.7205
 20
-293.3674
 30
0.0
 10
861.7205
 20
-293.3674
 30
0.0
 10
861.7205
 20
-293.3674
 30
0.0
 10
861.7205
 20
-293.3674
 30
0.0
 10
861.7205
 20
-300.9769
 30
0.0
 10
861.7205
 20
-300.9769
 30
0.0
 10
861.7205
 20
-300.9769
 30
0.0
 10
861.7205
 20
-300.9769
 30
0.0
 10
866.8866
 20
-300.9769
 30
0.0
 10
866.8866
 20
-300.9769
 30
0.0
 10
866.8866
 20
-300.9769
 30
0.0
 10
866.8866
 20
-300.9769
 30
0.0
 10
866.8866
 20
-293.3674
 30
0.0
 10
866.8866
 20
-293.3674
 30
0.0
  0
SPLINE
  5
FF
330
1F
100
AcDbEntity
  8
layer 1
 62
   250
370
     9
100
AcDbSpline
210
0.0
220
0.0
230
1.0
 70
    11
 71
     3
 72
    20
 73
    16
 74
     0
 42
0.0000000001
 43
0.0000000001
 40
0.0
 40
0.0
 40
0.0
 40
0.0
 40
0.25
 40
0.25
 40
0.25
 40
0.25
 40
0.5
 40
0.5
 40
0.5
 40
0.5
 40
0.75
 40
0.75
 40
0.75
 40
0.75
 40
1.0
 40
1.0
 40
1.0
 40
1.0
 10
861.7205
 20
-289.6116
 30
0.0
 10
861.7205
 20
-289.6116
 30
0.0
 10
866.8866
 20
-289.6116
 30
0.0
 10
866.8866
 20
-289.6116
 30
0.0
 10
866.8866
 20
-289.6116
 30
0.0
 10
866.8866
 20
-289.6116
 30
0.0
 10
866.8866
 20
-292.1699
 30
0.0
 10
866.8866
 20
-292.1699
 30
0.0
 10
866.8866
 20
-292.1699
 30
0.0
 10
866.8866
 20
-292.1699
 30
0.0
 10
861.7205
 20
-292.1699
 30
0.0
 10
861.7205
 20
-292.1699
 30
0.0
 10
861.7205
 20
-292.1699
 30
0.0
 10
861.7205
 20
-292.1699
 30
0.0
 10
861.7205
 20
-289.6116
 30
0.0
 10
861.7205
 20
-289.6116
 30
0.0
  0
SPLINE
  5
100
330
1F
100
AcDbEntity
  8
layer 1
 62
   250
370
     9
100
AcDbSpline
210
0.0
220
0.0
230
1.0
 70
    11
 71
     3
 72
    36
 73
    32
 74
     0
 42
0.0000000001
 43
0.0000000001
 40
0.0
 40
0.0
 40
0.0
 40
0.0
 40
0.125
 40
0.125
 40
0.125
 40
0.125
 40
0.25
 40
0.25
 40
0.25
 40
0.25
 40
0.375
 40
0.375
 40
0.375
 40
0.375
 40
0.5
 40
0.5
 40
0.5
 40
0.5
 40
0.625
 40
0.625
 40
0.625
 40
0.625
 40
0.75
 40
0.75
 40
0.75
 40
0.75
 40
0.875
 40
0.875
 40
0.875
 40
0.875
 40
1.0
 40
1.0
 40
1.0
 40
1.0
 10
856.061
 20
-289.6116
 30
0.0
 10
856.061
 20
-289.6116
 30
0.0
 10
860.5232
 20
-289.6116
 30
0.0
 10
860.5232
 20
-289.6116
 30
0.0
 10
860.5232
 20
-289.6116
 30
0.0
 10
860.5232
 20
-289.6116
 30
0.0
 10
860.5232
 20
-292.1691
 30
0.0
 10
860.5232
 20
-292.1691
 30
0.0
 10
860.5232
 20
-292.1691
 30
0.0
 10
858.7431
 20
-292.3514
 30
0.0
 10
857.5684
 20
-292.7238
 30
0.0
 10
857.206
 20
-294.5708
 30
0.0
 10
857.206
 20
-294.5708
 30
0.0
 10
855.8487
 20
-294.6997
 30
0.0
 10
854.9216
 20
-295.8196
 30
0.0
 10
854.8629
 20
-297.7144
 30
0.0
 10
854.8629
 20
-297.7144
 30
0.0
 10
854.8629
 20
-297.7144
 30
0.0
 10
850.4031
 20
-297.7144
 30
0.0
 10
850.4031
 20
-297.7144
 30
0.0
 10
850.4031
 20
-297.7144
 30
0.0
 10
850.4031
 20
-297.7144
 30
0.0
 10
850.4031
 20
-295.7616
 30
0.0
 10
850.4031
 20
-295.7616
 30
0.0
 10
850.4031
 20
-295.7616
 30
0.0
 10
852.1439
 20
-295.7242
 30
0.0
 10
853.6126
 20
-294.687
 30
0.0
 10
853.7954
 20
-293.0252
 30
0.0
 10
853.7954
 20
-293.0252
 30
0.0
 10
855.4453
 20
-292.7706
 30
0.0
 10
856.0846
 20
-291.3287
 30
0.0
 10
856.061
 20
-289.6116
 30
0.0
  0
SPLINE
  5
101
330
1F
100
AcDbEntity
  8
layer 1
 62
   250
370
     9
100
AcDbSpline
210
0.0
220
0.0
230
1.0
 70
    11
 71
     3
 72
    20
 73
    16
 74
     0
 42
0.0000000001
 43
0.0000000001
 40
0.0
 40
0.0
 40
0.0
 40
0.0
 40
0.25
 40
0.25
 40
0.25
 40
0.25
 40
0.5
 40
0.5
 40
0.5
 40
0.5
 40
0.75
 40
0.75
 40
0.75
 40
0.75
 40
1.0
 40
1.0
 40
1.0
 40
1.0
 10
850.4031
 20
-289.6116
 30
0.0
 10
850.4031
 20
-289.6116
 30
0.0
 10
854.8642
 20
-289.6116
 30
0.0
 10
854.8642
 20
-289.6116
 30
0.0
 10
854.8642
 20
-289.6116
 30
0.0
 10
854.8113
 20
-290.8153
 30
0.0
 10
854.0823
 20
-292.0949
 30
0.0
 10
852.7429
 20
-292.1334
 30
0.0
 10
852.7429
 20
-292.1334
 30
0.0
 10
852.6294
 20
-293.5793
 30
0.0
 10
851.849
 20
-294.4371
 30
0.0
 10
850.4031
 20
-294.5845
 30
0.0
 10
850.4031
 20
-294.5845
 30
0.0
 10
850.4031
 20
-294.5845
 30
0.0
 10
850.4031
 20
-289.6116
 30
0.0
 10
850.4031
 20
-289.6116
 30
0.0
  0
SPLINE
  5
102
330
1F
100
AcDbEntity
  8
layer 1
 62
   250
370
     9
100
AcDbSpline
210
0.0
220
0.0
230
1.0
 70
    11
 71
     3
 72
    20
 73
    16
 74
     0
 42
0.0000000001
 43
0.0000000001
 40
0.0
 40
0.0
 40
0.0
 40
0.0
 40
0.25
 40
0.25
 40
0.25
 40
0.25
 40
0.5
 40
0.5
 40
0.5
 40
0.5
 40
0.75
 40
0.75
 40
0.75
 40
0.75
 40
1.0
 40
1.0
 40
1.0
 40
1.0
 10
844.7447
 20
-289.6116
 30
0.0
 10
844.7447
 20
-289.6116
 30
0.0
 10
849.2057
 20
-289.6116
 30
0.0
 10
849.2057
 20
-289.6116
 30
0.0
 10
849.2057
 20
-289.6116
 30
0.0
 10
849.2057
 20
-289.6116
 30
0.0
 10
849.2057
 20
-294.5845
 30
0.0
 10
849.2057
 20
-294.5845
 30
0.0
 10
849.2057
 20
-294.5845
 30
0.0
 10
847.7599
 20
-294.4371
 30
0.0
 10
846.9795
 20
-293.5793
 30
0.0
 10
846.866
 20
-292.1334
 30
0.0
 10
846.866
 20
-292.1334
 30
0.0
 10
845.5267
 20
-292.0949
 30
0.0
 10
844.7976
 20
-290.8155
 30
0.0
 10
844.7447
 20
-289.6116
 30
0.0
  0
SPLINE
  5
103
330
1F
100
AcDbEntity
  8
layer 1
 62
   250
370
     9
100
AcDbSpline
210
0.0
220
0.0
230
1.0
 70
    11
 71
     3
 72
    20
 73
    16
 74
     0
 42
0.0000000001
 43
0.0000000001
 40
0.0
 40
0.0
 40
0.0
 40
0.0
 40
0.25
 40
0.25
 40
0.25
 40
0.25
 40
0.5
 40
0.5
 40
0.5
 40
0.5
 40
0.75
 40
0.75
 40
0.75
 40
0.75
 40
1.0
 40
1.0
 40
1.0
 40
1.0
 10
839.0857
 20
-309.6774
 30
0.0
 10
839.0857
 20
-309.6774
 30
0.0
 10
843.5471
 20
-309.6785
 30
0.0
 10
843.5471
 20
-309.6785
 30
0.0
 10
843.5471
 20
-309.6785
 30
0.0
 10
843.5471
 20
-309.6785
 30
0.0
 10
843.5471
 20
-305.3051
 30
0.0
 10
843.5471
 20
-305.3051
 30
0.0
 10
843.5471
 20
-305.3051
 30
0.0
 10
842.1947
 20
-305.4204
 30
0.0
 10
841.3397
 20
-306.0616
 30
0.0
 10
841.2575
 20
-307.4824
 30
0.0
 10
841.2575
 20
-307.4824
 30
0.0
 10
839.9479
 20
-307.507
 30
0.0
 10
839.1739
 20
-308.4118
 30
0.0
 10
839.0857
 20
-309.6774
 30
0.0
  0
SPLINE
  5
104
330
1F
100
AcDbEntity
  8
layer 1
 62
   250
370
     9
100
AcDbSpline
210
0.0
220
0.0
230
1.0
 70
    11
 71
     3
 72
    24
 73
    20
 74
     0
 42
0.0000000001
 43
0.0000000001
 40
0.0
 40
0.0
 40
0.0
 40
0.0
 40
0.2
 40
0.2
 40
0.2
 40
0.2
 40
0.4
 40
0.4
 40
0.4
 40
0.4
 40
0.6000000000000001
 40
0.6000000000000001
 40
0.6000000000000001
 40
0.6000000000000001
 40
0.8
 40
0.8
 40
0.8
 40
0.8
 40
1.0
 40
1.0
 40
1.0
 40
1.0
 10
839.0857
 20
-302.2271
 30
0.0
 10
839.0857
 20
-302.2271
 30
0.0
 10
839.0857
 20
-307.1854
 30
0.0
 10
839.0857
 20
-307.1854
 30
0.0
 10
839.0857
 20
-307.1854
 30
0.0
 10
839.417
 20
-306.8056
 30
0.0
 10
839.8248
 20
-306.5632
 30
0.0
 10
840.2753
 20
-306.5976
 30
0.0
 10
840.2753
 20
-306.5976
 30
0.0
 10
840.5819
 20
-304.9157
 30
0.0
 10
841.9342
 20
-304.217
 30
0.0
 10
843.5471
 20
-304.1331
 30
0.0
 10
843.5471
 20
-304.1331
 30
0.0
 10
843.5471
 20
-304.1331
 30
0.0
 10
843.5471
 20
-302.1744
 30
0.0
 10
843.5471
 20
-302.1744
 30
0.0
 10
843.5471
 20
-302.1744
 30
0.0
 10
843.1748
 20
-302.1744
 30
0.0
 10
839.0894
 20
-302.1454
 30
0.0
 10
839.0857
 20
-302.2271
 30
0.0
  0
SPLINE
  5
105
330
1F
100
AcDbEntity
  8
layer 1
 62
   250
370
     9
100
AcDbSpline
210
0.0
220
0.0
230
1.0
 70
    11
 71
     3
 72
    36
 73
    32
 74
     0
 42
0.0000000001
 43
0.0000000001
 40
0.0
 40
0.0
 40
0.0
 40
0.0
 40
0.125
 40
0.125
 40
0.125
 40
0.125
 40
0.25
 40
0.25
 40
0.25
 40
0.25
 40
0.375
 40
0.375
 40
0.375
 40
0.375
 40
0.5
 40
0.5
 40
0.5
 40
0.5
 40
0.625
 40
0.625
 40
0.625
 40
0.625
 40
0.75
 40
0.75
 40
0.75
 40
0.75
 40
0.875
 40
0.875
 40
0.875
 40
0.875
 40
1.0
 40
1.0
 40
1.0
 40
1.0
 10
839.0857
 20
-289.6116
 30
0.0
 10
839.0857
 20
-289.6116
 30
0.0
 10
843.5476
 20
-289.6116
 30
0.0
 10
843.5476
 20
-289.6116
 30
0.0
 10
843.5476
 20
-289.6116
 30
0.0
 10
843.524
 20
-291.2645
 30
0.0
 10
844.3551
 20
-292.8772
 30
0.0
 10
845.8133
 20
-293.0252
 30
0.0
 10
845.8133
 20
-293.0252
 30
0.0
 10
845.9321
 20
-294.4951
 30
0.0
 10
847.4648
 20
-295.7242
 30
0.0
 10
849.2057
 20
-295.7616
 30
0.0
 10
849.2057
 20
-295.7616
 30
0.0
 10
849.2057
 20
-295.7616
 30
0.0
 10
849.2057
 20
-297.7144
 30
0.0
 10
849.2057
 20
-297.7144
 30
0.0
 10
849.2057
 20
-297.7144
 30
0.0
 10
849.2057
 20
-297.7144
 30
0.0
 10
844.7431
 20
-297.7144
 30
0.0
 10
844.7431
 20
-297.7144
 30
0.0
 10
844.7431
 20
-297.7144
 30
0.0
 10
844.6849
 20
-295.8837
 30
0.0
 10
843.7118
 20
-294.76
 30
0.0
 10
842.3574
 20
-294.6774
 30
0.0
 10
842.3574
 20
-294.6774
 30
0.0
 10
842.2296
 20
-293.0662
 30
0.0
 10
840.8438
 20
-292.267
 30
0.0
 10
839.0857
 20
-292.1693
 30
0.0
 10
839.0857
 20
-292.1693
 30
0.0
 10
839.0857
 20
-292.1693
 30
0.0
 10
839.0857
 20
-289.6116
 30
0.0
 10
839.0857
 20
-289.6116
 30
0.0
  0
SPLINE
  5
106
330
1F
100
AcDbEntity
  8
layer 1
 62
   250
370
     9
100
AcDbSpline
210
0.0
220
0.0
230
1.0
 70
    11
 71
     3
 72
    20
 73
    16
 74
     0
 42
0.0000000001
 43
0.0000000001
 40
0.0
 40
0.0
 40
0.0
 40
0.0
 40
0.25
 40
0.25
 40
0.25
 40
0.25
 40
0.5
 40
0.5
 40
0.5
 40
0.5
 40
0.75
 40
0.75
 40
0.75
 40
0.75
 40
1.0
 40
1.0
 40
1.0
 40
1.0
 10
841.3728
 20
-355.6765
 30
0.0
 10
841.2647
 20
-357.1041
 30
0.0
 10
840.4599
 20
-357.7353
 30
0.0
 10
839.0857
 20
-357.8536
 30
0.0
 10
839.0857
 20
-357.8536
 30
0.0
 10
839.0857
 20
-357.8536
 30
0.0
 10
839.0857
 20
-353.4804
 30
0.0
 10
839.0857
 20
-353.4804
 30
0.0
 10
839.0857
 20
-353.4804
 30
0.0
 10
839.0857
 20
-353.4804
 30
0.0
 10
843.5491
 20
-353.4804
 30
0.0
 10
843.5491
 20
-353.4804
 30
0.0
 10
843.5491
 20
-353.4804
 30
0.0
 10
843.4603
 20
-354.7532
 30
0.0
 10
842.7342
 20
-355.6509
 30
0.0
 10
841.3728
 20
-355.6765
 30
0.0
  0
SPLINE
  5
107
330
1F
100
AcDbEntity
  8
layer 1
 62
   250
370
     9
100
AcDbSpline
210
0.0
220
0.0
230
1.0
 70
    11
 71
     3
 72
    20
 73
    16
 74
     0
 42
0.0000000001
 43
0.0000000001
 40
0.0
 40
0.0
 40
0.0
 40
0.0
 40
0.25
 40
0.25
 40
0.25
 40
0.25
 40
0.5
 40
0.5
 40
0.5
 40
0.5
 40
0.75
 40
0.75
 40
0.75
 40
0.75
 40
1.0
 40
1.0
 40
1.0
 40
1.0
 10
843.5471
 20
-350.2179
 30
0.0
 10
843.5471
 20
-350.2179
 30
0.0
 10
843.5471
 20
-352.2829
 30
0.0
 10
843.5471
 20
-352.2829
 30
0.0
 10
843.5471
 20
-352.2829
 30
0.0
 10
843.5471
 20
-352.2829
 30
0.0
 10
839.0857
 20
-352.2829
 30
0.0
 10
839.0857
 20
-352.2829
 30
0.0
 10
839.0857
 20
-352.2829
 30
0.0
 10
839.0857
 20
-352.2829
 30
0.0
 10
839.0857
 20
-350.2179
 30
0.0
 10
839.0857
 20
-350.2179
 30
0.0
 10
839.0857
 20
-350.2179
 30
0.0
 10
839.0857
 20
-350.2179
 30
0.0
 10
843.5471
 20
-350.2179
 30
0.0
 10
843.5471
 20
-350.2179
 30
0.0
  0
SPLINE
  5
108
330
1F
100
AcDbEntity
  8
layer 1
 62
   250
370
     9
100
AcDbSpline
210
0.0
220
0.0
230
1.0
 70
    11
 71
     3
 72
    20
 73
    16
 74
     0
 42
0.0000000001
 43
0.0000000001
 40
0.0
 40
0.0
 40
0.0
 40
0.0
 40
0.25
 40
0.25
 40
0.25
 40
0.25
 40
0.5
 40
0.5
 40
0.5
 40
0.5
 40
0.75
 40
0.75
 40
0.75
 40
0.75
 40
1.0
 40
1.0
 40
1.0
 40
1.0
 10
860.5232
 20
-350.2179
 30
0.0
 10
860.5232
 20
-350.2179
 30
0.0
 10
860.5232
 20
-352.2829
 30
0.0
 10
860.5232
 20
-352.2829
 30
0.0
 10
860.5232
 20
-352.2829
 30
0.0
 10
860.5232
 20
-352.2829
 30
0.0
 10
856.0617
 20
-352.2829
 30
0.0
 10
856.0617
 20
-352.2829
 30
0.0
 10
856.0617
 20
-352.2829
 30
0.0
 10
856.0617
 20
-352.2829
 30
0.0
 10
856.0617
 20
-350.2179
 30
0.0
 10
856.0617
 20
-350.2179
 30
0.0
 10
856.0617
 20
-350.2179
 30
0.0
 10
856.0617
 20
-350.2179
 30
0.0
 10
860.5232
 20
-350.2179
 30
0.0
 10
860.5232
 20
-350.2179
 30
0.0
  0
SPLINE
  5
109
330
1F
100
AcDbEntity
  8
layer 1
 62
   250
370
     9
100
AcDbSpline
210
0.0
220
0.0
230
1.0
 70
    11
 71
     3
 72
    20
 73
    16
 74
     0
 42
0.0000000001
 43
0.0000000001
 40
0.0
 40
0.0
 40
0.0
 40
0.0
 40
0.25
 40
0.25
 40
0.25
 40
0.25
 40
0.5
 40
0.5
 40
0.5
 40
0.5
 40
0.75
 40
0.75
 40
0.75
 40
0.75
 40
1.0
 40
1.0
 40
1.0
 40
1.0
 10
860.5232
 20
-353.4804
 30
0.0
 10
860.5232
 20
-353.4804
 30
0.0
 10
860.5232
 20
-357.8537
 30
0.0
 10
860.5232
 20
-357.8537
 30
0.0
 10
860.5232
 20
-357.8537
 30
0.0
 10
859.171
 20
-357.7384
 30
0.0
 10
858.3156
 20
-357.0971
 30
0.0
 10
858.2334
 20
-355.6765
 30
0.0
 10
858.2334
 20
-355.6765
 30
0.0
 10
856.8669
 20
-355.6509
 30
0.0
 10
856.1473
 20
-354.7757
 30
0.0
 10
856.057
 20
-353.4804
 30
0.0
 10
856.057
 20
-353.4804
 30
0.0
 10
856.057
 20
-353.4804
 30
0.0
 10
860.5232
 20
-353.4804
 30
0.0
 10
860.5232
 20
-353.4804
 30
0.0
  0
SPLINE
  5
10A
330
1F
100
AcDbEntity
  8
layer 1
 62
   250
370
     9
100
AcDbSpline
210
0.0
220
0.0
230
1.0
 70
    11
 71
     3
 72
    20
 73
    16
 74
     0
 42
0.0000000001
 43
0.0000000001
 40
0.0
 40
0.0
 40
0.0
 40
0.0
 40
0.25
 40
0.25
 40
0.25
 40
0.25
 40
0.5
 40
0.5
 40
0.5
 40
0.5
 40
0.75
 40
0.75
 40
0.75
 40
0.75
 40
1.0
 40
1.0
 40
1.0
 40
1.0
 10
860.5277
 20
-341.5163
 30
0.0
 10
860.4376
 20
-342.8115
 30
0.0
 10
859.7185
 20
-343.6867
 30
0.0
 10
858.3514
 20
-343.7124
 30
0.0
 10
858.3514
 20
-343.7124
 30
0.0
 10
858.2432
 20
-345.1415
 30
0.0
 10
857.4374
 20
-345.7724
 30
0.0
 10
856.0617
 20
-345.8897
 30
0.0
 10
856.0617
 20
-345.8897
 30
0.0
 10
856.0617
 20
-345.8897
 30
0.0
 10
856.0617
 20
-341.5163
 30
0.0
 10
856.0617
 20
-341.5163
 30
0.0
 10
856.0617
 20
-341.5163
 30
0.0
 10
856.0617
 20
-341.5163
 30
0.0
 10
860.5277
 20
-341.5163
 30
0.0
 10
860.5277
 20
-341.5163
 30
0.0
  0
SPLINE
  5
10B
330
1F
100
AcDbEntity
  8
layer 1
 62
   250
370
     9
100
AcDbSpline
210
0.0
220
0.0
230
1.0
 70
    11
 71
     3
 72
    20
 73
    16
 74
     0
 42
0.0000000001
 43
0.0000000001
 40
0.0
 40
0.0
 40
0.0
 40
0.0
 40
0.25
 40
0.25
 40
0.25
 40
0.25
 40
0.5
 40
0.5
 40
0.5
 40
0.5
 40
0.75
 40
0.75
 40
0.75
 40
0.75
 40
1.0
 40
1.0
 40
1.0
 40
1.0
 10
849.2057
 20
-347.0609
 30
0.0
 10
849.2057
 20
-347.0609
 30
0.0
 10
849.2057
 20
-352.2829
 30
0.0
 10
849.2057
 20
-352.2829
 30
0.0
 10
849.2057
 20
-352.2829
 30
0.0
 10
849.2057
 20
-352.2829
 30
0.0
 10
844.7445
 20
-352.2829
 30
0.0
 10
844.7445
 20
-352.2829
 30
0.0
 10
844.7445
 20
-352.2829
 30
0.0
 10
844.7445
 20
-352.2829
 30
0.0
 10
844.7445
 20
-347.0609
 30
0.0
 10
844.7445
 20
-347.0609
 30
0.0
 10
844.7445
 20
-347.0609
 30
0.0
 10
844.7445
 20
-347.0609
 30
0.0
 10
849.2057
 20
-347.0609
 30
0.0
 10
849.2057
 20
-347.0609
 30
0.0
  0
SPLINE
  5
10C
330
1F
100
AcDbEntity
  8
layer 1
 62
   250
370
     9
100
AcDbSpline
210
0.0
220
0.0
230
1.0
 70
    11
 71
     3
 72
    20
 73
    16
 74
     0
 42
0.0000000001
 43
0.0000000001
 40
0.0
 40
0.0
 40
0.0
 40
0.0
 40
0.25
 40
0.25
 40
0.25
 40
0.25
 40
0.5
 40
0.5
 40
0.5
 40
0.5
 40
0.75
 40
0.75
 40
0.75
 40
0.75
 40
1.0
 40
1.0
 40
1.0
 40
1.0
 10
849.2057
 20
-338.1953
 30
0.0
 10
849.2057
 20
-338.1953
 30
0.0
 10
849.2057
 20
-345.8634
 30
0.0
 10
849.2057
 20
-345.8634
 30
0.0
 10
849.2057
 20
-345.8634
 30
0.0
 10
849.2057
 20
-345.8634
 30
0.0
 10
844.7445
 20
-345.8634
 30
0.0
 10
844.7445
 20
-345.8634
 30
0.0
 10
844.7445
 20
-345.8634
 30
0.0
 10
844.7445
 20
-345.8634
 30
0.0
 10
844.7445
 20
-338.1953
 30
0.0
 10
844.7445
 20
-338.1953
 30
0.0
 10
844.7445
 20
-338.1953
 30
0.0
 10
844.7445
 20
-338.1953
 30
0.0
 10
849.2057
 20
-338.1953
 30
0.0
 10
849.2057
 20
-338.1953
 30
0.0
  0
SPLINE
  5
10D
330
1F
100
AcDbEntity
  8
layer 1
 62
   250
370
     9
100
AcDbSpline
210
0.0
220
0.0
230
1.0
 70
    11
 71
     3
 72
    20
 73
    16
 74
     0
 42
0.0000000001
 43
0.0000000001
 40
0.0
 40
0.0
 40
0.0
 40
0.0
 40
0.25
 40
0.25
 40
0.25
 40
0.25
 40
0.5
 40
0.5
 40
0.5
 40
0.5
 40
0.75
 40
0.75
 40
0.75
 40
0.75
 40
1.0
 40
1.0
 40
1.0
 40
1.0
 10
850.4031
 20
-345.8634
 30
0.0
 10
850.4031
 20
-345.8634
 30
0.0
 10
850.4031
 20
-338.1953
 30
0.0
 10
850.4031
 20
-338.1953
 30
0.0
 10
850.4031
 20
-338.1953
 30
0.0
 10
850.4031
 20
-338.1953
 30
0.0
 10
854.8644
 20
-338.1953
 30
0.0
 10
854.8644
 20
-338.1953
 30
0.0
 10
854.8644
 20
-338.1953
 30
0.0
 10
854.8644
 20
-338.1953
 30
0.0
 10
854.8644
 20
-345.8634
 30
0.0
 10
854.8644
 20
-345.8634
 30
0.0
 10
854.8644
 20
-345.8634
 30
0.0
 10
854.8644
 20
-345.8634
 30
0.0
 10
850.4031
 20
-345.8634
 30
0.0
 10
850.4031
 20
-345.8634
 30
0.0
  0
SPLINE
  5
10E
330
1F
100
AcDbEntity
  8
layer 1
 62
   250
370
     9
100
AcDbSpline
210
0.0
220
0.0
230
1.0
 70
    11
 71
     3
 72
    20
 73
    16
 74
     0
 42
0.0000000001
 43
0.0000000001
 40
0.0
 40
0.0
 40
0.0
 40
0.0
 40
0.25
 40
0.25
 40
0.25
 40
0.25
 40
0.5
 40
0.5
 40
0.5
 40
0.5
 40
0.75
 40
0.75
 40
0.75
 40
0.75
 40
1.0
 40
1.0
 40
1.0
 40
1.0
 10
850.4031
 20
-352.2829
 30
0.0
 10
850.4031
 20
-352.2829
 30
0.0
 10
850.4031
 20
-347.0609
 30
0.0
 10
850.4031
 20
-347.0609
 30
0.0
 10
850.4031
 20
-347.0609
 30
0.0
 10
850.4031
 20
-347.0609
 30
0.0
 10
854.8644
 20
-347.0609
 30
0.0
 10
854.8644
 20
-347.0609
 30
0.0
 10
854.8644
 20
-347.0609
 30
0.0
 10
854.8644
 20
-347.0609
 30
0.0
 10
854.8644
 20
-352.2829
 30
0.0
 10
854.8644
 20
-352.2829
 30
0.0
 10
854.8644
 20
-352.2829
 30
0.0
 10
854.8644
 20
-352.2829
 30
0.0
 10
850.4031
 20
-352.2829
 30
0.0
 10
850.4031
 20
-352.2829
 30
0.0
  0
SPLINE
  5
10F
330
1F
100
AcDbEntity
  8
layer 1
 62
   250
370
     9
100
AcDbSpline
210
0.0
220
0.0
230
1.0
 70
    11
 71
     3
 72
    20
 73
    16
 74
     0
 42
0.0000000001
 43
0.0000000001
 40
0.0
 40
0.0
 40
0.0
 40
0.0
 40
0.25
 40
0.25
 40
0.25
 40
0.25
 40
0.5
 40
0.5
 40
0.5
 40
0.5
 40
0.75
 40
0.75
 40
0.75
 40
0.75
 40
1.0
 40
1.0
 40
1.0
 40
1.0
 10
839.0857
 20
-338.1953
 30
0.0
 10
839.0857
 20
-338.1953
 30
0.0
 10
843.5471
 20
-338.1953
 30
0.0
 10
843.5471
 20
-338.1953
 30
0.0
 10
843.5471
 20
-338.1953
 30
0.0
 10
843.5471
 20
-338.1953
 30
0.0
 10
843.5471
 20
-340.3188
 30
0.0
 10
843.5471
 20
-340.3188
 30
0.0
 10
843.5471
 20
-340.3188
 30
0.0
 10
843.5471
 20
-340.3188
 30
0.0
 10
839.0857
 20
-340.3188
 30
0.0
 10
839.0857
 20
-340.3188
 30
0.0
 10
839.0857
 20
-340.3188
 30
0.0
 10
839.0857
 20
-340.3188
 30
0.0
 10
839.0857
 20
-338.1953
 30
0.0
 10
839.0857
 20
-338.1953
 30
0.0
  0
SPLINE
  5
110
330
1F
100
AcDbEntity
  8
layer 1
 62
   250
370
     9
100
AcDbSpline
210
0.0
220
0.0
230
1.0
 70
    11
 71
     3
 72
    20
 73
    16
 74
     0
 42
0.0000000001
 43
0.0000000001
 40
0.0
 40
0.0
 40
0.0
 40
0.0
 40
0.25
 40
0.25
 40
0.25
 40
0.25
 40
0.5
 40
0.5
 40
0.5
 40
0.5
 40
0.75
 40
0.75
 40
0.75
 40
0.75
 40
1.0
 40
1.0
 40
1.0
 40
1.0
 10
860.5232
 20
-340.3188
 30
0.0
 10
860.5232
 20
-340.3188
 30
0.0
 10
856.0617
 20
-340.3188
 30
0.0
 10
856.0617
 20
-340.3188
 30
0.0
 10
856.0617
 20
-340.3188
 30
0.0
 10
856.0617
 20
-340.3188
 30
0.0
 10
856.0617
 20
-338.1953
 30
0.0
 10
856.0617
 20
-338.1953
 30
0.0
 10
856.0617
 20
-338.1953
 30
0.0
 10
856.0617
 20
-338.1953
 30
0.0
 10
860.5232
 20
-338.1953
 30
0.0
 10
860.5232
 20
-338.1953
 30
0.0
 10
860.5232
 20
-338.1953
 30
0.0
 10
860.5232
 20
-338.1953
 30
0.0
 10
860.5232
 20
-340.3188
 30
0.0
 10
860.5232
 20
-340.3188
 30
0.0
  0
SPLINE
  5
111
330
1F
100
AcDbEntity
  8
layer 1
 62
   250
370
     9
100
AcDbSpline
210
0.0
220
0.0
230
1.0
 70
    11
 71
     3
 72
    20
 73
    16
 74
     0
 42
0.0000000001
 43
0.0000000001
 40
0.0
 40
0.0
 40
0.0
 40
0.0
 40
0.25
 40
0.25
 40
0.25
 40
0.25
 40
0.5
 40
0.5
 40
0.5
 40
0.5
 40
0.75
 40
0.75
 40
0.75
 40
0.75
 40
1.0
 40
1.0
 40
1.0
 40
1.0
 10
843.5471
 20
-328.2962
 30
0.0
 10
843.5471
 20
-328.2962
 30
0.0
 10
839.0857
 20
-328.2962
 30
0.0
 10
839.0857
 20
-328.2962
 30
0.0
 10
839.0857
 20
-328.2962
 30
0.0
 10
839.0857
 20
-328.2962
 30
0.0
 10
839.0857
 20
-326.1961
 30
0.0
 10
839.0857
 20
-326.1961
 30
0.0
 10
839.0857
 20
-326.1961
 30
0.0
 10
839.0857
 20
-326.1961
 30
0.0
 10
843.5471
 20
-326.1961
 30
0.0
 10
843.5471
 20
-326.1961
 30
0.0
 10
843.5471
 20
-326.1961
 30
0.0
 10
843.5471
 20
-326.1961
 30
0.0
 10
843.5471
 20
-328.2962
 30
0.0
 10
843.5471
 20
-328.2962
 30
0.0
  0
SPLINE
  5
112
330
1F
100
AcDbEntity
  8
layer 1
 62
   250
370
     9
100
AcDbSpline
210
0.0
220
0.0
230
1.0
 70
    11
 71
     3
 72
    20
 73
    16
 74
     0
 42
0.0000000001
 43
0.0000000001
 40
0.0
 40
0.0
 40
0.0
 40
0.0
 40
0.25
 40
0.25
 40
0.25
 40
0.25
 40
0.5
 40
0.5
 40
0.5
 40
0.5
 40
0.75
 40
0.75
 40
0.75
 40
0.75
 40
1.0
 40
1.0
 40
1.0
 40
1.0
 10
849.2057
 20
-328.2962
 30
0.0
 10
849.2057
 20
-328.2962
 30
0.0
 10
844.7445
 20
-328.2962
 30
0.0
 10
844.7445
 20
-328.2962
 30
0.0
 10
844.7445
 20
-328.2962
 30
0.0
 10
844.7445
 20
-328.2962
 30
0.0
 10
844.7445
 20
-326.1961
 30
0.0
 10
844.7445
 20
-326.1961
 30
0.0
 10
844.7445
 20
-326.1961
 30
0.0
 10
844.7445
 20
-326.1961
 30
0.0
 10
849.2057
 20
-326.1961
 30
0.0
 10
849.2057
 20
-326.1961
 30
0.0
 10
849.2057
 20
-326.1961
 30
0.0
 10
849.2057
 20
-326.1961
 30
0.0
 10
849.2057
 20
-328.2962
 30
0.0
 10
849.2057
 20
-328.2962
 30
0.0
  0
SPLINE
  5
113
330
1F
100
AcDbEntity
  8
layer 1
 62
   250
370
     9
100
AcDbSpline
210
0.0
220
0.0
230
1.0
 70
    11
 71
     3
 72
    20
 73
    16
 74
     0
 42
0.0000000001
 43
0.0000000001
 40
0.0
 40
0.0
 40
0.0
 40
0.0
 40
0.25
 40
0.25
 40
0.25
 40
0.25
 40
0.5
 40
0.5
 40
0.5
 40
0.5
 40
0.75
 40
0.75
 40
0.75
 40
0.75
 40
1.0
 40
1.0
 40
1.0
 40
1.0
 10
856.0617
 20
-328.2962
 30
0.0
 10
856.0617
 20
-328.2962
 30
0.0
 10
856.0617
 20
-326.1961
 30
0.0
 10
856.0617
 20
-326.1961
 30
0.0
 10
856.0617
 20
-326.1961
 30
0.0
 10
856.0617
 20
-326.1961
 30
0.0
 10
860.5232
 20
-326.1961
 30
0.0
 10
860.5232
 20
-326.1961
 30
0.0
 10
860.5232
 20
-326.1961
 30
0.0
 10
860.5232
 20
-326.1961
 30
0.0
 10
860.5232
 20
-328.2962
 30
0.0
 10
860.5232
 20
-328.2962
 30
0.0
 10
860.5232
 20
-328.2962
 30
0.0
 10
860.5232
 20
-328.2962
 30
0.0
 10
856.0617
 20
-328.2962
 30
0.0
 10
856.0617
 20
-328.2962
 30
0.0
  0
SPLINE
  5
114
330
1F
100
AcDbEntity
  8
layer 1
 62
   250
370
     9
100
AcDbSpline
210
0.0
220
0.0
230
1.0
 70
    11
 71
     3
 72
    20
 73
    16
 74
     0
 42
0.0000000001
 43
0.0000000001
 40
0.0
 40
0.0
 40
0.0
 40
0.0
 40
0.25
 40
0.25
 40
0.25
 40
0.25
 40
0.5
 40
0.5
 40
0.5
 40
0.5
 40
0.75
 40
0.75
 40
0.75
 40
0.75
 40
1.0
 40
1.0
 40
1.0
 40
1.0
 10
854.8644
 20
-326.1961
 30
0.0
 10
854.8644
 20
-326.1961
 30
0.0
 10
854.8644
 20
-328.2962
 30
0.0
 10
854.8644
 20
-328.2962
 30
0.0
 10
854.8644
 20
-328.2962
 30
0.0
 10
854.8644
 20
-328.2962
 30
0.0
 10
850.4031
 20
-328.2962
 30
0.0
 10
850.4031
 20
-328.2962
 30
0.0
 10
850.4031
 20
-328.2962
 30
0.0
 10
850.4031
 20
-328.2962
 30
0.0
 10
850.4031
 20
-326.1961
 30
0.0
 10
850.4031
 20
-326.1961
 30
0.0
 10
850.4031
 20
-326.1961
 30
0.0
 10
850.4031
 20
-326.1961
 30
0.0
 10
854.8644
 20
-326.1961
 30
0.0
 10
854.8644
 20
-326.1961
 30
0.0
  0
SPLINE
  5
115
330
1F
100
AcDbEntity
  8
layer 1
 62
   250
370
     9
100
AcDbSpline
210
0.0
220
0.0
230
1.0
 70
    11
 71
     3
 72
    20
 73
    16
 74
     0
 42
0.0000000001
 43
0.0000000001
 40
0.0
 40
0.0
 40
0.0
 40
0.0
 40
0.25
 40
0.25
 40
0.25
 40
0.25
 40
0.5
 40
0.5
 40
0.5
 40
0.5
 40
0.75
 40
0.75
 40
0.75
 40
0.75
 40
1.0
 40
1.0
 40
1.0
 40
1.0
 10
846.916
 20
-334.8018
 30
0.0
 10
847.0235
 20
-333.3791
 30
0.0
 10
847.826
 20
-332.7425
 30
0.0
 10
849.2057
 20
-332.6245
 30
0.0
 10
849.2057
 20
-332.6245
 30
0.0
 10
849.2057
 20
-332.6245
 30
0.0
 10
849.2057
 20
-336.9979
 30
0.0
 10
849.2057
 20
-336.9979
 30
0.0
 10
849.2057
 20
-336.9979
 30
0.0
 10
849.2057
 20
-336.9979
 30
0.0
 10
844.7395
 20
-336.9979
 30
0.0
 10
844.7395
 20
-336.9979
 30
0.0
 10
844.7395
 20
-336.9979
 30
0.0
 10
844.8283
 20
-335.7253
 30
0.0
 10
845.5545
 20
-334.8273
 30
0.0
 10
846.916
 20
-334.8018
 30
0.0
  0
SPLINE
  5
116
330
1F
100
AcDbEntity
  8
layer 1
 62
   250
370
     9
100
AcDbSpline
210
0.0
220
0.0
230
1.0
 70
    11
 71
     3
 72
    20
 73
    16
 74
     0
 42
0.0000000001
 43
0.0000000001
 40
0.0
 40
0.0
 40
0.0
 40
0.0
 40
0.25
 40
0.25
 40
0.25
 40
0.25
 40
0.5
 40
0.5
 40
0.5
 40
0.5
 40
0.75
 40
0.75
 40
0.75
 40
0.75
 40
1.0
 40
1.0
 40
1.0
 40
1.0
 10
850.4031
 20
-336.9979
 30
0.0
 10
850.4031
 20
-336.9979
 30
0.0
 10
850.4031
 20
-332.6245
 30
0.0
 10
850.4031
 20
-332.6245
 30
0.0
 10
850.4031
 20
-332.6245
 30
0.0
 10
851.7557
 20
-332.7402
 30
0.0
 10
852.6102
 20
-333.3808
 30
0.0
 10
852.6928
 20
-334.8018
 30
0.0
 10
852.6928
 20
-334.8018
 30
0.0
 10
854.0593
 20
-334.8274
 30
0.0
 10
854.7788
 20
-335.7026
 30
0.0
 10
854.8692
 20
-336.9979
 30
0.0
 10
854.8692
 20
-336.9979
 30
0.0
 10
854.8692
 20
-336.9979
 30
0.0
 10
850.4031
 20
-336.9979
 30
0.0
 10
850.4031
 20
-336.9979
 30
0.0
  0
SPLINE
  5
117
330
1F
100
AcDbEntity
  8
layer 1
 62
   250
370
     9
100
AcDbSpline
210
0.0
220
0.0
230
1.0
 70
    11
 71
     3
 72
    36
 73
    32
 74
     0
 42
0.0000000001
 43
0.0000000001
 40
0.0
 40
0.0
 40
0.0
 40
0.0
 40
0.125
 40
0.125
 40
0.125
 40
0.125
 40
0.25
 40
0.25
 40
0.25
 40
0.25
 40
0.375
 40
0.375
 40
0.375
 40
0.375
 40
0.5
 40
0.5
 40
0.5
 40
0.5
 40
0.625
 40
0.625
 40
0.625
 40
0.625
 40
0.75
 40
0.75
 40
0.75
 40
0.75
 40
0.875
 40
0.875
 40
0.875
 40
0.875
 40
1.0
 40
1.0
 40
1.0
 40
1.0
 10
849.2057
 20
-331.4526
 30
0.0
 10
847.3645
 20
-331.4882
 30
0.0
 10
845.75
 20
-332.5466
 30
0.0
 10
845.8306
 20
-333.9036
 30
0.0
 10
845.8306
 20
-333.9036
 30
0.0
 10
844.2289
 20
-334.1493
 30
0.0
 10
843.5426
 20
-335.5731
 30
0.0
 10
843.5456
 20
-336.9979
 30
0.0
 10
843.5456
 20
-336.9979
 30
0.0
 10
843.5456
 20
-336.9979
 30
0.0
 10
839.0857
 20
-336.9979
 30
0.0
 10
839.0857
 20
-336.9979
 30
0.0
 10
839.0857
 20
-336.9979
 30
0.0
 10
839.0857
 20
-336.9979
 30
0.0
 10
839.0857
 20
-335.0389
 30
0.0
 10
839.0857
 20
-335.0389
 30
0.0
 10
839.0857
 20
-335.0389
 30
0.0
 10
840.7211
 20
-334.9625
 30
0.0
 10
842.0478
 20
-334.3772
 30
0.0
 10
842.3989
 20
-332.5264
 30
0.0
 10
842.3989
 20
-332.5264
 30
0.0
 10
843.6921
 20
-332.5483
 30
0.0
 10
844.646
 20
-331.4533
 30
0.0
 10
844.7459
 20
-329.4936
 30
0.0
 10
844.7459
 20
-329.4936
 30
0.0
 10
844.7459
 20
-329.4936
 30
0.0
 10
849.2057
 20
-329.4936
 30
0.0
 10
849.2057
 20
-329.4936
 30
0.0
 10
849.2057
 20
-329.4936
 30
0.0
 10
849.2057
 20
-329.4936
 30
0.0
 10
849.2057
 20
-331.4526
 30
0.0
 10
849.2057
 20
-331.4526
 30
0.0
  0
SPLINE
  5
118
330
1F
100
AcDbEntity
  8
layer 1
 62
   250
370
     9
100
AcDbSpline
210
0.0
220
0.0
230
1.0
 70
    11
 71
     3
 72
    20
 73
    16
 74
     0
 42
0.0000000001
 43
0.0000000001
 40
0.0
 40
0.0
 40
0.0
 40
0.0
 40
0.25
 40
0.25
 40
0.25
 40
0.25
 40
0.5
 40
0.5
 40
0.5
 40
0.5
 40
0.75
 40
0.75
 40
0.75
 40
0.75
 40
1.0
 40
1.0
 40
1.0
 40
1.0
 10
841.3754
 20
-331.6899
 30
0.0
 10
841.2672
 20
-333.1189
 30
0.0
 10
840.4613
 20
-333.7498
 30
0.0
 10
839.0857
 20
-333.867
 30
0.0
 10
839.0857
 20
-333.867
 30
0.0
 10
839.0857
 20
-333.867
 30
0.0
 10
839.0857
 20
-329.4936
 30
0.0
 10
839.0857
 20
-329.4936
 30
0.0
 10
839.0857
 20
-329.4936
 30
0.0
 10
839.0857
 20
-329.4936
 30
0.0
 10
843.5517
 20
-329.4936
 30
0.0
 10
843.5517
 20
-329.4936
 30
0.0
 10
843.5517
 20
-329.4936
 30
0.0
 10
843.4631
 20
-330.7664
 30
0.0
 10
842.737
 20
-331.6644
 30
0.0
 10
841.3754
 20
-331.6899
 30
0.0
  0
SPLINE
  5
119
330
1F
100
AcDbEntity
  8
layer 1
 62
   250
370
     9
100
AcDbSpline
210
0.0
220
0.0
230
1.0
 70
    11
 71
     3
 72
    36
 73
    32
 74
     0
 42
0.0000000001
 43
0.0000000001
 40
0.0
 40
0.0
 40
0.0
 40
0.0
 40
0.125
 40
0.125
 40
0.125
 40
0.125
 40
0.25
 40
0.25
 40
0.25
 40
0.25
 40
0.375
 40
0.375
 40
0.375
 40
0.375
 40
0.5
 40
0.5
 40
0.5
 40
0.5
 40
0.625
 40
0.625
 40
0.625
 40
0.625
 40
0.75
 40
0.75
 40
0.75
 40
0.75
 40
0.875
 40
0.875
 40
0.875
 40
0.875
 40
1.0
 40
1.0
 40
1.0
 40
1.0
 10
857.1793
 20
-332.7199
 30
0.0
 10
857.3042
 20
-333.9607
 30
0.0
 10
858.3166
 20
-334.9701
 30
0.0
 10
860.5232
 20
-335.0389
 30
0.0
 10
860.5232
 20
-335.0389
 30
0.0
 10
860.5232
 20
-335.0389
 30
0.0
 10
860.5232
 20
-336.9979
 30
0.0
 10
860.5232
 20
-336.9979
 30
0.0
 10
860.5232
 20
-336.9979
 30
0.0
 10
860.5232
 20
-336.9979
 30
0.0
 10
856.0633
 20
-336.9979
 30
0.0
 10
856.0633
 20
-336.9979
 30
0.0
 10
856.0633
 20
-336.9979
 30
0.0
 10
856.0234
 20
-334.7489
 30
0.0
 10
854.7431
 20
-333.8856
 30
0.0
 10
853.7213
 20
-333.8193
 30
0.0
 10
853.7213
 20
-333.8193
 30
0.0
 10
853.6935
 20
-332.8535
 30
0.0
 10
852.7258
 20
-331.6747
 30
0.0
 10
850.4031
 20
-331.4526
 30
0.0
 10
850.4031
 20
-331.4526
 30
0.0
 10
850.4031
 20
-331.4526
 30
0.0
 10
850.4031
 20
-329.4936
 30
0.0
 10
850.4031
 20
-329.4936
 30
0.0
 10
850.4031
 20
-329.4936
 30
0.0
 10
850.4031
 20
-329.4936
 30
0.0
 10
854.8629
 20
-329.4936
 30
0.0
 10
854.8629
 20
-329.4936
 30
0.0
 10
854.8629
 20
-329.4936
 30
0.0
 10
854.9413
 20
-331.4962
 30
0.0
 10
855.9472
 20
-332.5317
 30
0.0
 10
857.1793
 20
-332.7199
 30
0.0
  0
SPLINE
  5
11A
330
1F
100
AcDbEntity
  8
layer 1
 62
   250
370
     9
100
AcDbSpline
210
0.0
220
0.0
230
1.0
 70
    11
 71
     3
 72
    20
 73
    16
 74
     0
 42
0.0000000001
 43
0.0000000001
 40
0.0
 40
0.0
 40
0.0
 40
0.0
 40
0.25
 40
0.25
 40
0.25
 40
0.25
 40
0.5
 40
0.5
 40
0.5
 40
0.5
 40
0.75
 40
0.75
 40
0.75
 40
0.75
 40
1.0
 40
1.0
 40
1.0
 40
1.0
 10
860.5232
 20
-329.4936
 30
0.0
 10
860.5232
 20
-329.4936
 30
0.0
 10
860.5232
 20
-333.867
 30
0.0
 10
860.5232
 20
-333.867
 30
0.0
 10
860.5232
 20
-333.867
 30
0.0
 10
859.171
 20
-333.7518
 30
0.0
 10
858.3156
 20
-333.1105
 30
0.0
 10
858.2334
 20
-331.6899
 30
0.0
 10
858.2334
 20
-331.6899
 30
0.0
 10
856.8668
 20
-331.6643
 30
0.0
 10
856.1474
 20
-330.7889
 30
0.0
 10
856.057
 20
-329.4936
 30
0.0
 10
856.057
 20
-329.4936
 30
0.0
 10
856.057
 20
-329.4936
 30
0.0
 10
860.5232
 20
-329.4936
 30
0.0
 10
860.5232
 20
-329.4936
 30
0.0
  0
SPLINE
  5
11B
330
1F
100
AcDbEntity
  8
layer 1
 62
   250
370
     9
100
AcDbSpline
210
0.0
220
0.0
230
1.0
 70
    11
 71
     3
 72
    20
 73
    16
 74
     0
 42
0.0000000001
 43
0.0000000001
 40
0.0
 40
0.0
 40
0.0
 40
0.0
 40
0.25
 40
0.25
 40
0.25
 40
0.25
 40
0.5
 40
0.5
 40
0.5
 40
0.5
 40
0.75
 40
0.75
 40
0.75
 40
0.75
 40
1.0
 40
1.0
 40
1.0
 40
1.0
 10
866.8866
 20
-333.8409
 30
0.0
 10
866.8866
 20
-333.8409
 30
0.0
 10
861.7205
 20
-333.8409
 30
0.0
 10
861.7205
 20
-333.8409
 30
0.0
 10
861.7205
 20
-333.8409
 30
0.0
 10
861.7205
 20
-333.8409
 30
0.0
 10
861.7205
 20
-326.1961
 30
0.0
 10
861.7205
 20
-326.1961
 30
0.0
 10
861.7205
 20
-326.1961
 30
0.0
 10
861.7205
 20
-326.1961
 30
0.0
 10
866.8866
 20
-326.1961
 30
0.0
 10
866.8866
 20
-326.1961
 30
0.0
 10
866.8866
 20
-326.1961
 30
0.0
 10
866.8866
 20
-326.1961
 30
0.0
 10
866.8866
 20
-333.8409
 30
0.0
 10
866.8866
 20
-333.8409
 30
0.0
  0
SPLINE
  5
11C
330
1F
100
AcDbEntity
  8
layer 1
 62
   250
370
     9
100
AcDbSpline
210
0.0
220
0.0
230
1.0
 70
    11
 71
     3
 72
    20
 73
    16
 74
     0
 42
0.0000000001
 43
0.0000000001
 40
0.0
 40
0.0
 40
0.0
 40
0.0
 40
0.25
 40
0.25
 40
0.25
 40
0.25
 40
0.5
 40
0.5
 40
0.5
 40
0.5
 40
0.75
 40
0.75
 40
0.75
 40
0.75
 40
1.0
 40
1.0
 40
1.0
 40
1.0
 10
866.8866
 20
-340.3188
 30
0.0
 10
866.8866
 20
-340.3188
 30
0.0
 10
861.7205
 20
-340.3188
 30
0.0
 10
861.7205
 20
-340.3188
 30
0.0
 10
861.7205
 20
-340.3188
 30
0.0
 10
861.7205
 20
-340.3188
 30
0.0
 10
861.7205
 20
-335.0383
 30
0.0
 10
861.7205
 20
-335.0383
 30
0.0
 10
861.7205
 20
-335.0383
 30
0.0
 10
861.7205
 20
-335.0383
 30
0.0
 10
866.8866
 20
-335.0383
 30
0.0
 10
866.8866
 20
-335.0383
 30
0.0
 10
866.8866
 20
-335.0383
 30
0.0
 10
866.8866
 20
-335.0383
 30
0.0
 10
866.8866
 20
-340.3188
 30
0.0
 10
866.8866
 20
-340.3188
 30
0.0
  0
SPLINE
  5
11D
330
1F
100
AcDbEntity
  8
layer 1
 62
   250
370
     9
100
AcDbSpline
210
0.0
220
0.0
230
1.0
 70
    11
 71
     3
 72
    36
 73
    32
 74
     0
 42
0.0000000001
 43
0.0000000001
 40
0.0
 40
0.0
 40
0.0
 40
0.0
 40
0.125
 40
0.125
 40
0.125
 40
0.125
 40
0.25
 40
0.25
 40
0.25
 40
0.25
 40
0.375
 40
0.375
 40
0.375
 40
0.375
 40
0.5
 40
0.5
 40
0.5
 40
0.5
 40
0.625
 40
0.625
 40
0.625
 40
0.625
 40
0.75
 40
0.75
 40
0.75
 40
0.75
 40
0.875
 40
0.875
 40
0.875
 40
0.875
 40
1.0
 40
1.0
 40
1.0
 40
1.0
 10
866.8866
 20
-343.4777
 30
0.0
 10
865.1166
 20
-343.4881
 30
0.0
 10
863.5326
 20
-344.2211
 30
0.0
 10
863.2679
 20
-345.5717
 30
0.0
 10
863.2679
 20
-345.5717
 30
0.0
 10
861.6479
 20
-345.7765
 30
0.0
 10
860.4862
 20
-347.4242
 30
0.0
 10
860.5206
 20
-349.0204
 30
0.0
 10
860.5206
 20
-349.0204
 30
0.0
 10
860.5206
 20
-349.0204
 30
0.0
 10
856.0617
 20
-349.0204
 30
0.0
 10
856.0617
 20
-349.0204
 30
0.0
 10
856.0617
 20
-349.0204
 30
0.0
 10
856.0617
 20
-349.0204
 30
0.0
 10
856.0617
 20
-347.0617
 30
0.0
 10
856.0617
 20
-347.0617
 30
0.0
 10
856.0617
 20
-347.0617
 30
0.0
 10
857.4671
 20
-347.0629
 30
0.0
 10
859.092
 20
-346.2809
 30
0.0
 10
859.3115
 20
-344.6219
 30
0.0
 10
859.3115
 20
-344.6219
 30
0.0
 10
860.5559
 20
-344.6804
 30
0.0
 10
861.6631
 20
-343.4142
 30
0.0
 10
861.7219
 20
-341.5163
 30
0.0
 10
861.7219
 20
-341.5163
 30
0.0
 10
861.7219
 20
-341.5163
 30
0.0
 10
866.8866
 20
-341.5163
 30
0.0
 10
866.8866
 20
-341.5163
 30
0.0
 10
866.8866
 20
-341.5163
 30
0.0
 10
866.8866
 20
-341.5163
 30
0.0
 10
866.8866
 20
-343.4777
 30
0.0
 10
866.8866
 20
-343.4777
 30
0.0
  0
SPLINE
  5
11E
330
1F
100
AcDbEntity
  8
layer 1
 62
   250
370
     9
100
AcDbSpline
210
0.0
220
0.0
230
1.0
 70
    11
 71
     3
 72
    20
 73
    16
 74
     0
 42
0.0000000001
 43
0.0000000001
 40
0.0
 40
0.0
 40
0.0
 40
0.0
 40
0.25
 40
0.25
 40
0.25
 40
0.25
 40
0.5
 40
0.5
 40
0.5
 40
0.5
 40
0.75
 40
0.75
 40
0.75
 40
0.75
 40
1.0
 40
1.0
 40
1.0
 40
1.0
 10
864.2351
 20
-346.6081
 30
0.0
 10
864.3603
 20
-345.202
 30
0.0
 10
865.6624
 20
-344.744
 30
0.0
 10
866.8866
 20
-344.6558
 30
0.0
 10
866.8866
 20
-344.6558
 30
0.0
 10
866.8866
 20
-344.6558
 30
0.0
 10
866.8866
 20
-349.0204
 30
0.0
 10
866.8866
 20
-349.0204
 30
0.0
 10
866.8866
 20
-349.0204
 30
0.0
 10
866.8866
 20
-349.0204
 30
0.0
 10
861.7142
 20
-349.0204
 30
0.0
 10
861.7142
 20
-349.0204
 30
0.0
 10
861.7142
 20
-349.0204
 30
0.0
 10
861.8292
 20
-347.6733
 30
0.0
 10
862.8489
 20
-346.6417
 30
0.0
 10
864.2351
 20
-346.6081
 30
0.0
  0
SPLINE
  5
11F
330
1F
100
AcDbEntity
  8
layer 1
 62
   250
370
     9
100
AcDbSpline
210
0.0
220
0.0
230
1.0
 70
    11
 71
     3
 72
    20
 73
    16
 74
     0
 42
0.0000000001
 43
0.0000000001
 40
0.0
 40
0.0
 40
0.0
 40
0.0
 40
0.25
 40
0.25
 40
0.25
 40
0.25
 40
0.5
 40
0.5
 40
0.5
 40
0.5
 40
0.75
 40
0.75
 40
0.75
 40
0.75
 40
1.0
 40
1.0
 40
1.0
 40
1.0
 10
866.8866
 20
-357.8275
 30
0.0
 10
866.8866
 20
-357.8275
 30
0.0
 10
861.7205
 20
-357.8275
 30
0.0
 10
861.7205
 20
-357.8275
 30
0.0
 10
861.7205
 20
-357.8275
 30
0.0
 10
861.7205
 20
-357.8275
 30
0.0
 10
861.7205
 20
-350.2179
 30
0.0
 10
861.7205
 20
-350.2179
 30
0.0
 10
861.7205
 20
-350.2179
 30
0.0
 10
861.7205
 20
-350.2179
 30
0.0
 10
866.8866
 20
-350.2179
 30
0.0
 10
866.8866
 20
-350.2179
 30
0.0
 10
866.8866
 20
-350.2179
 30
0.0
 10
866.8866
 20
-350.2179
 30
0.0
 10
866.8866
 20
-357.8275
 30
0.0
 10
866.8866
 20
-357.8275
 30
0.0
  0
SPLINE
  5
120
330
1F
100
AcDbEntity
  8
layer 1
 62
   250
370
     9
100
AcDbSpline
210
0.0
220
0.0
230
1.0
 70
    11
 71
     3
 72
    20
 73
    16
 74
     0
 42
0.0000000001
 43
0.0000000001
 40
0.0
 40
0.0
 40
0.0
 40
0.0
 40
0.25
 40
0.25
 40
0.25
 40
0.25
 40
0.5
 40
0.5
 40
0.5
 40
0.5
 40
0.75
 40
0.75
 40
0.75
 40
0.75
 40
1.0
 40
1.0
 40
1.0
 40
1.0
 10
861.7205
 20
-361.5833
 30
0.0
 10
861.7205
 20
-361.5833
 30
0.0
 10
866.8866
 20
-361.5833
 30
0.0
 10
866.8866
 20
-361.5833
 30
0.0
 10
866.8866
 20
-361.5833
 30
0.0
 10
866.8866
 20
-361.5833
 30
0.0
 10
866.8866
 20
-359.0249
 30
0.0
 10
866.8866
 20
-359.0249
 30
0.0
 10
866.8866
 20
-359.0249
 30
0.0
 10
866.8866
 20
-359.0249
 30
0.0
 10
861.7205
 20
-359.0249
 30
0.0
 10
861.7205
 20
-359.0249
 30
0.0
 10
861.7205
 20
-359.0249
 30
0.0
 10
861.7205
 20
-359.0249
 30
0.0
 10
861.7205
 20
-361.5833
 30
0.0
 10
861.7205
 20
-361.5833
 30
0.0
  0
SPLINE
  5
121
330
1F
100
AcDbEntity
  8
layer 1
 62
   250
370
     9
100
AcDbSpline
210
0.0
220
0.0
230
1.0
 70
    11
 71
     3
 72
    36
 73
    32
 74
     0
 42
0.0000000001
 43
0.0000000001
 40
0.0
 40
0.0
 40
0.0
 40
0.0
 40
0.125
 40
0.125
 40
0.125
 40
0.125
 40
0.25
 40
0.25
 40
0.25
 40
0.25
 40
0.375
 40
0.375
 40
0.375
 40
0.375
 40
0.5
 40
0.5
 40
0.5
 40
0.5
 40
0.625
 40
0.625
 40
0.625
 40
0.625
 40
0.75
 40
0.75
 40
0.75
 40
0.75
 40
0.875
 40
0.875
 40
0.875
 40
0.875
 40
1.0
 40
1.0
 40
1.0
 40
1.0
 10
856.061
 20
-361.5833
 30
0.0
 10
856.061
 20
-361.5833
 30
0.0
 10
860.5232
 20
-361.5833
 30
0.0
 10
860.5232
 20
-361.5833
 30
0.0
 10
860.5232
 20
-361.5833
 30
0.0
 10
860.5232
 20
-361.5833
 30
0.0
 10
860.5232
 20
-359.0257
 30
0.0
 10
860.5232
 20
-359.0257
 30
0.0
 10
860.5232
 20
-359.0257
 30
0.0
 10
858.7431
 20
-358.8434
 30
0.0
 10
857.5684
 20
-358.471
 30
0.0
 10
857.206
 20
-356.6241
 30
0.0
 10
857.206
 20
-356.6241
 30
0.0
 10
855.8487
 20
-356.4951
 30
0.0
 10
854.9216
 20
-355.3752
 30
0.0
 10
854.8629
 20
-353.4804
 30
0.0
 10
854.8629
 20
-353.4804
 30
0.0
 10
854.8629
 20
-353.4804
 30
0.0
 10
850.4031
 20
-353.4804
 30
0.0
 10
850.4031
 20
-353.4804
 30
0.0
 10
850.4031
 20
-353.4804
 30
0.0
 10
850.4031
 20
-353.4804
 30
0.0
 10
850.4031
 20
-355.4333
 30
0.0
 10
850.4031
 20
-355.4333
 30
0.0
 10
850.4031
 20
-355.4333
 30
0.0
 10
852.1439
 20
-355.4707
 30
0.0
 10
853.6126
 20
-356.5079
 30
0.0
 10
853.7954
 20
-358.1696
 30
0.0
 10
853.7954
 20
-358.1696
 30
0.0
 10
855.4453
 20
-358.4242
 30
0.0
 10
856.0846
 20
-359.8661
 30
0.0
 10
856.061
 20
-361.5833
 30
0.0
  0
SPLINE
  5
122
330
1F
100
AcDbEntity
  8
layer 1
 62
   250
370
     9
100
AcDbSpline
210
0.0
220
0.0
230
1.0
 70
    11
 71
     3
 72
    20
 73
    16
 74
     0
 42
0.0000000001
 43
0.0000000001
 40
0.0
 40
0.0
 40
0.0
 40
0.0
 40
0.25
 40
0.25
 40
0.25
 40
0.25
 40
0.5
 40
0.5
 40
0.5
 40
0.5
 40
0.75
 40
0.75
 40
0.75
 40
0.75
 40
1.0
 40
1.0
 40
1.0
 40
1.0
 10
850.4031
 20
-361.5833
 30
0.0
 10
850.4031
 20
-361.5833
 30
0.0
 10
854.8642
 20
-361.5833
 30
0.0
 10
854.8642
 20
-361.5833
 30
0.0
 10
854.8642
 20
-361.5833
 30
0.0
 10
854.8113
 20
-360.3795
 30
0.0
 10
854.0823
 20
-359.0999
 30
0.0
 10
852.7429
 20
-359.0614
 30
0.0
 10
852.7429
 20
-359.0614
 30
0.0
 10
852.6294
 20
-357.6155
 30
0.0
 10
851.849
 20
-356.7577
 30
0.0
 10
850.4031
 20
-356.6103
 30
0.0
 10
850.4031
 20
-356.6103
 30
0.0
 10
850.4031
 20
-356.6103
 30
0.0
 10
850.4031
 20
-361.5833
 30
0.0
 10
850.4031
 20
-361.5833
 30
0.0
  0
SPLINE
  5
123
330
1F
100
AcDbEntity
  8
layer 1
 62
   250
370
     9
100
AcDbSpline
210
0.0
220
0.0
230
1.0
 70
    11
 71
     3
 72
    20
 73
    16
 74
     0
 42
0.0000000001
 43
0.0000000001
 40
0.0
 40
0.0
 40
0.0
 40
0.0
 40
0.25
 40
0.25
 40
0.25
 40
0.25
 40
0.5
 40
0.5
 40
0.5
 40
0.5
 40
0.75
 40
0.75
 40
0.75
 40
0.75
 40
1.0
 40
1.0
 40
1.0
 40
1.0
 10
844.7447
 20
-361.5833
 30
0.0
 10
844.7447
 20
-361.5833
 30
0.0
 10
849.2057
 20
-361.5833
 30
0.0
 10
849.2057
 20
-361.5833
 30
0.0
 10
849.2057
 20
-361.5833
 30
0.0
 10
849.2057
 20
-361.5833
 30
0.0
 10
849.2057
 20
-356.6103
 30
0.0
 10
849.2057
 20
-356.6103
 30
0.0
 10
849.2057
 20
-356.6103
 30
0.0
 10
847.7599
 20
-356.7577
 30
0.0
 10
846.9795
 20
-357.6155
 30
0.0
 10
846.866
 20
-359.0614
 30
0.0
 10
846.866
 20
-359.0614
 30
0.0
 10
845.5267
 20
-359.0999
 30
0.0
 10
844.7976
 20
-360.3793
 30
0.0
 10
844.7447
 20
-361.5833
 30
0.0
  0
SPLINE
  5
124
330
1F
100
AcDbEntity
  8
layer 1
 62
   250
370
     9
100
AcDbSpline
210
0.0
220
0.0
230
1.0
 70
    11
 71
     3
 72
    20
 73
    16
 74
     0
 42
0.0000000001
 43
0.0000000001
 40
0.0
 40
0.0
 40
0.0
 40
0.0
 40
0.25
 40
0.25
 40
0.25
 40
0.25
 40
0.5
 40
0.5
 40
0.5
 40
0.5
 40
0.75
 40
0.75
 40
0.75
 40
0.75
 40
1.0
 40
1.0
 40
1.0
 40
1.0
 10
839.0857
 20
-341.5174
 30
0.0
 10
839.0857
 20
-341.5174
 30
0.0
 10
843.5471
 20
-341.5163
 30
0.0
 10
843.5471
 20
-341.5163
 30
0.0
 10
843.5471
 20
-341.5163
 30
0.0
 10
843.5471
 20
-341.5163
 30
0.0
 10
843.5471
 20
-345.8897
 30
0.0
 10
843.5471
 20
-345.8897
 30
0.0
 10
843.5471
 20
-345.8897
 30
0.0
 10
842.1947
 20
-345.7744
 30
0.0
 10
841.3397
 20
-345.1332
 30
0.0
 10
841.2575
 20
-343.7124
 30
0.0
 10
841.2575
 20
-343.7124
 30
0.0
 10
839.9479
 20
-343.6878
 30
0.0
 10
839.1739
 20
-342.7831
 30
0.0
 10
839.0857
 20
-341.5174
 30
0.0
  0
SPLINE
  5
125
330
1F
100
AcDbEntity
  8
layer 1
 62
   250
370
     9
100
AcDbSpline
210
0.0
220
0.0
230
1.0
 70
    11
 71
     3
 72
    24
 73
    20
 74
     0
 42
0.0000000001
 43
0.0000000001
 40
0.0
 40
0.0
 40
0.0
 40
0.0
 40
0.2
 40
0.2
 40
0.2
 40
0.2
 40
0.4
 40
0.4
 40
0.4
 40
0.4
 40
0.6000000000000001
 40
0.6000000000000001
 40
0.6000000000000001
 40
0.6000000000000001
 40
0.8
 40
0.8
 40
0.8
 40
0.8
 40
1.0
 40
1.0
 40
1.0
 40
1.0
 10
839.0857
 20
-348.9677
 30
0.0
 10
839.0857
 20
-348.9677
 30
0.0
 10
839.0857
 20
-344.0094
 30
0.0
 10
839.0857
 20
-344.0094
 30
0.0
 10
839.0857
 20
-344.0094
 30
0.0
 10
839.417
 20
-344.3892
 30
0.0
 10
839.8248
 20
-344.6316
 30
0.0
 10
840.2753
 20
-344.5972
 30
0.0
 10
840.2753
 20
-344.5972
 30
0.0
 10
840.5819
 20
-346.2791
 30
0.0
 10
841.9342
 20
-346.9778
 30
0.0
 10
843.5471
 20
-347.0617
 30
0.0
 10
843.5471
 20
-347.0617
 30
0.0
 10
843.5471
 20
-347.0617
 30
0.0
 10
843.5471
 20
-349.0204
 30
0.0
 10
843.5471
 20
-349.0204
 30
0.0
 10
843.5471
 20
-349.0204
 30
0.0
 10
843.1748
 20
-349.0204
 30
0.0
 10
839.0894
 20
-349.0494
 30
0.0
 10
839.0857
 20
-348.9677
 30
0.0
  0
SPLINE
  5
126
330
1F
100
AcDbEntity
  8
layer 1
 62
   250
370
     9
100
AcDbSpline
210
0.0
220
0.0
230
1.0
 70
    11
 71
     3
 72
    36
 73
    32
 74
     0
 42
0.0000000001
 43
0.0000000001
 40
0.0
 40
0.0
 40
0.0
 40
0.0
 40
0.125
 40
0.125
 40
0.125
 40
0.125
 40
0.25
 40
0.25
 40
0.25
 40
0.25
 40
0.375
 40
0.375
 40
0.375
 40
0.375
 40
0.5
 40
0.5
 40
0.5
 40
0.5
 40
0.625
 40
0.625
 40
0.625
 40
0.625
 40
0.75
 40
0.75
 40
0.75
 40
0.75
 40
0.875
 40
0.875
 40
0.875
 40
0.875
 40
1.0
 40
1.0
 40
1.0
 40
1.0
 10
839.0857
 20
-361.5833
 30
0.0
 10
839.0857
 20
-361.5833
 30
0.0
 10
843.5476
 20
-361.5833
 30
0.0
 10
843.5476
 20
-361.5833
 30
0.0
 10
843.5476
 20
-361.5833
 30
0.0
 10
843.524
 20
-359.9303
 30
0.0
 10
844.3551
 20
-358.3176
 30
0.0
 10
845.8133
 20
-358.1696
 30
0.0
 10
845.8133
 20
-358.1696
 30
0.0
 10
845.9321
 20
-356.6998
 30
0.0
 10
847.4648
 20
-355.4707
 30
0.0
 10
849.2057
 20
-355.4333
 30
0.0
 10
849.2057
 20
-355.4333
 30
0.0
 10
849.2057
 20
-355.4333
 30
0.0
 10
849.2057
 20
-353.4804
 30
0.0
 10
849.2057
 20
-353.4804
 30
0.0
 10
849.2057
 20
-353.4804
 30
0.0
 10
849.2057
 20
-353.4804
 30
0.0
 10
844.7431
 20
-353.4804
 30
0.0
 10
844.7431
 20
-353.4804
 30
0.0
 10
844.7431
 20
-353.4804
 30
0.0
 10
844.6849
 20
-355.3111
 30
0.0
 10
843.7118
 20
-356.4348
 30
0.0
 10
842.3574
 20
-356.5175
 30
0.0
 10
842.3574
 20
-356.5175
 30
0.0
 10
842.2296
 20
-358.1286
 30
0.0
 10
840.8438
 20
-358.9278
 30
0.0
 10
839.0857
 20
-359.0256
 30
0.0
 10
839.0857
 20
-359.0256
 30
0.0
 10
839.0857
 20
-359.0256
 30
0.0
 10
839.0857
 20
-361.5833
 30
0.0
 10
839.0857
 20
-361.5833
 30
0.0
  0
SPLINE
  5
127
330
1F
100
AcDbEntity
  8
layer 1
 62
   250
370
     9
100
AcDbSpline
210
0.0
220
0.0
230
1.0
 70
    11
 71
     3
 72
    20
 73
    16
 74
     0
 42
0.0000000001
 43
0.0000000001
 40
0.0
 40
0.0
 40
0.0
 40
0.0
 40
0.25
 40
0.25
 40
0.25
 40
0.25
 40
0.5
 40
0.5
 40
0.5
 40
0.5
 40
0.75
 40
0.75
 40
0.75
 40
0.75
 40
1.0
 40
1.0
 40
1.0
 40
1.0
 10
893.5978
 20
-295.5183
 30
0.0
 10
893.7059
 20
-294.0907
 30
0.0
 10
894.5107
 20
-293.4595
 30
0.0
 10
895.8849
 20
-293.3412
 30
0.0
 10
895.8849
 20
-293.3412
 30
0.0
 10
895.8849
 20
-293.3412
 30
0.0
 10
895.8849
 20
-297.7144
 30
0.0
 10
895.8849
 20
-297.7144
 30
0.0
 10
895.8849
 20
-297.7144
 30
0.0
 10
895.8849
 20
-297.7144
 30
0.0
 10
891.4215
 20
-297.7144
 30
0.0
 10
891.4215
 20
-297.7144
 30
0.0
 10
891.4215
 20
-297.7144
 30
0.0
 10
891.5103
 20
-296.4416
 30
0.0
 10
892.2364
 20
-295.5439
 30
0.0
 10
893.5978
 20
-295.5183
 30
0.0
  0
SPLINE
  5
128
330
1F
100
AcDbEntity
  8
layer 1
 62
   250
370
     9
100
AcDbSpline
210
0.0
220
0.0
230
1.0
 70
    11
 71
     3
 72
    20
 73
    16
 74
     0
 42
0.0000000001
 43
0.0000000001
 40
0.0
 40
0.0
 40
0.0
 40
0.0
 40
0.25
 40
0.25
 40
0.25
 40
0.25
 40
0.5
 40
0.5
 40
0.5
 40
0.5
 40
0.75
 40
0.75
 40
0.75
 40
0.75
 40
1.0
 40
1.0
 40
1.0
 40
1.0
 10
891.4235
 20
-300.9769
 30
0.0
 10
891.4235
 20
-300.9769
 30
0.0
 10
891.4235
 20
-298.9119
 30
0.0
 10
891.4235
 20
-298.9119
 30
0.0
 10
891.4235
 20
-298.9119
 30
0.0
 10
891.4235
 20
-298.9119
 30
0.0
 10
895.8849
 20
-298.9119
 30
0.0
 10
895.8849
 20
-298.9119
 30
0.0
 10
895.8849
 20
-298.9119
 30
0.0
 10
895.8849
 20
-298.9119
 30
0.0
 10
895.8849
 20
-300.9769
 30
0.0
 10
895.8849
 20
-300.9769
 30
0.0
 10
895.8849
 20
-300.9769
 30
0.0
 10
895.8849
 20
-300.9769
 30
0.0
 10
891.4235
 20
-300.9769
 30
0.0
 10
891.4235
 20
-300.9769
 30
0.0
  0
SPLINE
  5
129
330
1F
100
AcDbEntity
  8
layer 1
 62
   250
370
     9
100
AcDbSpline
210
0.0
220
0.0
230
1.0
 70
    11
 71
     3
 72
    20
 73
    16
 74
     0
 42
0.0000000001
 43
0.0000000001
 40
0.0
 40
0.0
 40
0.0
 40
0.0
 40
0.25
 40
0.25
 40
0.25
 40
0.25
 40
0.5
 40
0.5
 40
0.5
 40
0.5
 40
0.75
 40
0.75
 40
0.75
 40
0.75
 40
1.0
 40
1.0
 40
1.0
 40
1.0
 10
874.4474
 20
-300.9769
 30
0.0
 10
874.4474
 20
-300.9769
 30
0.0
 10
874.4474
 20
-298.9119
 30
0.0
 10
874.4474
 20
-298.9119
 30
0.0
 10
874.4474
 20
-298.9119
 30
0.0
 10
874.4474
 20
-298.9119
 30
0.0
 10
878.9089
 20
-298.9119
 30
0.0
 10
878.9089
 20
-298.9119
 30
0.0
 10
878.9089
 20
-298.9119
 30
0.0
 10
878.9089
 20
-298.9119
 30
0.0
 10
878.9089
 20
-300.9769
 30
0.0
 10
878.9089
 20
-300.9769
 30
0.0
 10
878.9089
 20
-300.9769
 30
0.0
 10
878.9089
 20
-300.9769
 30
0.0
 10
874.4474
 20
-300.9769
 30
0.0
 10
874.4474
 20
-300.9769
 30
0.0
  0
SPLINE
  5
12A
330
1F
100
AcDbEntity
  8
layer 1
 62
   250
370
     9
100
AcDbSpline
210
0.0
220
0.0
230
1.0
 70
    11
 71
     3
 72
    20
 73
    16
 74
     0
 42
0.0000000001
 43
0.0000000001
 40
0.0
 40
0.0
 40
0.0
 40
0.0
 40
0.25
 40
0.25
 40
0.25
 40
0.25
 40
0.5
 40
0.5
 40
0.5
 40
0.5
 40
0.75
 40
0.75
 40
0.75
 40
0.75
 40
1.0
 40
1.0
 40
1.0
 40
1.0
 10
874.4474
 20
-297.7144
 30
0.0
 10
874.4474
 20
-297.7144
 30
0.0
 10
874.4474
 20
-293.3411
 30
0.0
 10
874.4474
 20
-293.3411
 30
0.0
 10
874.4474
 20
-293.3411
 30
0.0
 10
875.7996
 20
-293.4564
 30
0.0
 10
876.655
 20
-294.0977
 30
0.0
 10
876.7372
 20
-295.5183
 30
0.0
 10
876.7372
 20
-295.5183
 30
0.0
 10
878.1037
 20
-295.5439
 30
0.0
 10
878.8233
 20
-296.4191
 30
0.0
 10
878.9136
 20
-297.7144
 30
0.0
 10
878.9136
 20
-297.7144
 30
0.0
 10
878.9136
 20
-297.7144
 30
0.0
 10
874.4474
 20
-297.7144
 30
0.0
 10
874.4474
 20
-297.7144
 30
0.0
  0
SPLINE
  5
12B
330
1F
100
AcDbEntity
  8
layer 1
 62
   250
370
     9
100
AcDbSpline
210
0.0
220
0.0
230
1.0
 70
    11
 71
     3
 72
    20
 73
    16
 74
     0
 42
0.0000000001
 43
0.0000000001
 40
0.0
 40
0.0
 40
0.0
 40
0.0
 40
0.25
 40
0.25
 40
0.25
 40
0.25
 40
0.5
 40
0.5
 40
0.5
 40
0.5
 40
0.75
 40
0.75
 40
0.75
 40
0.75
 40
1.0
 40
1.0
 40
1.0
 40
1.0
 10
874.4429
 20
-309.6785
 30
0.0
 10
874.533
 20
-308.3833
 30
0.0
 10
875.2521
 20
-307.5081
 30
0.0
 10
876.6192
 20
-307.4824
 30
0.0
 10
876.6192
 20
-307.4824
 30
0.0
 10
876.7274
 20
-306.0533
 30
0.0
 10
877.5332
 20
-305.4225
 30
0.0
 10
878.9089
 20
-305.3051
 30
0.0
 10
878.9089
 20
-305.3051
 30
0.0
 10
878.9089
 20
-305.3051
 30
0.0
 10
878.9089
 20
-309.6785
 30
0.0
 10
878.9089
 20
-309.6785
 30
0.0
 10
878.9089
 20
-309.6785
 30
0.0
 10
878.9089
 20
-309.6785
 30
0.0
 10
874.4429
 20
-309.6785
 30
0.0
 10
874.4429
 20
-309.6785
 30
0.0
  0
SPLINE
  5
12C
330
1F
100
AcDbEntity
  8
layer 1
 62
   250
370
     9
100
AcDbSpline
210
0.0
220
0.0
230
1.0
 70
    11
 71
     3
 72
    20
 73
    16
 74
     0
 42
0.0000000001
 43
0.0000000001
 40
0.0
 40
0.0
 40
0.0
 40
0.0
 40
0.25
 40
0.25
 40
0.25
 40
0.25
 40
0.5
 40
0.5
 40
0.5
 40
0.5
 40
0.75
 40
0.75
 40
0.75
 40
0.75
 40
1.0
 40
1.0
 40
1.0
 40
1.0
 10
885.7649
 20
-304.1339
 30
0.0
 10
885.7649
 20
-304.1339
 30
0.0
 10
885.7649
 20
-298.9119
 30
0.0
 10
885.7649
 20
-298.9119
 30
0.0
 10
885.7649
 20
-298.9119
 30
0.0
 10
885.7649
 20
-298.9119
 30
0.0
 10
890.2261
 20
-298.9119
 30
0.0
 10
890.2261
 20
-298.9119
 30
0.0
 10
890.2261
 20
-298.9119
 30
0.0
 10
890.2261
 20
-298.9119
 30
0.0
 10
890.2261
 20
-304.1339
 30
0.0
 10
890.2261
 20
-304.1339
 30
0.0
 10
890.2261
 20
-304.1339
 30
0.0
 10
890.2261
 20
-304.1339
 30
0.0
 10
885.7649
 20
-304.1339
 30
0.0
 10
885.7649
 20
-304.1339
 30
0.0
  0
SPLINE
  5
12D
330
1F
100
AcDbEntity
  8
layer 1
 62
   250
370
     9
100
AcDbSpline
210
0.0
220
0.0
230
1.0
 70
    11
 71
     3
 72
    20
 73
    16
 74
     0
 42
0.0000000001
 43
0.0000000001
 40
0.0
 40
0.0
 40
0.0
 40
0.0
 40
0.25
 40
0.25
 40
0.25
 40
0.25
 40
0.5
 40
0.5
 40
0.5
 40
0.5
 40
0.75
 40
0.75
 40
0.75
 40
0.75
 40
1.0
 40
1.0
 40
1.0
 40
1.0
 10
885.7649
 20
-312.9995
 30
0.0
 10
885.7649
 20
-312.9995
 30
0.0
 10
885.7649
 20
-305.3314
 30
0.0
 10
885.7649
 20
-305.3314
 30
0.0
 10
885.7649
 20
-305.3314
 30
0.0
 10
885.7649
 20
-305.3314
 30
0.0
 10
890.2261
 20
-305.3314
 30
0.0
 10
890.2261
 20
-305.3314
 30
0.0
 10
890.2261
 20
-305.3314
 30
0.0
 10
890.2261
 20
-305.3314
 30
0.0
 10
890.2261
 20
-312.9995
 30
0.0
 10
890.2261
 20
-312.9995
 30
0.0
 10
890.2261
 20
-312.9995
 30
0.0
 10
890.2261
 20
-312.9995
 30
0.0
 10
885.7649
 20
-312.9995
 30
0.0
 10
885.7649
 20
-312.9995
 30
0.0
  0
SPLINE
  5
12E
330
1F
100
AcDbEntity
  8
layer 1
 62
   250
370
     9
100
AcDbSpline
210
0.0
220
0.0
230
1.0
 70
    11
 71
     3
 72
    20
 73
    16
 74
     0
 42
0.0000000001
 43
0.0000000001
 40
0.0
 40
0.0
 40
0.0
 40
0.0
 40
0.25
 40
0.25
 40
0.25
 40
0.25
 40
0.5
 40
0.5
 40
0.5
 40
0.5
 40
0.75
 40
0.75
 40
0.75
 40
0.75
 40
1.0
 40
1.0
 40
1.0
 40
1.0
 10
884.5675
 20
-305.3314
 30
0.0
 10
884.5675
 20
-305.3314
 30
0.0
 10
884.5675
 20
-312.9995
 30
0.0
 10
884.5675
 20
-312.9995
 30
0.0
 10
884.5675
 20
-312.9995
 30
0.0
 10
884.5675
 20
-312.9995
 30
0.0
 10
880.1062
 20
-312.9995
 30
0.0
 10
880.1062
 20
-312.9995
 30
0.0
 10
880.1062
 20
-312.9995
 30
0.0
 10
880.1062
 20
-312.9995
 30
0.0
 10
880.1062
 20
-305.3314
 30
0.0
 10
880.1062
 20
-305.3314
 30
0.0
 10
880.1062
 20
-305.3314
 30
0.0
 10
880.1062
 20
-305.3314
 30
0.0
 10
884.5675
 20
-305.3314
 30
0.0
 10
884.5675
 20
-305.3314
 30
0.0
  0
SPLINE
  5
12F
330
1F
100
AcDbEntity
  8
layer 1
 62
   250
370
     9
100
AcDbSpline
210
0.0
220
0.0
230
1.0
 70
    11
 71
     3
 72
    20
 73
    16
 74
     0
 42
0.0000000001
 43
0.0000000001
 40
0.0
 40
0.0
 40
0.0
 40
0.0
 40
0.25
 40
0.25
 40
0.25
 40
0.25
 40
0.5
 40
0.5
 40
0.5
 40
0.5
 40
0.75
 40
0.75
 40
0.75
 40
0.75
 40
1.0
 40
1.0
 40
1.0
 40
1.0
 10
884.5675
 20
-298.9119
 30
0.0
 10
884.5675
 20
-298.9119
 30
0.0
 10
884.5675
 20
-304.1339
 30
0.0
 10
884.5675
 20
-304.1339
 30
0.0
 10
884.5675
 20
-304.1339
 30
0.0
 10
884.5675
 20
-304.1339
 30
0.0
 10
880.1062
 20
-304.1339
 30
0.0
 10
880.1062
 20
-304.1339
 30
0.0
 10
880.1062
 20
-304.1339
 30
0.0
 10
880.1062
 20
-304.1339
 30
0.0
 10
880.1062
 20
-298.9119
 30
0.0
 10
880.1062
 20
-298.9119
 30
0.0
 10
880.1062
 20
-298.9119
 30
0.0
 10
880.1062
 20
-298.9119
 30
0.0
 10
884.5675
 20
-298.9119
 30
0.0
 10
884.5675
 20
-298.9119
 30
0.0
  0
SPLINE
  5
130
330
1F
100
AcDbEntity
  8
layer 1
 62
   250
370
     9
100
AcDbSpline
210
0.0
220
0.0
230
1.0
 70
    11
 71
     3
 72
    20
 73
    16
 74
     0
 42
0.0000000001
 43
0.0000000001
 40
0.0
 40
0.0
 40
0.0
 40
0.0
 40
0.25
 40
0.25
 40
0.25
 40
0.25
 40
0.5
 40
0.5
 40
0.5
 40
0.5
 40
0.75
 40
0.75
 40
0.75
 40
0.75
 40
1.0
 40
1.0
 40
1.0
 40
1.0
 10
895.8849
 20
-312.9995
 30
0.0
 10
895.8849
 20
-312.9995
 30
0.0
 10
891.4235
 20
-312.9995
 30
0.0
 10
891.4235
 20
-312.9995
 30
0.0
 10
891.4235
 20
-312.9995
 30
0.0
 10
891.4235
 20
-312.9995
 30
0.0
 10
891.4235
 20
-310.876
 30
0.0
 10
891.4235
 20
-310.876
 30
0.0
 10
891.4235
 20
-310.876
 30
0.0
 10
891.4235
 20
-310.876
 30
0.0
 10
895.8849
 20
-310.876
 30
0.0
 10
895.8849
 20
-310.876
 30
0.0
 10
895.8849
 20
-310.876
 30
0.0
 10
895.8849
 20
-310.876
 30
0.0
 10
895.8849
 20
-312.9995
 30
0.0
 10
895.8849
 20
-312.9995
 30
0.0
  0
SPLINE
  5
131
330
1F
100
AcDbEntity
  8
layer 1
 62
   250
370
     9
100
AcDbSpline
210
0.0
220
0.0
230
1.0
 70
    11
 71
     3
 72
    20
 73
    16
 74
     0
 42
0.0000000001
 43
0.0000000001
 40
0.0
 40
0.0
 40
0.0
 40
0.0
 40
0.25
 40
0.25
 40
0.25
 40
0.25
 40
0.5
 40
0.5
 40
0.5
 40
0.5
 40
0.75
 40
0.75
 40
0.75
 40
0.75
 40
1.0
 40
1.0
 40
1.0
 40
1.0
 10
874.4474
 20
-310.876
 30
0.0
 10
874.4474
 20
-310.876
 30
0.0
 10
878.9089
 20
-310.876
 30
0.0
 10
878.9089
 20
-310.876
 30
0.0
 10
878.9089
 20
-310.876
 30
0.0
 10
878.9089
 20
-310.876
 30
0.0
 10
878.9089
 20
-312.9995
 30
0.0
 10
878.9089
 20
-312.9995
 30
0.0
 10
878.9089
 20
-312.9995
 30
0.0
 10
878.9089
 20
-312.9995
 30
0.0
 10
874.4474
 20
-312.9995
 30
0.0
 10
874.4474
 20
-312.9995
 30
0.0
 10
874.4474
 20
-312.9995
 30
0.0
 10
874.4474
 20
-312.9995
 30
0.0
 10
874.4474
 20
-310.876
 30
0.0
 10
874.4474
 20
-310.876
 30
0.0
  0
SPLINE
  5
132
330
1F
100
AcDbEntity
  8
layer 1
 62
   250
370
     9
100
AcDbSpline
210
0.0
220
0.0
230
1.0
 70
    11
 71
     3
 72
    20
 73
    16
 74
     0
 42
0.0000000001
 43
0.0000000001
 40
0.0
 40
0.0
 40
0.0
 40
0.0
 40
0.25
 40
0.25
 40
0.25
 40
0.25
 40
0.5
 40
0.5
 40
0.5
 40
0.5
 40
0.75
 40
0.75
 40
0.75
 40
0.75
 40
1.0
 40
1.0
 40
1.0
 40
1.0
 10
891.4235
 20
-322.8986
 30
0.0
 10
891.4235
 20
-322.8986
 30
0.0
 10
895.8849
 20
-322.8986
 30
0.0
 10
895.8849
 20
-322.8986
 30
0.0
 10
895.8849
 20
-322.8986
 30
0.0
 10
895.8849
 20
-322.8986
 30
0.0
 10
895.8849
 20
-324.9987
 30
0.0
 10
895.8849
 20
-324.9987
 30
0.0
 10
895.8849
 20
-324.9987
 30
0.0
 10
895.8849
 20
-324.9987
 30
0.0
 10
891.4235
 20
-324.9987
 30
0.0
 10
891.4235
 20
-324.9987
 30
0.0
 10
891.4235
 20
-324.9987
 30
0.0
 10
891.4235
 20
-324.9987
 30
0.0
 10
891.4235
 20
-322.8986
 30
0.0
 10
891.4235
 20
-322.8986
 30
0.0
  0
SPLINE
  5
133
330
1F
100
AcDbEntity
  8
layer 1
 62
   250
370
     9
100
AcDbSpline
210
0.0
220
0.0
230
1.0
 70
    11
 71
     3
 72
    20
 73
    16
 74
     0
 42
0.0000000001
 43
0.0000000001
 40
0.0
 40
0.0
 40
0.0
 40
0.0
 40
0.25
 40
0.25
 40
0.25
 40
0.25
 40
0.5
 40
0.5
 40
0.5
 40
0.5
 40
0.75
 40
0.75
 40
0.75
 40
0.75
 40
1.0
 40
1.0
 40
1.0
 40
1.0
 10
885.7649
 20
-322.8986
 30
0.0
 10
885.7649
 20
-322.8986
 30
0.0
 10
890.2261
 20
-322.8986
 30
0.0
 10
890.2261
 20
-322.8986
 30
0.0
 10
890.2261
 20
-322.8986
 30
0.0
 10
890.2261
 20
-322.8986
 30
0.0
 10
890.2261
 20
-324.9987
 30
0.0
 10
890.2261
 20
-324.9987
 30
0.0
 10
890.2261
 20
-324.9987
 30
0.0
 10
890.2261
 20
-324.9987
 30
0.0
 10
885.7649
 20
-324.9987
 30
0.0
 10
885.7649
 20
-324.9987
 30
0.0
 10
885.7649
 20
-324.9987
 30
0.0
 10
885.7649
 20
-324.9987
 30
0.0
 10
885.7649
 20
-322.8986
 30
0.0
 10
885.7649
 20
-322.8986
 30
0.0
  0
SPLINE
  5
134
330
1F
100
AcDbEntity
  8
layer 1
 62
   250
370
     9
100
AcDbSpline
210
0.0
220
0.0
230
1.0
 70
    11
 71
     3
 72
    20
 73
    16
 74
     0
 42
0.0000000001
 43
0.0000000001
 40
0.0
 40
0.0
 40
0.0
 40
0.0
 40
0.25
 40
0.25
 40
0.25
 40
0.25
 40
0.5
 40
0.5
 40
0.5
 40
0.5
 40
0.75
 40
0.75
 40
0.75
 40
0.75
 40
1.0
 40
1.0
 40
1.0
 40
1.0
 10
878.9089
 20
-322.8986
 30
0.0
 10
878.9089
 20
-322.8986
 30
0.0
 10
878.9089
 20
-324.9987
 30
0.0
 10
878.9089
 20
-324.9987
 30
0.0
 10
878.9089
 20
-324.9987
 30
0.0
 10
878.9089
 20
-324.9987
 30
0.0
 10
874.4474
 20
-324.9987
 30
0.0
 10
874.4474
 20
-324.9987
 30
0.0
 10
874.4474
 20
-324.9987
 30
0.0
 10
874.4474
 20
-324.9987
 30
0.0
 10
874.4474
 20
-322.8986
 30
0.0
 10
874.4474
 20
-322.8986
 30
0.0
 10
874.4474
 20
-322.8986
 30
0.0
 10
874.4474
 20
-322.8986
 30
0.0
 10
878.9089
 20
-322.8986
 30
0.0
 10
878.9089
 20
-322.8986
 30
0.0
  0
SPLINE
  5
135
330
1F
100
AcDbEntity
  8
layer 1
 62
   250
370
     9
100
AcDbSpline
210
0.0
220
0.0
230
1.0
 70
    11
 71
     3
 72
    20
 73
    16
 74
     0
 42
0.0000000001
 43
0.0000000001
 40
0.0
 40
0.0
 40
0.0
 40
0.0
 40
0.25
 40
0.25
 40
0.25
 40
0.25
 40
0.5
 40
0.5
 40
0.5
 40
0.5
 40
0.75
 40
0.75
 40
0.75
 40
0.75
 40
1.0
 40
1.0
 40
1.0
 40
1.0
 10
880.1062
 20
-324.9987
 30
0.0
 10
880.1062
 20
-324.9987
 30
0.0
 10
880.1062
 20
-322.8986
 30
0.0
 10
880.1062
 20
-322.8986
 30
0.0
 10
880.1062
 20
-322.8986
 30
0.0
 10
880.1062
 20
-322.8986
 30
0.0
 10
884.5675
 20
-322.8986
 30
0.0
 10
884.5675
 20
-322.8986
 30
0.0
 10
884.5675
 20
-322.8986
 30
0.0
 10
884.5675
 20
-322.8986
 30
0.0
 10
884.5675
 20
-324.9987
 30
0.0
 10
884.5675
 20
-324.9987
 30
0.0
 10
884.5675
 20
-324.9987
 30
0.0
 10
884.5675
 20
-324.9987
 30
0.0
 10
880.1062
 20
-324.9987
 30
0.0
 10
880.1062
 20
-324.9987
 30
0.0
  0
SPLINE
  5
136
330
1F
100
AcDbEntity
  8
layer 1
 62
   250
370
     9
100
AcDbSpline
210
0.0
220
0.0
230
1.0
 70
    11
 71
     3
 72
    20
 73
    16
 74
     0
 42
0.0000000001
 43
0.0000000001
 40
0.0
 40
0.0
 40
0.0
 40
0.0
 40
0.25
 40
0.25
 40
0.25
 40
0.25
 40
0.5
 40
0.5
 40
0.5
 40
0.5
 40
0.75
 40
0.75
 40
0.75
 40
0.75
 40
1.0
 40
1.0
 40
1.0
 40
1.0
 10
888.0546
 20
-316.393
 30
0.0
 10
887.9471
 20
-317.8157
 30
0.0
 10
887.1446
 20
-318.4523
 30
0.0
 10
885.7649
 20
-318.5704
 30
0.0
 10
885.7649
 20
-318.5704
 30
0.0
 10
885.7649
 20
-318.5704
 30
0.0
 10
885.7649
 20
-314.1969
 30
0.0
 10
885.7649
 20
-314.1969
 30
0.0
 10
885.7649
 20
-314.1969
 30
0.0
 10
885.7649
 20
-314.1969
 30
0.0
 10
890.2311
 20
-314.1969
 30
0.0
 10
890.2311
 20
-314.1969
 30
0.0
 10
890.2311
 20
-314.1969
 30
0.0
 10
890.1423
 20
-315.4695
 30
0.0
 10
889.4161
 20
-316.3675
 30
0.0
 10
888.0546
 20
-316.393
 30
0.0
  0
SPLINE
  5
137
330
1F
100
AcDbEntity
  8
layer 1
 62
   250
370
     9
100
AcDbSpline
210
0.0
220
0.0
230
1.0
 70
    11
 71
     3
 72
    20
 73
    16
 74
     0
 42
0.0000000001
 43
0.0000000001
 40
0.0
 40
0.0
 40
0.0
 40
0.0
 40
0.25
 40
0.25
 40
0.25
 40
0.25
 40
0.5
 40
0.5
 40
0.5
 40
0.5
 40
0.75
 40
0.75
 40
0.75
 40
0.75
 40
1.0
 40
1.0
 40
1.0
 40
1.0
 10
884.5675
 20
-314.1969
 30
0.0
 10
884.5675
 20
-314.1969
 30
0.0
 10
884.5675
 20
-318.5704
 30
0.0
 10
884.5675
 20
-318.5704
 30
0.0
 10
884.5675
 20
-318.5704
 30
0.0
 10
883.2149
 20
-318.4546
 30
0.0
 10
882.3604
 20
-317.814
 30
0.0
 10
882.2778
 20
-316.393
 30
0.0
 10
882.2778
 20
-316.393
 30
0.0
 10
880.9113
 20
-316.3674
 30
0.0
 10
880.1918
 20
-315.4922
 30
0.0
 10
880.1014
 20
-314.1969
 30
0.0
 10
880.1014
 20
-314.1969
 30
0.0
 10
880.1014
 20
-314.1969
 30
0.0
 10
884.5675
 20
-314.1969
 30
0.0
 10
884.5675
 20
-314.1969
 30
0.0
  0
SPLINE
  5
138
330
1F
100
AcDbEntity
  8
layer 1
 62
   250
370
     9
100
AcDbSpline
210
0.0
220
0.0
230
1.0
 70
    11
 71
     3
 72
    36
 73
    32
 74
     0
 42
0.0000000001
 43
0.0000000001
 40
0.0
 40
0.0
 40
0.0
 40
0.0
 40
0.125
 40
0.125
 40
0.125
 40
0.125
 40
0.25
 40
0.25
 40
0.25
 40
0.25
 40
0.375
 40
0.375
 40
0.375
 40
0.375
 40
0.5
 40
0.5
 40
0.5
 40
0.5
 40
0.625
 40
0.625
 40
0.625
 40
0.625
 40
0.75
 40
0.75
 40
0.75
 40
0.75
 40
0.875
 40
0.875
 40
0.875
 40
0.875
 40
1.0
 40
1.0
 40
1.0
 40
1.0
 10
885.7649
 20
-319.7422
 30
0.0
 10
887.6061
 20
-319.7067
 30
0.0
 10
889.2206
 20
-318.6483
 30
0.0
 10
889.14
 20
-317.2912
 30
0.0
 10
889.14
 20
-317.2912
 30
0.0
 10
890.7416
 20
-317.0455
 30
0.0
 10
891.428
 20
-315.6217
 30
0.0
 10
891.425
 20
-314.1969
 30
0.0
 10
891.425
 20
-314.1969
 30
0.0
 10
891.425
 20
-314.1969
 30
0.0
 10
895.8849
 20
-314.1969
 30
0.0
 10
895.8849
 20
-314.1969
 30
0.0
 10
895.8849
 20
-314.1969
 30
0.0
 10
895.8849
 20
-314.1969
 30
0.0
 10
895.8849
 20
-316.1559
 30
0.0
 10
895.8849
 20
-316.1559
 30
0.0
 10
895.8849
 20
-316.1559
 30
0.0
 10
894.2495
 20
-316.2324
 30
0.0
 10
892.9228
 20
-316.8176
 30
0.0
 10
892.5716
 20
-318.6684
 30
0.0
 10
892.5716
 20
-318.6684
 30
0.0
 10
891.2784
 20
-318.6465
 30
0.0
 10
890.3246
 20
-319.7415
 30
0.0
 10
890.2247
 20
-321.7013
 30
0.0
 10
890.2247
 20
-321.7013
 30
0.0
 10
890.2247
 20
-321.7013
 30
0.0
 10
885.7649
 20
-321.7013
 30
0.0
 10
885.7649
 20
-321.7013
 30
0.0
 10
885.7649
 20
-321.7013
 30
0.0
 10
885.7649
 20
-321.7013
 30
0.0
 10
885.7649
 20
-319.7422
 30
0.0
 10
885.7649
 20
-319.7422
 30
0.0
  0
SPLINE
  5
139
330
1F
100
AcDbEntity
  8
layer 1
 62
   250
370
     9
100
AcDbSpline
210
0.0
220
0.0
230
1.0
 70
    11
 71
     3
 72
    20
 73
    16
 74
     0
 42
0.0000000001
 43
0.0000000001
 40
0.0
 40
0.0
 40
0.0
 40
0.0
 40
0.25
 40
0.25
 40
0.25
 40
0.25
 40
0.5
 40
0.5
 40
0.5
 40
0.5
 40
0.75
 40
0.75
 40
0.75
 40
0.75
 40
1.0
 40
1.0
 40
1.0
 40
1.0
 10
893.5952
 20
-319.5049
 30
0.0
 10
893.7034
 20
-318.0759
 30
0.0
 10
894.5093
 20
-317.445
 30
0.0
 10
895.8849
 20
-317.3278
 30
0.0
 10
895.8849
 20
-317.3278
 30
0.0
 10
895.8849
 20
-317.3278
 30
0.0
 10
895.8849
 20
-321.7013
 30
0.0
 10
895.8849
 20
-321.7013
 30
0.0
 10
895.8849
 20
-321.7013
 30
0.0
 10
895.8849
 20
-321.7013
 30
0.0
 10
891.4189
 20
-321.7013
 30
0.0
 10
891.4189
 20
-321.7013
 30
0.0
 10
891.4189
 20
-321.7013
 30
0.0
 10
891.5075
 20
-320.4284
 30
0.0
 10
892.2336
 20
-319.5304
 30
0.0
 10
893.5952
 20
-319.5049
 30
0.0
  0
SPLINE
  5
13A
330
1F
100
AcDbEntity
  8
layer 1
 62
   250
370
     9
100
AcDbSpline
210
0.0
220
0.0
230
1.0
 70
    11
 71
     3
 72
    36
 73
    32
 74
     0
 42
0.0000000001
 43
0.0000000001
 40
0.0
 40
0.0
 40
0.0
 40
0.0
 40
0.125
 40
0.125
 40
0.125
 40
0.125
 40
0.25
 40
0.25
 40
0.25
 40
0.25
 40
0.375
 40
0.375
 40
0.375
 40
0.375
 40
0.5
 40
0.5
 40
0.5
 40
0.5
 40
0.625
 40
0.625
 40
0.625
 40
0.625
 40
0.75
 40
0.75
 40
0.75
 40
0.75
 40
0.875
 40
0.875
 40
0.875
 40
0.875
 40
1.0
 40
1.0
 40
1.0
 40
1.0
 10
877.7913
 20
-318.475
 30
0.0
 10
877.6664
 20
-317.2341
 30
0.0
 10
876.654
 20
-316.2247
 30
0.0
 10
874.4474
 20
-316.1559
 30
0.0
 10
874.4474
 20
-316.1559
 30
0.0
 10
874.4474
 20
-316.1559
 30
0.0
 10
874.4474
 20
-314.1969
 30
0.0
 10
874.4474
 20
-314.1969
 30
0.0
 10
874.4474
 20
-314.1969
 30
0.0
 10
874.4474
 20
-314.1969
 30
0.0
 10
878.9073
 20
-314.1969
 30
0.0
 10
878.9073
 20
-314.1969
 30
0.0
 10
878.9073
 20
-314.1969
 30
0.0
 10
878.9472
 20
-316.4459
 30
0.0
 10
880.2275
 20
-317.3093
 30
0.0
 10
881.2493
 20
-317.3755
 30
0.0
 10
881.2493
 20
-317.3755
 30
0.0
 10
881.2771
 20
-318.3413
 30
0.0
 10
882.2448
 20
-319.5201
 30
0.0
 10
884.5675
 20
-319.7422
 30
0.0
 10
884.5675
 20
-319.7422
 30
0.0
 10
884.5675
 20
-319.7422
 30
0.0
 10
884.5675
 20
-321.7013
 30
0.0
 10
884.5675
 20
-321.7013
 30
0.0
 10
884.5675
 20
-321.7013
 30
0.0
 10
884.5675
 20
-321.7013
 30
0.0
 10
880.1077
 20
-321.7013
 30
0.0
 10
880.1077
 20
-321.7013
 30
0.0
 10
880.1077
 20
-321.7013
 30
0.0
 10
880.0293
 20
-319.6986
 30
0.0
 10
879.0234
 20
-318.6631
 30
0.0
 10
877.7913
 20
-318.475
 30
0.0
  0
SPLINE
  5
13B
330
1F
100
AcDbEntity
  8
layer 1
 62
   250
370
     9
100
AcDbSpline
210
0.0
220
0.0
230
1.0
 70
    11
 71
     3
 72
    20
 73
    16
 74
     0
 42
0.0000000001
 43
0.0000000001
 40
0.0
 40
0.0
 40
0.0
 40
0.0
 40
0.25
 40
0.25
 40
0.25
 40
0.25
 40
0.5
 40
0.5
 40
0.5
 40
0.5
 40
0.75
 40
0.75
 40
0.75
 40
0.75
 40
1.0
 40
1.0
 40
1.0
 40
1.0
 10
874.4474
 20
-321.7013
 30
0.0
 10
874.4474
 20
-321.7013
 30
0.0
 10
874.4474
 20
-317.3278
 30
0.0
 10
874.4474
 20
-317.3278
 30
0.0
 10
874.4474
 20
-317.3278
 30
0.0
 10
875.7996
 20
-317.443
 30
0.0
 10
876.655
 20
-318.0843
 30
0.0
 10
876.7372
 20
-319.5049
 30
0.0
 10
876.7372
 20
-319.5049
 30
0.0
 10
878.1038
 20
-319.5305
 30
0.0
 10
878.8232
 20
-320.4059
 30
0.0
 10
878.9136
 20
-321.7013
 30
0.0
 10
878.9136
 20
-321.7013
 30
0.0
 10
878.9136
 20
-321.7013
 30
0.0
 10
874.4474
 20
-321.7013
 30
0.0
 10
874.4474
 20
-321.7013
 30
0.0
  0
SPLINE
  5
13C
330
1F
100
AcDbEntity
  8
layer 1
 62
   250
370
     9
100
AcDbSpline
210
0.0
220
0.0
230
1.0
 70
    11
 71
     3
 72
    20
 73
    16
 74
     0
 42
0.0000000001
 43
0.0000000001
 40
0.0
 40
0.0
 40
0.0
 40
0.0
 40
0.25
 40
0.25
 40
0.25
 40
0.25
 40
0.5
 40
0.5
 40
0.5
 40
0.5
 40
0.75
 40
0.75
 40
0.75
 40
0.75
 40
1.0
 40
1.0
 40
1.0
 40
1.0
 10
868.084
 20
-317.3539
 30
0.0
 10
868.084
 20
-317.3539
 30
0.0
 10
873.2501
 20
-317.3539
 30
0.0
 10
873.2501
 20
-317.3539
 30
0.0
 10
873.2501
 20
-317.3539
 30
0.0
 10
873.2501
 20
-317.3539
 30
0.0
 10
873.2501
 20
-324.9987
 30
0.0
 10
873.2501
 20
-324.9987
 30
0.0
 10
873.2501
 20
-324.9987
 30
0.0
 10
873.2501
 20
-324.9987
 30
0.0
 10
868.084
 20
-324.9987
 30
0.0
 10
868.084
 20
-324.9987
 30
0.0
 10
868.084
 20
-324.9987
 30
0.0
 10
868.084
 20
-324.9987
 30
0.0
 10
868.084
 20
-317.3539
 30
0.0
 10
868.084
 20
-317.3539
 30
0.0
  0
SPLINE
  5
13D
330
1F
100
AcDbEntity
  8
layer 1
 62
   250
370
     9
100
AcDbSpline
210
0.0
220
0.0
230
1.0
 70
    11
 71
     3
 72
    20
 73
    16
 74
     0
 42
0.0000000001
 43
0.0000000001
 40
0.0
 40
0.0
 40
0.0
 40
0.0
 40
0.25
 40
0.25
 40
0.25
 40
0.25
 40
0.5
 40
0.5
 40
0.5
 40
0.5
 40
0.75
 40
0.75
 40
0.75
 40
0.75
 40
1.0
 40
1.0
 40
1.0
 40
1.0
 10
868.084
 20
-310.876
 30
0.0
 10
868.084
 20
-310.876
 30
0.0
 10
873.2501
 20
-310.876
 30
0.0
 10
873.2501
 20
-310.876
 30
0.0
 10
873.2501
 20
-310.876
 30
0.0
 10
873.2501
 20
-310.876
 30
0.0
 10
873.2501
 20
-316.1565
 30
0.0
 10
873.2501
 20
-316.1565
 30
0.0
 10
873.2501
 20
-316.1565
 30
0.0
 10
873.2501
 20
-316.1565
 30
0.0
 10
868.084
 20
-316.1565
 30
0.0
 10
868.084
 20
-316.1565
 30
0.0
 10
868.084
 20
-316.1565
 30
0.0
 10
868.084
 20
-316.1565
 30
0.0
 10
868.084
 20
-310.876
 30
0.0
 10
868.084
 20
-310.876
 30
0.0
  0
SPLINE
  5
13E
330
1F
100
AcDbEntity
  8
layer 1
 62
   250
370
     9
100
AcDbSpline
210
0.0
220
0.0
230
1.0
 70
    11
 71
     3
 72
    36
 73
    32
 74
     0
 42
0.0000000001
 43
0.0000000001
 40
0.0
 40
0.0
 40
0.0
 40
0.0
 40
0.125
 40
0.125
 40
0.125
 40
0.125
 40
0.25
 40
0.25
 40
0.25
 40
0.25
 40
0.375
 40
0.375
 40
0.375
 40
0.375
 40
0.5
 40
0.5
 40
0.5
 40
0.5
 40
0.625
 40
0.625
 40
0.625
 40
0.625
 40
0.75
 40
0.75
 40
0.75
 40
0.75
 40
0.875
 40
0.875
 40
0.875
 40
0.875
 40
1.0
 40
1.0
 40
1.0
 40
1.0
 10
868.084
 20
-307.7171
 30
0.0
 10
869.854
 20
-307.7067
 30
0.0
 10
871.438
 20
-306.9737
 30
0.0
 10
871.7027
 20
-305.6231
 30
0.0
 10
871.7027
 20
-305.6231
 30
0.0
 10
873.3227
 20
-305.4183
 30
0.0
 10
874.4844
 20
-303.7706
 30
0.0
 10
874.45
 20
-302.1744
 30
0.0
 10
874.45
 20
-302.1744
 30
0.0
 10
874.45
 20
-302.1744
 30
0.0
 10
878.9089
 20
-302.1744
 30
0.0
 10
878.9089
 20
-302.1744
 30
0.0
 10
878.9089
 20
-302.1744
 30
0.0
 10
878.9089
 20
-302.1744
 30
0.0
 10
878.9089
 20
-304.1331
 30
0.0
 10
878.9089
 20
-304.1331
 30
0.0
 10
878.9089
 20
-304.1331
 30
0.0
 10
877.5035
 20
-304.132
 30
0.0
 10
875.8786
 20
-304.914
 30
0.0
 10
875.6591
 20
-306.5729
 30
0.0
 10
875.6591
 20
-306.5729
 30
0.0
 10
874.4147
 20
-306.5145
 30
0.0
 10
873.3075
 20
-307.7807
 30
0.0
 10
873.2487
 20
-309.6785
 30
0.0
 10
873.2487
 20
-309.6785
 30
0.0
 10
873.2487
 20
-309.6785
 30
0.0
 10
868.084
 20
-309.6785
 30
0.0
 10
868.084
 20
-309.6785
 30
0.0
 10
868.084
 20
-309.6785
 30
0.0
 10
868.084
 20
-309.6785
 30
0.0
 10
868.084
 20
-307.7171
 30
0.0
 10
868.084
 20
-307.7171
 30
0.0
  0
SPLINE
  5
13F
330
1F
100
AcDbEntity
  8
layer 1
 62
   250
370
     9
100
AcDbSpline
210
0.0
220
0.0
230
1.0
 70
    11
 71
     3
 72
    20
 73
    16
 74
     0
 42
0.0000000001
 43
0.0000000001
 40
0.0
 40
0.0
 40
0.0
 40
0.0
 40
0.25
 40
0.25
 40
0.25
 40
0.25
 40
0.5
 40
0.5
 40
0.5
 40
0.5
 40
0.75
 40
0.75
 40
0.75
 40
0.75
 40
1.0
 40
1.0
 40
1.0
 40
1.0
 10
870.7355
 20
-304.5867
 30
0.0
 10
870.6103
 20
-305.9928
 30
0.0
 10
869.3082
 20
-306.4508
 30
0.0
 10
868.084
 20
-306.539
 30
0.0
 10
868.084
 20
-306.539
 30
0.0
 10
868.084
 20
-306.539
 30
0.0
 10
868.084
 20
-302.1744
 30
0.0
 10
868.084
 20
-302.1744
 30
0.0
 10
868.084
 20
-302.1744
 30
0.0
 10
868.084
 20
-302.1744
 30
0.0
 10
873.2564
 20
-302.1744
 30
0.0
 10
873.2564
 20
-302.1744
 30
0.0
 10
873.2564
 20
-302.1744
 30
0.0
 10
873.1413
 20
-303.5215
 30
0.0
 10
872.1217
 20
-304.5531
 30
0.0
 10
870.7355
 20
-304.5867
 30
0.0
  0
SPLINE
  5
140
330
1F
100
AcDbEntity
  8
layer 1
 62
   250
370
     9
100
AcDbSpline
210
0.0
220
0.0
230
1.0
 70
    11
 71
     3
 72
    20
 73
    16
 74
     0
 42
0.0000000001
 43
0.0000000001
 40
0.0
 40
0.0
 40
0.0
 40
0.0
 40
0.25
 40
0.25
 40
0.25
 40
0.25
 40
0.5
 40
0.5
 40
0.5
 40
0.5
 40
0.75
 40
0.75
 40
0.75
 40
0.75
 40
1.0
 40
1.0
 40
1.0
 40
1.0
 10
868.084
 20
-293.3674
 30
0.0
 10
868.084
 20
-293.3674
 30
0.0
 10
873.2501
 20
-293.3674
 30
0.0
 10
873.2501
 20
-293.3674
 30
0.0
 10
873.2501
 20
-293.3674
 30
0.0
 10
873.2501
 20
-293.3674
 30
0.0
 10
873.2501
 20
-300.9769
 30
0.0
 10
873.2501
 20
-300.9769
 30
0.0
 10
873.2501
 20
-300.9769
 30
0.0
 10
873.2501
 20
-300.9769
 30
0.0
 10
868.084
 20
-300.9769
 30
0.0
 10
868.084
 20
-300.9769
 30
0.0
 10
868.084
 20
-300.9769
 30
0.0
 10
868.084
 20
-300.9769
 30
0.0
 10
868.084
 20
-293.3674
 30
0.0
 10
868.084
 20
-293.3674
 30
0.0
  0
SPLINE
  5
141
330
1F
100
AcDbEntity
  8
layer 1
 62
   250
370
     9
100
AcDbSpline
210
0.0
220
0.0
230
1.0
 70
    11
 71
     3
 72
    20
 73
    16
 74
     0
 42
0.0000000001
 43
0.0000000001
 40
0.0
 40
0.0
 40
0.0
 40
0.0
 40
0.25
 40
0.25
 40
0.25
 40
0.25
 40
0.5
 40
0.5
 40
0.5
 40
0.5
 40
0.75
 40
0.75
 40
0.75
 40
0.75
 40
1.0
 40
1.0
 40
1.0
 40
1.0
 10
873.2501
 20
-289.6116
 30
0.0
 10
873.2501
 20
-289.6116
 30
0.0
 10
868.084
 20
-289.6116
 30
0.0
 10
868.084
 20
-289.6116
 30
0.0
 10
868.084
 20
-289.6116
 30
0.0
 10
868.084
 20
-289.6116
 30
0.0
 10
868.084
 20
-292.1699
 30
0.0
 10
868.084
 20
-292.1699
 30
0.0
 10
868.084
 20
-292.1699
 30
0.0
 10
868.084
 20
-292.1699
 30
0.0
 10
873.2501
 20
-292.1699
 30
0.0
 10
873.2501
 20
-292.1699
 30
0.0
 10
873.2501
 20
-292.1699
 30
0.0
 10
873.2501
 20
-292.1699
 30
0.0
 10
873.2501
 20
-289.6116
 30
0.0
 10
873.2501
 20
-289.6116
 30
0.0
  0
SPLINE
  5
142
330
1F
100
AcDbEntity
  8
layer 1
 62
   250
370
     9
100
AcDbSpline
210
0.0
220
0.0
230
1.0
 70
    11
 71
     3
 72
    36
 73
    32
 74
     0
 42
0.0000000001
 43
0.0000000001
 40
0.0
 40
0.0
 40
0.0
 40
0.0
 40
0.125
 40
0.125
 40
0.125
 40
0.125
 40
0.25
 40
0.25
 40
0.25
 40
0.25
 40
0.375
 40
0.375
 40
0.375
 40
0.375
 40
0.5
 40
0.5
 40
0.5
 40
0.5
 40
0.625
 40
0.625
 40
0.625
 40
0.625
 40
0.75
 40
0.75
 40
0.75
 40
0.75
 40
0.875
 40
0.875
 40
0.875
 40
0.875
 40
1.0
 40
1.0
 40
1.0
 40
1.0
 10
878.9096
 20
-289.6116
 30
0.0
 10
878.9096
 20
-289.6116
 30
0.0
 10
874.4474
 20
-289.6116
 30
0.0
 10
874.4474
 20
-289.6116
 30
0.0
 10
874.4474
 20
-289.6116
 30
0.0
 10
874.4474
 20
-289.6116
 30
0.0
 10
874.4474
 20
-292.1691
 30
0.0
 10
874.4474
 20
-292.1691
 30
0.0
 10
874.4474
 20
-292.1691
 30
0.0
 10
876.2275
 20
-292.3514
 30
0.0
 10
877.4022
 20
-292.7238
 30
0.0
 10
877.7646
 20
-294.5708
 30
0.0
 10
877.7646
 20
-294.5708
 30
0.0
 10
879.1219
 20
-294.6997
 30
0.0
 10
880.049
 20
-295.8196
 30
0.0
 10
880.1077
 20
-297.7144
 30
0.0
 10
880.1077
 20
-297.7144
 30
0.0
 10
880.1077
 20
-297.7144
 30
0.0
 10
884.5675
 20
-297.7144
 30
0.0
 10
884.5675
 20
-297.7144
 30
0.0
 10
884.5675
 20
-297.7144
 30
0.0
 10
884.5675
 20
-297.7144
 30
0.0
 10
884.5675
 20
-295.7616
 30
0.0
 10
884.5675
 20
-295.7616
 30
0.0
 10
884.5675
 20
-295.7616
 30
0.0
 10
882.8267
 20
-295.7242
 30
0.0
 10
881.358
 20
-294.687
 30
0.0
 10
881.1752
 20
-293.0252
 30
0.0
 10
881.1752
 20
-293.0252
 30
0.0
 10
879.5253
 20
-292.7706
 30
0.0
 10
878.886
 20
-291.3287
 30
0.0
 10
878.9096
 20
-289.6116
 30
0.0
  0
SPLINE
  5
143
330
1F
100
AcDbEntity
  8
layer 1
 62
   250
370
     9
100
AcDbSpline
210
0.0
220
0.0
230
1.0
 70
    11
 71
     3
 72
    20
 73
    16
 74
     0
 42
0.0000000001
 43
0.0000000001
 40
0.0
 40
0.0
 40
0.0
 40
0.0
 40
0.25
 40
0.25
 40
0.25
 40
0.25
 40
0.5
 40
0.5
 40
0.5
 40
0.5
 40
0.75
 40
0.75
 40
0.75
 40
0.75
 40
1.0
 40
1.0
 40
1.0
 40
1.0
 10
884.5675
 20
-289.6116
 30
0.0
 10
884.5675
 20
-289.6116
 30
0.0
 10
880.1064
 20
-289.6116
 30
0.0
 10
880.1064
 20
-289.6116
 30
0.0
 10
880.1064
 20
-289.6116
 30
0.0
 10
880.1593
 20
-290.8153
 30
0.0
 10
880.8882
 20
-292.0949
 30
0.0
 10
882.2277
 20
-292.1334
 30
0.0
 10
882.2277
 20
-292.1334
 30
0.0
 10
882.3412
 20
-293.5793
 30
0.0
 10
883.1216
 20
-294.4371
 30
0.0
 10
884.5675
 20
-294.5845
 30
0.0
 10
884.5675
 20
-294.5845
 30
0.0
 10
884.5675
 20
-294.5845
 30
0.0
 10
884.5675
 20
-289.6116
 30
0.0
 10
884.5675
 20
-289.6116
 30
0.0
  0
SPLINE
  5
144
330
1F
100
AcDbEntity
  8
layer 1
 62
   250
370
     9
100
AcDbSpline
210
0.0
220
0.0
230
1.0
 70
    11
 71
     3
 72
    20
 73
    16
 74
     0
 42
0.0000000001
 43
0.0000000001
 40
0.0
 40
0.0
 40
0.0
 40
0.0
 40
0.25
 40
0.25
 40
0.25
 40
0.25
 40
0.5
 40
0.5
 40
0.5
 40
0.5
 40
0.75
 40
0.75
 40
0.75
 40
0.75
 40
1.0
 40
1.0
 40
1.0
 40
1.0
 10
890.2259
 20
-289.6116
 30
0.0
 10
890.2259
 20
-289.6116
 30
0.0
 10
885.7649
 20
-289.6116
 30
0.0
 10
885.7649
 20
-289.6116
 30
0.0
 10
885.7649
 20
-289.6116
 30
0.0
 10
885.7649
 20
-289.6116
 30
0.0
 10
885.7649
 20
-294.5845
 30
0.0
 10
885.7649
 20
-294.5845
 30
0.0
 10
885.7649
 20
-294.5845
 30
0.0
 10
887.2107
 20
-294.4371
 30
0.0
 10
887.9911
 20
-293.5793
 30
0.0
 10
888.1046
 20
-292.1334
 30
0.0
 10
888.1046
 20
-292.1334
 30
0.0
 10
889.4439
 20
-292.0949
 30
0.0
 10
890.173
 20
-290.8155
 30
0.0
 10
890.2259
 20
-289.6116
 30
0.0
  0
SPLINE
  5
145
330
1F
100
AcDbEntity
  8
layer 1
 62
   250
370
     9
100
AcDbSpline
210
0.0
220
0.0
230
1.0
 70
    11
 71
     3
 72
    20
 73
    16
 74
     0
 42
0.0000000001
 43
0.0000000001
 40
0.0
 40
0.0
 40
0.0
 40
0.0
 40
0.25
 40
0.25
 40
0.25
 40
0.25
 40
0.5
 40
0.5
 40
0.5
 40
0.5
 40
0.75
 40
0.75
 40
0.75
 40
0.75
 40
1.0
 40
1.0
 40
1.0
 40
1.0
 10
895.8849
 20
-309.6774
 30
0.0
 10
895.8849
 20
-309.6774
 30
0.0
 10
891.4235
 20
-309.6785
 30
0.0
 10
891.4235
 20
-309.6785
 30
0.0
 10
891.4235
 20
-309.6785
 30
0.0
 10
891.4235
 20
-309.6785
 30
0.0
 10
891.4235
 20
-305.3051
 30
0.0
 10
891.4235
 20
-305.3051
 30
0.0
 10
891.4235
 20
-305.3051
 30
0.0
 10
892.7759
 20
-305.4204
 30
0.0
 10
893.6309
 20
-306.0616
 30
0.0
 10
893.7131
 20
-307.4824
 30
0.0
 10
893.7131
 20
-307.4824
 30
0.0
 10
895.0227
 20
-307.507
 30
0.0
 10
895.7967
 20
-308.4118
 30
0.0
 10
895.8849
 20
-309.6774
 30
0.0
  0
SPLINE
  5
146
330
1F
100
AcDbEntity
  8
layer 1
 62
   250
370
     9
100
AcDbSpline
210
0.0
220
0.0
230
1.0
 70
    11
 71
     3
 72
    24
 73
    20
 74
     0
 42
0.0000000001
 43
0.0000000001
 40
0.0
 40
0.0
 40
0.0
 40
0.0
 40
0.2
 40
0.2
 40
0.2
 40
0.2
 40
0.4
 40
0.4
 40
0.4
 40
0.4
 40
0.6000000000000001
 40
0.6000000000000001
 40
0.6000000000000001
 40
0.6000000000000001
 40
0.8
 40
0.8
 40
0.8
 40
0.8
 40
1.0
 40
1.0
 40
1.0
 40
1.0
 10
895.8849
 20
-302.2271
 30
0.0
 10
895.8849
 20
-302.2271
 30
0.0
 10
895.8849
 20
-307.1854
 30
0.0
 10
895.8849
 20
-307.1854
 30
0.0
 10
895.8849
 20
-307.1854
 30
0.0
 10
895.5536
 20
-306.8056
 30
0.0
 10
895.1458
 20
-306.5632
 30
0.0
 10
894.6953
 20
-306.5976
 30
0.0
 10
894.6953
 20
-306.5976
 30
0.0
 10
894.3887
 20
-304.9157
 30
0.0
 10
893.0364
 20
-304.217
 30
0.0
 10
891.4235
 20
-304.1331
 30
0.0
 10
891.4235
 20
-304.1331
 30
0.0
 10
891.4235
 20
-304.1331
 30
0.0
 10
891.4235
 20
-302.1744
 30
0.0
 10
891.4235
 20
-302.1744
 30
0.0
 10
891.4235
 20
-302.1744
 30
0.0
 10
891.7958
 20
-302.1744
 30
0.0
 10
895.8812
 20
-302.1454
 30
0.0
 10
895.8849
 20
-302.2271
 30
0.0
  0
SPLINE
  5
147
330
1F
100
AcDbEntity
  8
layer 1
 62
   250
370
     9
100
AcDbSpline
210
0.0
220
0.0
230
1.0
 70
    11
 71
     3
 72
    36
 73
    32
 74
     0
 42
0.0000000001
 43
0.0000000001
 40
0.0
 40
0.0
 40
0.0
 40
0.0
 40
0.125
 40
0.125
 40
0.125
 40
0.125
 40
0.25
 40
0.25
 40
0.25
 40
0.25
 40
0.375
 40
0.375
 40
0.375
 40
0.375
 40
0.5
 40
0.5
 40
0.5
 40
0.5
 40
0.625
 40
0.625
 40
0.625
 40
0.625
 40
0.75
 40
0.75
 40
0.75
 40
0.75
 40
0.875
 40
0.875
 40
0.875
 40
0.875
 40
1.0
 40
1.0
 40
1.0
 40
1.0
 10
895.8849
 20
-289.6116
 30
0.0
 10
895.8849
 20
-289.6116
 30
0.0
 10
891.423
 20
-289.6116
 30
0.0
 10
891.423
 20
-289.6116
 30
0.0
 10
891.423
 20
-289.6116
 30
0.0
 10
891.4466
 20
-291.2645
 30
0.0
 10
890.6155
 20
-292.8772
 30
0.0
 10
889.1573
 20
-293.0252
 30
0.0
 10
889.1573
 20
-293.0252
 30
0.0
 10
889.0385
 20
-294.4951
 30
0.0
 10
887.5058
 20
-295.7242
 30
0.0
 10
885.7649
 20
-295.7616
 30
0.0
 10
885.7649
 20
-295.7616
 30
0.0
 10
885.7649
 20
-295.7616
 30
0.0
 10
885.7649
 20
-297.7144
 30
0.0
 10
885.7649
 20
-297.7144
 30
0.0
 10
885.7649
 20
-297.7144
 30
0.0
 10
885.7649
 20
-297.7144
 30
0.0
 10
890.2275
 20
-297.7144
 30
0.0
 10
890.2275
 20
-297.7144
 30
0.0
 10
890.2275
 20
-297.7144
 30
0.0
 10
890.2857
 20
-295.8837
 30
0.0
 10
891.2588
 20
-294.76
 30
0.0
 10
892.6132
 20
-294.6774
 30
0.0
 10
892.6132
 20
-294.6774
 30
0.0
 10
892.741
 20
-293.0662
 30
0.0
 10
894.1268
 20
-292.267
 30
0.0
 10
895.8849
 20
-292.1693
 30
0.0
 10
895.8849
 20
-292.1693
 30
0.0
 10
895.8849
 20
-292.1693
 30
0.0
 10
895.8849
 20
-289.6116
 30
0.0
 10
895.8849
 20
-289.6116
 30
0.0
  0
SPLINE
  5
148
330
1F
100
AcDbEntity
  8
layer 1
 62
   250
370
     9
100
AcDbSpline
210
0.0
220
0.0
230
1.0
 70
    11
 71
     3
 72
    20
 73
    16
 74
     0
 42
0.0000000001
 43
0.0000000001
 40
0.0
 40
0.0
 40
0.0
 40
0.0
 40
0.25
 40
0.25
 40
0.25
 40
0.25
 40
0.5
 40
0.5
 40
0.5
 40
0.5
 40
0.75
 40
0.75
 40
0.75
 40
0.75
 40
1.0
 40
1.0
 40
1.0
 40
1.0
 10
893.5978
 20
-355.6765
 30
0.0
 10
893.7059
 20
-357.1041
 30
0.0
 10
894.5107
 20
-357.7353
 30
0.0
 10
895.8849
 20
-357.8536
 30
0.0
 10
895.8849
 20
-357.8536
 30
0.0
 10
895.8849
 20
-357.8536
 30
0.0
 10
895.8849
 20
-353.4804
 30
0.0
 10
895.8849
 20
-353.4804
 30
0.0
 10
895.8849
 20
-353.4804
 30
0.0
 10
895.8849
 20
-353.4804
 30
0.0
 10
891.4215
 20
-353.4804
 30
0.0
 10
891.4215
 20
-353.4804
 30
0.0
 10
891.4215
 20
-353.4804
 30
0.0
 10
891.5103
 20
-354.7532
 30
0.0
 10
892.2364
 20
-355.6509
 30
0.0
 10
893.5978
 20
-355.6765
 30
0.0
  0
SPLINE
  5
149
330
1F
100
AcDbEntity
  8
layer 1
 62
   250
370
     9
100
AcDbSpline
210
0.0
220
0.0
230
1.0
 70
    11
 71
     3
 72
    20
 73
    16
 74
     0
 42
0.0000000001
 43
0.0000000001
 40
0.0
 40
0.0
 40
0.0
 40
0.0
 40
0.25
 40
0.25
 40
0.25
 40
0.25
 40
0.5
 40
0.5
 40
0.5
 40
0.5
 40
0.75
 40
0.75
 40
0.75
 40
0.75
 40
1.0
 40
1.0
 40
1.0
 40
1.0
 10
891.4235
 20
-350.2179
 30
0.0
 10
891.4235
 20
-350.2179
 30
0.0
 10
891.4235
 20
-352.2829
 30
0.0
 10
891.4235
 20
-352.2829
 30
0.0
 10
891.4235
 20
-352.2829
 30
0.0
 10
891.4235
 20
-352.2829
 30
0.0
 10
895.8849
 20
-352.2829
 30
0.0
 10
895.8849
 20
-352.2829
 30
0.0
 10
895.8849
 20
-352.2829
 30
0.0
 10
895.8849
 20
-352.2829
 30
0.0
 10
895.8849
 20
-350.2179
 30
0.0
 10
895.8849
 20
-350.2179
 30
0.0
 10
895.8849
 20
-350.2179
 30
0.0
 10
895.8849
 20
-350.2179
 30
0.0
 10
891.4235
 20
-350.2179
 30
0.0
 10
891.4235
 20
-350.2179
 30
0.0
  0
SPLINE
  5
14A
330
1F
100
AcDbEntity
  8
layer 1
 62
   250
370
     9
100
AcDbSpline
210
0.0
220
0.0
230
1.0
 70
    11
 71
     3
 72
    20
 73
    16
 74
     0
 42
0.0000000001
 43
0.0000000001
 40
0.0
 40
0.0
 40
0.0
 40
0.0
 40
0.25
 40
0.25
 40
0.25
 40
0.25
 40
0.5
 40
0.5
 40
0.5
 40
0.5
 40
0.75
 40
0.75
 40
0.75
 40
0.75
 40
1.0
 40
1.0
 40
1.0
 40
1.0
 10
874.4474
 20
-350.2179
 30
0.0
 10
874.4474
 20
-350.2179
 30
0.0
 10
874.4474
 20
-352.2829
 30
0.0
 10
874.4474
 20
-352.2829
 30
0.0
 10
874.4474
 20
-352.2829
 30
0.0
 10
874.4474
 20
-352.2829
 30
0.0
 10
878.9089
 20
-352.2829
 30
0.0
 10
878.9089
 20
-352.2829
 30
0.0
 10
878.9089
 20
-352.2829
 30
0.0
 10
878.9089
 20
-352.2829
 30
0.0
 10
878.9089
 20
-350.2179
 30
0.0
 10
878.9089
 20
-350.2179
 30
0.0
 10
878.9089
 20
-350.2179
 30
0.0
 10
878.9089
 20
-350.2179
 30
0.0
 10
874.4474
 20
-350.2179
 30
0.0
 10
874.4474
 20
-350.2179
 30
0.0
  0
SPLINE
  5
14B
330
1F
100
AcDbEntity
  8
layer 1
 62
   250
370
     9
100
AcDbSpline
210
0.0
220
0.0
230
1.0
 70
    11
 71
     3
 72
    20
 73
    16
 74
     0
 42
0.0000000001
 43
0.0000000001
 40
0.0
 40
0.0
 40
0.0
 40
0.0
 40
0.25
 40
0.25
 40
0.25
 40
0.25
 40
0.5
 40
0.5
 40
0.5
 40
0.5
 40
0.75
 40
0.75
 40
0.75
 40
0.75
 40
1.0
 40
1.0
 40
1.0
 40
1.0
 10
874.4474
 20
-353.4804
 30
0.0
 10
874.4474
 20
-353.4804
 30
0.0
 10
874.4474
 20
-357.8537
 30
0.0
 10
874.4474
 20
-357.8537
 30
0.0
 10
874.4474
 20
-357.8537
 30
0.0
 10
875.7996
 20
-357.7384
 30
0.0
 10
876.655
 20
-357.0971
 30
0.0
 10
876.7372
 20
-355.6765
 30
0.0
 10
876.7372
 20
-355.6765
 30
0.0
 10
878.1037
 20
-355.6509
 30
0.0
 10
878.8233
 20
-354.7757
 30
0.0
 10
878.9136
 20
-353.4804
 30
0.0
 10
878.9136
 20
-353.4804
 30
0.0
 10
878.9136
 20
-353.4804
 30
0.0
 10
874.4474
 20
-353.4804
 30
0.0
 10
874.4474
 20
-353.4804
 30
0.0
  0
SPLINE
  5
14C
330
1F
100
AcDbEntity
  8
layer 1
 62
   250
370
     9
100
AcDbSpline
210
0.0
220
0.0
230
1.0
 70
    11
 71
     3
 72
    20
 73
    16
 74
     0
 42
0.0000000001
 43
0.0000000001
 40
0.0
 40
0.0
 40
0.0
 40
0.0
 40
0.25
 40
0.25
 40
0.25
 40
0.25
 40
0.5
 40
0.5
 40
0.5
 40
0.5
 40
0.75
 40
0.75
 40
0.75
 40
0.75
 40
1.0
 40
1.0
 40
1.0
 40
1.0
 10
874.4429
 20
-341.5163
 30
0.0
 10
874.533
 20
-342.8115
 30
0.0
 10
875.2521
 20
-343.6867
 30
0.0
 10
876.6192
 20
-343.7124
 30
0.0
 10
876.6192
 20
-343.7124
 30
0.0
 10
876.7274
 20
-345.1415
 30
0.0
 10
877.5332
 20
-345.7724
 30
0.0
 10
878.9089
 20
-345.8897
 30
0.0
 10
878.9089
 20
-345.8897
 30
0.0
 10
878.9089
 20
-345.8897
 30
0.0
 10
878.9089
 20
-341.5163
 30
0.0
 10
878.9089
 20
-341.5163
 30
0.0
 10
878.9089
 20
-341.5163
 30
0.0
 10
878.9089
 20
-341.5163
 30
0.0
 10
874.4429
 20
-341.5163
 30
0.0
 10
874.4429
 20
-341.5163
 30
0.0
  0
SPLINE
  5
14D
330
1F
100
AcDbEntity
  8
layer 1
 62
   250
370
     9
100
AcDbSpline
210
0.0
220
0.0
230
1.0
 70
    11
 71
     3
 72
    20
 73
    16
 74
     0
 42
0.0000000001
 43
0.0000000001
 40
0.0
 40
0.0
 40
0.0
 40
0.0
 40
0.25
 40
0.25
 40
0.25
 40
0.25
 40
0.5
 40
0.5
 40
0.5
 40
0.5
 40
0.75
 40
0.75
 40
0.75
 40
0.75
 40
1.0
 40
1.0
 40
1.0
 40
1.0
 10
885.7649
 20
-347.0609
 30
0.0
 10
885.7649
 20
-347.0609
 30
0.0
 10
885.7649
 20
-352.2829
 30
0.0
 10
885.7649
 20
-352.2829
 30
0.0
 10
885.7649
 20
-352.2829
 30
0.0
 10
885.7649
 20
-352.2829
 30
0.0
 10
890.2261
 20
-352.2829
 30
0.0
 10
890.2261
 20
-352.2829
 30
0.0
 10
890.2261
 20
-352.2829
 30
0.0
 10
890.2261
 20
-352.2829
 30
0.0
 10
890.2261
 20
-347.0609
 30
0.0
 10
890.2261
 20
-347.0609
 30
0.0
 10
890.2261
 20
-347.0609
 30
0.0
 10
890.2261
 20
-347.0609
 30
0.0
 10
885.7649
 20
-347.0609
 30
0.0
 10
885.7649
 20
-347.0609
 30
0.0
  0
SPLINE
  5
14E
330
1F
100
AcDbEntity
  8
layer 1
 62
   250
370
     9
100
AcDbSpline
210
0.0
220
0.0
230
1.0
 70
    11
 71
     3
 72
    20
 73
    16
 74
     0
 42
0.0000000001
 43
0.0000000001
 40
0.0
 40
0.0
 40
0.0
 40
0.0
 40
0.25
 40
0.25
 40
0.25
 40
0.25
 40
0.5
 40
0.5
 40
0.5
 40
0.5
 40
0.75
 40
0.75
 40
0.75
 40
0.75
 40
1.0
 40
1.0
 40
1.0
 40
1.0
 10
885.7649
 20
-338.1953
 30
0.0
 10
885.7649
 20
-338.1953
 30
0.0
 10
885.7649
 20
-345.8634
 30
0.0
 10
885.7649
 20
-345.8634
 30
0.0
 10
885.7649
 20
-345.8634
 30
0.0
 10
885.7649
 20
-345.8634
 30
0.0
 10
890.2261
 20
-345.8634
 30
0.0
 10
890.2261
 20
-345.8634
 30
0.0
 10
890.2261
 20
-345.8634
 30
0.0
 10
890.2261
 20
-345.8634
 30
0.0
 10
890.2261
 20
-338.1953
 30
0.0
 10
890.2261
 20
-338.1953
 30
0.0
 10
890.2261
 20
-338.1953
 30
0.0
 10
890.2261
 20
-338.1953
 30
0.0
 10
885.7649
 20
-338.1953
 30
0.0
 10
885.7649
 20
-338.1953
 30
0.0
  0
SPLINE
  5
14F
330
1F
100
AcDbEntity
  8
layer 1
 62
   250
370
     9
100
AcDbSpline
210
0.0
220
0.0
230
1.0
 70
    11
 71
     3
 72
    20
 73
    16
 74
     0
 42
0.0000000001
 43
0.0000000001
 40
0.0
 40
0.0
 40
0.0
 40
0.0
 40
0.25
 40
0.25
 40
0.25
 40
0.25
 40
0.5
 40
0.5
 40
0.5
 40
0.5
 40
0.75
 40
0.75
 40
0.75
 40
0.75
 40
1.0
 40
1.0
 40
1.0
 40
1.0
 10
884.5675
 20
-345.8634
 30
0.0
 10
884.5675
 20
-345.8634
 30
0.0
 10
884.5675
 20
-338.1953
 30
0.0
 10
884.5675
 20
-338.1953
 30
0.0
 10
884.5675
 20
-338.1953
 30
0.0
 10
884.5675
 20
-338.1953
 30
0.0
 10
880.1062
 20
-338.1953
 30
0.0
 10
880.1062
 20
-338.1953
 30
0.0
 10
880.1062
 20
-338.1953
 30
0.0
 10
880.1062
 20
-338.1953
 30
0.0
 10
880.1062
 20
-345.8634
 30
0.0
 10
880.1062
 20
-345.8634
 30
0.0
 10
880.1062
 20
-345.8634
 30
0.0
 10
880.1062
 20
-345.8634
 30
0.0
 10
884.5675
 20
-345.8634
 30
0.0
 10
884.5675
 20
-345.8634
 30
0.0
  0
SPLINE
  5
150
330
1F
100
AcDbEntity
  8
layer 1
 62
   250
370
     9
100
AcDbSpline
210
0.0
220
0.0
230
1.0
 70
    11
 71
     3
 72
    20
 73
    16
 74
     0
 42
0.0000000001
 43
0.0000000001
 40
0.0
 40
0.0
 40
0.0
 40
0.0
 40
0.25
 40
0.25
 40
0.25
 40
0.25
 40
0.5
 40
0.5
 40
0.5
 40
0.5
 40
0.75
 40
0.75
 40
0.75
 40
0.75
 40
1.0
 40
1.0
 40
1.0
 40
1.0
 10
884.5675
 20
-352.2829
 30
0.0
 10
884.5675
 20
-352.2829
 30
0.0
 10
884.5675
 20
-347.0609
 30
0.0
 10
884.5675
 20
-347.0609
 30
0.0
 10
884.5675
 20
-347.0609
 30
0.0
 10
884.5675
 20
-347.0609
 30
0.0
 10
880.1062
 20
-347.0609
 30
0.0
 10
880.1062
 20
-347.0609
 30
0.0
 10
880.1062
 20
-347.0609
 30
0.0
 10
880.1062
 20
-347.0609
 30
0.0
 10
880.1062
 20
-352.2829
 30
0.0
 10
880.1062
 20
-352.2829
 30
0.0
 10
880.1062
 20
-352.2829
 30
0.0
 10
880.1062
 20
-352.2829
 30
0.0
 10
884.5675
 20
-352.2829
 30
0.0
 10
884.5675
 20
-352.2829
 30
0.0
  0
SPLINE
  5
151
330
1F
100
AcDbEntity
  8
layer 1
 62
   250
370
     9
100
AcDbSpline
210
0.0
220
0.0
230
1.0
 70
    11
 71
     3
 72
    20
 73
    16
 74
     0
 42
0.0000000001
 43
0.0000000001
 40
0.0
 40
0.0
 40
0.0
 40
0.0
 40
0.25
 40
0.25
 40
0.25
 40
0.25
 40
0.5
 40
0.5
 40
0.5
 40
0.5
 40
0.75
 40
0.75
 40
0.75
 40
0.75
 40
1.0
 40
1.0
 40
1.0
 40
1.0
 10
895.8849
 20
-338.1953
 30
0.0
 10
895.8849
 20
-338.1953
 30
0.0
 10
891.4235
 20
-338.1953
 30
0.0
 10
891.4235
 20
-338.1953
 30
0.0
 10
891.4235
 20
-338.1953
 30
0.0
 10
891.4235
 20
-338.1953
 30
0.0
 10
891.4235
 20
-340.3188
 30
0.0
 10
891.4235
 20
-340.3188
 30
0.0
 10
891.4235
 20
-340.3188
 30
0.0
 10
891.4235
 20
-340.3188
 30
0.0
 10
895.8849
 20
-340.3188
 30
0.0
 10
895.8849
 20
-340.3188
 30
0.0
 10
895.8849
 20
-340.3188
 30
0.0
 10
895.8849
 20
-340.3188
 30
0.0
 10
895.8849
 20
-338.1953
 30
0.0
 10
895.8849
 20
-338.1953
 30
0.0
  0
SPLINE
  5
152
330
1F
100
AcDbEntity
  8
layer 1
 62
   250
370
     9
100
AcDbSpline
210
0.0
220
0.0
230
1.0
 70
    11
 71
     3
 72
    20
 73
    16
 74
     0
 42
0.0000000001
 43
0.0000000001
 40
0.0
 40
0.0
 40
0.0
 40
0.0
 40
0.25
 40
0.25
 40
0.25
 40
0.25
 40
0.5
 40
0.5
 40
0.5
 40
0.5
 40
0.75
 40
0.75
 40
0.75
 40
0.75
 40
1.0
 40
1.0
 40
1.0
 40
1.0
 10
874.4474
 20
-340.3188
 30
0.0
 10
874.4474
 20
-340.3188
 30
0.0
 10
878.9089
 20
-340.3188
 30
0.0
 10
878.9089
 20
-340.3188
 30
0.0
 10
878.9089
 20
-340.3188
 30
0.0
 10
878.9089
 20
-340.3188
 30
0.0
 10
878.9089
 20
-338.1953
 30
0.0
 10
878.9089
 20
-338.1953
 30
0.0
 10
878.9089
 20
-338.1953
 30
0.0
 10
878.9089
 20
-338.1953
 30
0.0
 10
874.4474
 20
-338.1953
 30
0.0
 10
874.4474
 20
-338.1953
 30
0.0
 10
874.4474
 20
-338.1953
 30
0.0
 10
874.4474
 20
-338.1953
 30
0.0
 10
874.4474
 20
-340.3188
 30
0.0
 10
874.4474
 20
-340.3188
 30
0.0
  0
SPLINE
  5
153
330
1F
100
AcDbEntity
  8
layer 1
 62
   250
370
     9
100
AcDbSpline
210
0.0
220
0.0
230
1.0
 70
    11
 71
     3
 72
    20
 73
    16
 74
     0
 42
0.0000000001
 43
0.0000000001
 40
0.0
 40
0.0
 40
0.0
 40
0.0
 40
0.25
 40
0.25
 40
0.25
 40
0.25
 40
0.5
 40
0.5
 40
0.5
 40
0.5
 40
0.75
 40
0.75
 40
0.75
 40
0.75
 40
1.0
 40
1.0
 40
1.0
 40
1.0
 10
891.4235
 20
-328.2962
 30
0.0
 10
891.4235
 20
-328.2962
 30
0.0
 10
895.8849
 20
-328.2962
 30
0.0
 10
895.8849
 20
-328.2962
 30
0.0
 10
895.8849
 20
-328.2962
 30
0.0
 10
895.8849
 20
-328.2962
 30
0.0
 10
895.8849
 20
-326.1961
 30
0.0
 10
895.8849
 20
-326.1961
 30
0.0
 10
895.8849
 20
-326.1961
 30
0.0
 10
895.8849
 20
-326.1961
 30
0.0
 10
891.4235
 20
-326.1961
 30
0.0
 10
891.4235
 20
-326.1961
 30
0.0
 10
891.4235
 20
-326.1961
 30
0.0
 10
891.4235
 20
-326.1961
 30
0.0
 10
891.4235
 20
-328.2962
 30
0.0
 10
891.4235
 20
-328.2962
 30
0.0
  0
SPLINE
  5
154
330
1F
100
AcDbEntity
  8
layer 1
 62
   250
370
     9
100
AcDbSpline
210
0.0
220
0.0
230
1.0
 70
    11
 71
     3
 72
    20
 73
    16
 74
     0
 42
0.0000000001
 43
0.0000000001
 40
0.0
 40
0.0
 40
0.0
 40
0.0
 40
0.25
 40
0.25
 40
0.25
 40
0.25
 40
0.5
 40
0.5
 40
0.5
 40
0.5
 40
0.75
 40
0.75
 40
0.75
 40
0.75
 40
1.0
 40
1.0
 40
1.0
 40
1.0
 10
885.7649
 20
-328.2962
 30
0.0
 10
885.7649
 20
-328.2962
 30
0.0
 10
890.2261
 20
-328.2962
 30
0.0
 10
890.2261
 20
-328.2962
 30
0.0
 10
890.2261
 20
-328.2962
 30
0.0
 10
890.2261
 20
-328.2962
 30
0.0
 10
890.2261
 20
-326.1961
 30
0.0
 10
890.2261
 20
-326.1961
 30
0.0
 10
890.2261
 20
-326.1961
 30
0.0
 10
890.2261
 20
-326.1961
 30
0.0
 10
885.7649
 20
-326.1961
 30
0.0
 10
885.7649
 20
-326.1961
 30
0.0
 10
885.7649
 20
-326.1961
 30
0.0
 10
885.7649
 20
-326.1961
 30
0.0
 10
885.7649
 20
-328.2962
 30
0.0
 10
885.7649
 20
-328.2962
 30
0.0
  0
SPLINE
  5
155
330
1F
100
AcDbEntity
  8
layer 1
 62
   250
370
     9
100
AcDbSpline
210
0.0
220
0.0
230
1.0
 70
    11
 71
     3
 72
    20
 73
    16
 74
     0
 42
0.0000000001
 43
0.0000000001
 40
0.0
 40
0.0
 40
0.0
 40
0.0
 40
0.25
 40
0.25
 40
0.25
 40
0.25
 40
0.5
 40
0.5
 40
0.5
 40
0.5
 40
0.75
 40
0.75
 40
0.75
 40
0.75
 40
1.0
 40
1.0
 40
1.0
 40
1.0
 10
878.9089
 20
-328.2962
 30
0.0
 10
878.9089
 20
-328.2962
 30
0.0
 10
878.9089
 20
-326.1961
 30
0.0
 10
878.9089
 20
-326.1961
 30
0.0
 10
878.9089
 20
-326.1961
 30
0.0
 10
878.9089
 20
-326.1961
 30
0.0
 10
874.4474
 20
-326.1961
 30
0.0
 10
874.4474
 20
-326.1961
 30
0.0
 10
874.4474
 20
-326.1961
 30
0.0
 10
874.4474
 20
-326.1961
 30
0.0
 10
874.4474
 20
-328.2962
 30
0.0
 10
874.4474
 20
-328.2962
 30
0.0
 10
874.4474
 20
-328.2962
 30
0.0
 10
874.4474
 20
-328.2962
 30
0.0
 10
878.9089
 20
-328.2962
 30
0.0
 10
878.9089
 20
-328.2962
 30
0.0
  0
SPLINE
  5
156
330
1F
100
AcDbEntity
  8
layer 1
 62
   250
370
     9
100
AcDbSpline
210
0.0
220
0.0
230
1.0
 70
    11
 71
     3
 72
    20
 73
    16
 74
     0
 42
0.0000000001
 43
0.0000000001
 40
0.0
 40
0.0
 40
0.0
 40
0.0
 40
0.25
 40
0.25
 40
0.25
 40
0.25
 40
0.5
 40
0.5
 40
0.5
 40
0.5
 40
0.75
 40
0.75
 40
0.75
 40
0.75
 40
1.0
 40
1.0
 40
1.0
 40
1.0
 10
880.1062
 20
-326.1961
 30
0.0
 10
880.1062
 20
-326.1961
 30
0.0
 10
880.1062
 20
-328.2962
 30
0.0
 10
880.1062
 20
-328.2962
 30
0.0
 10
880.1062
 20
-328.2962
 30
0.0
 10
880.1062
 20
-328.2962
 30
0.0
 10
884.5675
 20
-328.2962
 30
0.0
 10
884.5675
 20
-328.2962
 30
0.0
 10
884.5675
 20
-328.2962
 30
0.0
 10
884.5675
 20
-328.2962
 30
0.0
 10
884.5675
 20
-326.1961
 30
0.0
 10
884.5675
 20
-326.1961
 30
0.0
 10
884.5675
 20
-326.1961
 30
0.0
 10
884.5675
 20
-326.1961
 30
0.0
 10
880.1062
 20
-326.1961
 30
0.0
 10
880.1062
 20
-326.1961
 30
0.0
  0
SPLINE
  5
157
330
1F
100
AcDbEntity
  8
layer 1
 62
   250
370
     9
100
AcDbSpline
210
0.0
220
0.0
230
1.0
 70
    11
 71
     3
 72
    20
 73
    16
 74
     0
 42
0.0000000001
 43
0.0000000001
 40
0.0
 40
0.0
 40
0.0
 40
0.0
 40
0.25
 40
0.25
 40
0.25
 40
0.25
 40
0.5
 40
0.5
 40
0.5
 40
0.5
 40
0.75
 40
0.75
 40
0.75
 40
0.75
 40
1.0
 40
1.0
 40
1.0
 40
1.0
 10
888.0546
 20
-334.8018
 30
0.0
 10
887.9471
 20
-333.3791
 30
0.0
 10
887.1446
 20
-332.7425
 30
0.0
 10
885.7649
 20
-332.6245
 30
0.0
 10
885.7649
 20
-332.6245
 30
0.0
 10
885.7649
 20
-332.6245
 30
0.0
 10
885.7649
 20
-336.9979
 30
0.0
 10
885.7649
 20
-336.9979
 30
0.0
 10
885.7649
 20
-336.9979
 30
0.0
 10
885.7649
 20
-336.9979
 30
0.0
 10
890.2311
 20
-336.9979
 30
0.0
 10
890.2311
 20
-336.9979
 30
0.0
 10
890.2311
 20
-336.9979
 30
0.0
 10
890.1423
 20
-335.7253
 30
0.0
 10
889.4161
 20
-334.8273
 30
0.0
 10
888.0546
 20
-334.8018
 30
0.0
  0
SPLINE
  5
158
330
1F
100
AcDbEntity
  8
layer 1
 62
   250
370
     9
100
AcDbSpline
210
0.0
220
0.0
230
1.0
 70
    11
 71
     3
 72
    20
 73
    16
 74
     0
 42
0.0000000001
 43
0.0000000001
 40
0.0
 40
0.0
 40
0.0
 40
0.0
 40
0.25
 40
0.25
 40
0.25
 40
0.25
 40
0.5
 40
0.5
 40
0.5
 40
0.5
 40
0.75
 40
0.75
 40
0.75
 40
0.75
 40
1.0
 40
1.0
 40
1.0
 40
1.0
 10
884.5675
 20
-336.9979
 30
0.0
 10
884.5675
 20
-336.9979
 30
0.0
 10
884.5675
 20
-332.6245
 30
0.0
 10
884.5675
 20
-332.6245
 30
0.0
 10
884.5675
 20
-332.6245
 30
0.0
 10
883.2149
 20
-332.7402
 30
0.0
 10
882.3604
 20
-333.3808
 30
0.0
 10
882.2778
 20
-334.8018
 30
0.0
 10
882.2778
 20
-334.8018
 30
0.0
 10
880.9113
 20
-334.8274
 30
0.0
 10
880.1918
 20
-335.7026
 30
0.0
 10
880.1014
 20
-336.9979
 30
0.0
 10
880.1014
 20
-336.9979
 30
0.0
 10
880.1014
 20
-336.9979
 30
0.0
 10
884.5675
 20
-336.9979
 30
0.0
 10
884.5675
 20
-336.9979
 30
0.0
  0
SPLINE
  5
159
330
1F
100
AcDbEntity
  8
layer 1
 62
   250
370
     9
100
AcDbSpline
210
0.0
220
0.0
230
1.0
 70
    11
 71
     3
 72
    36
 73
    32
 74
     0
 42
0.0000000001
 43
0.0000000001
 40
0.0
 40
0.0
 40
0.0
 40
0.0
 40
0.125
 40
0.125
 40
0.125
 40
0.125
 40
0.25
 40
0.25
 40
0.25
 40
0.25
 40
0.375
 40
0.375
 40
0.375
 40
0.375
 40
0.5
 40
0.5
 40
0.5
 40
0.5
 40
0.625
 40
0.625
 40
0.625
 40
0.625
 40
0.75
 40
0.75
 40
0.75
 40
0.75
 40
0.875
 40
0.875
 40
0.875
 40
0.875
 40
1.0
 40
1.0
 40
1.0
 40
1.0
 10
885.7649
 20
-331.4526
 30
0.0
 10
887.6061
 20
-331.4882
 30
0.0
 10
889.2206
 20
-332.5466
 30
0.0
 10
889.14
 20
-333.9036
 30
0.0
 10
889.14
 20
-333.9036
 30
0.0
 10
890.7416
 20
-334.1493
 30
0.0
 10
891.428
 20
-335.5731
 30
0.0
 10
891.425
 20
-336.9979
 30
0.0
 10
891.425
 20
-336.9979
 30
0.0
 10
891.425
 20
-336.9979
 30
0.0
 10
895.8849
 20
-336.9979
 30
0.0
 10
895.8849
 20
-336.9979
 30
0.0
 10
895.8849
 20
-336.9979
 30
0.0
 10
895.8849
 20
-336.9979
 30
0.0
 10
895.8849
 20
-335.0389
 30
0.0
 10
895.8849
 20
-335.0389
 30
0.0
 10
895.8849
 20
-335.0389
 30
0.0
 10
894.2495
 20
-334.9625
 30
0.0
 10
892.9228
 20
-334.3772
 30
0.0
 10
892.5716
 20
-332.5264
 30
0.0
 10
892.5716
 20
-332.5264
 30
0.0
 10
891.2784
 20
-332.5483
 30
0.0
 10
890.3246
 20
-331.4533
 30
0.0
 10
890.2247
 20
-329.4936
 30
0.0
 10
890.2247
 20
-329.4936
 30
0.0
 10
890.2247
 20
-329.4936
 30
0.0
 10
885.7649
 20
-329.4936
 30
0.0
 10
885.7649
 20
-329.4936
 30
0.0
 10
885.7649
 20
-329.4936
 30
0.0
 10
885.7649
 20
-329.4936
 30
0.0
 10
885.7649
 20
-331.4526
 30
0.0
 10
885.7649
 20
-331.4526
 30
0.0
  0
SPLINE
  5
15A
330
1F
100
AcDbEntity
  8
layer 1
 62
   250
370
     9
100
AcDbSpline
210
0.0
220
0.0
230
1.0
 70
    11
 71
     3
 72
    20
 73
    16
 74
     0
 42
0.0000000001
 43
0.0000000001
 40
0.0
 40
0.0
 40
0.0
 40
0.0
 40
0.25
 40
0.25
 40
0.25
 40
0.25
 40
0.5
 40
0.5
 40
0.5
 40
0.5
 40
0.75
 40
0.75
 40
0.75
 40
0.75
 40
1.0
 40
1.0
 40
1.0
 40
1.0
 10
893.5952
 20
-331.6899
 30
0.0
 10
893.7034
 20
-333.1189
 30
0.0
 10
894.5093
 20
-333.7498
 30
0.0
 10
895.8849
 20
-333.867
 30
0.0
 10
895.8849
 20
-333.867
 30
0.0
 10
895.8849
 20
-333.867
 30
0.0
 10
895.8849
 20
-329.4936
 30
0.0
 10
895.8849
 20
-329.4936
 30
0.0
 10
895.8849
 20
-329.4936
 30
0.0
 10
895.8849
 20
-329.4936
 30
0.0
 10
891.4189
 20
-329.4936
 30
0.0
 10
891.4189
 20
-329.4936
 30
0.0
 10
891.4189
 20
-329.4936
 30
0.0
 10
891.5075
 20
-330.7664
 30
0.0
 10
892.2336
 20
-331.6644
 30
0.0
 10
893.5952
 20
-331.6899
 30
0.0
  0
SPLINE
  5
15B
330
1F
100
AcDbEntity
  8
layer 1
 62
   250
370
     9
100
AcDbSpline
210
0.0
220
0.0
230
1.0
 70
    11
 71
     3
 72
    36
 73
    32
 74
     0
 42
0.0000000001
 43
0.0000000001
 40
0.0
 40
0.0
 40
0.0
 40
0.0
 40
0.125
 40
0.125
 40
0.125
 40
0.125
 40
0.25
 40
0.25
 40
0.25
 40
0.25
 40
0.375
 40
0.375
 40
0.375
 40
0.375
 40
0.5
 40
0.5
 40
0.5
 40
0.5
 40
0.625
 40
0.625
 40
0.625
 40
0.625
 40
0.75
 40
0.75
 40
0.75
 40
0.75
 40
0.875
 40
0.875
 40
0.875
 40
0.875
 40
1.0
 40
1.0
 40
1.0
 40
1.0
 10
877.7913
 20
-332.7199
 30
0.0
 10
877.6664
 20
-333.9607
 30
0.0
 10
876.654
 20
-334.9701
 30
0.0
 10
874.4474
 20
-335.0389
 30
0.0
 10
874.4474
 20
-335.0389
 30
0.0
 10
874.4474
 20
-335.0389
 30
0.0
 10
874.4474
 20
-336.9979
 30
0.0
 10
874.4474
 20
-336.9979
 30
0.0
 10
874.4474
 20
-336.9979
 30
0.0
 10
874.4474
 20
-336.9979
 30
0.0
 10
878.9073
 20
-336.9979
 30
0.0
 10
878.9073
 20
-336.9979
 30
0.0
 10
878.9073
 20
-336.9979
 30
0.0
 10
878.9472
 20
-334.7489
 30
0.0
 10
880.2275
 20
-333.8856
 30
0.0
 10
881.2493
 20
-333.8193
 30
0.0
 10
881.2493
 20
-333.8193
 30
0.0
 10
881.2771
 20
-332.8535
 30
0.0
 10
882.2448
 20
-331.6747
 30
0.0
 10
884.5675
 20
-331.4526
 30
0.0
 10
884.5675
 20
-331.4526
 30
0.0
 10
884.5675
 20
-331.4526
 30
0.0
 10
884.5675
 20
-329.4936
 30
0.0
 10
884.5675
 20
-329.4936
 30
0.0
 10
884.5675
 20
-329.4936
 30
0.0
 10
884.5675
 20
-329.4936
 30
0.0
 10
880.1077
 20
-329.4936
 30
0.0
 10
880.1077
 20
-329.4936
 30
0.0
 10
880.1077
 20
-329.4936
 30
0.0
 10
880.0293
 20
-331.4962
 30
0.0
 10
879.0234
 20
-332.5317
 30
0.0
 10
877.7913
 20
-332.7199
 30
0.0
  0
SPLINE
  5
15C
330
1F
100
AcDbEntity
  8
layer 1
 62
   250
370
     9
100
AcDbSpline
210
0.0
220
0.0
230
1.0
 70
    11
 71
     3
 72
    20
 73
    16
 74
     0
 42
0.0000000001
 43
0.0000000001
 40
0.0
 40
0.0
 40
0.0
 40
0.0
 40
0.25
 40
0.25
 40
0.25
 40
0.25
 40
0.5
 40
0.5
 40
0.5
 40
0.5
 40
0.75
 40
0.75
 40
0.75
 40
0.75
 40
1.0
 40
1.0
 40
1.0
 40
1.0
 10
874.4474
 20
-329.4936
 30
0.0
 10
874.4474
 20
-329.4936
 30
0.0
 10
874.4474
 20
-333.867
 30
0.0
 10
874.4474
 20
-333.867
 30
0.0
 10
874.4474
 20
-333.867
 30
0.0
 10
875.7996
 20
-333.7518
 30
0.0
 10
876.655
 20
-333.1105
 30
0.0
 10
876.7372
 20
-331.6899
 30
0.0
 10
876.7372
 20
-331.6899
 30
0.0
 10
878.1038
 20
-331.6643
 30
0.0
 10
878.8232
 20
-330.7889
 30
0.0
 10
878.9136
 20
-329.4936
 30
0.0
 10
878.9136
 20
-329.4936
 30
0.0
 10
878.9136
 20
-329.4936
 30
0.0
 10
874.4474
 20
-329.4936
 30
0.0
 10
874.4474
 20
-329.4936
 30
0.0
  0
SPLINE
  5
15D
330
1F
100
AcDbEntity
  8
layer 1
 62
   250
370
     9
100
AcDbSpline
210
0.0
220
0.0
230
1.0
 70
    11
 71
     3
 72
    20
 73
    16
 74
     0
 42
0.0000000001
 43
0.0000000001
 40
0.0
 40
0.0
 40
0.0
 40
0.0
 40
0.25
 40
0.25
 40
0.25
 40
0.25
 40
0.5
 40
0.5
 40
0.5
 40
0.5
 40
0.75
 40
0.75
 40
0.75
 40
0.75
 40
1.0
 40
1.0
 40
1.0
 40
1.0
 10
868.084
 20
-333.8409
 30
0.0
 10
868.084
 20
-333.8409
 30
0.0
 10
873.2501
 20
-333.8409
 30
0.0
 10
873.2501
 20
-333.8409
 30
0.0
 10
873.2501
 20
-333.8409
 30
0.0
 10
873.2501
 20
-333.8409
 30
0.0
 10
873.2501
 20
-326.1961
 30
0.0
 10
873.2501
 20
-326.1961
 30
0.0
 10
873.2501
 20
-326.1961
 30
0.0
 10
873.2501
 20
-326.1961
 30
0.0
 10
868.084
 20
-326.1961
 30
0.0
 10
868.084
 20
-326.1961
 30
0.0
 10
868.084
 20
-326.1961
 30
0.0
 10
868.084
 20
-326.1961
 30
0.0
 10
868.084
 20
-333.8409
 30
0.0
 10
868.084
 20
-333.8409
 30
0.0
  0
SPLINE
  5
15E
330
1F
100
AcDbEntity
  8
layer 1
 62
   250
370
     9
100
AcDbSpline
210
0.0
220
0.0
230
1.0
 70
    11
 71
     3
 72
    20
 73
    16
 74
     0
 42
0.0000000001
 43
0.0000000001
 40
0.0
 40
0.0
 40
0.0
 40
0.0
 40
0.25
 40
0.25
 40
0.25
 40
0.25
 40
0.5
 40
0.5
 40
0.5
 40
0.5
 40
0.75
 40
0.75
 40
0.75
 40
0.75
 40
1.0
 40
1.0
 40
1.0
 40
1.0
 10
868.084
 20
-340.3188
 30
0.0
 10
868.084
 20
-340.3188
 30
0.0
 10
873.2501
 20
-340.3188
 30
0.0
 10
873.2501
 20
-340.3188
 30
0.0
 10
873.2501
 20
-340.3188
 30
0.0
 10
873.2501
 20
-340.3188
 30
0.0
 10
873.2501
 20
-335.0383
 30
0.0
 10
873.2501
 20
-335.0383
 30
0.0
 10
873.2501
 20
-335.0383
 30
0.0
 10
873.2501
 20
-335.0383
 30
0.0
 10
868.084
 20
-335.0383
 30
0.0
 10
868.084
 20
-335.0383
 30
0.0
 10
868.084
 20
-335.0383
 30
0.0
 10
868.084
 20
-335.0383
 30
0.0
 10
868.084
 20
-340.3188
 30
0.0
 10
868.084
 20
-340.3188
 30
0.0
  0
SPLINE
  5
15F
330
1F
100
AcDbEntity
  8
layer 1
 62
   250
370
     9
100
AcDbSpline
210
0.0
220
0.0
230
1.0
 70
    11
 71
     3
 72
    36
 73
    32
 74
     0
 42
0.0000000001
 43
0.0000000001
 40
0.0
 40
0.0
 40
0.0
 40
0.0
 40
0.125
 40
0.125
 40
0.125
 40
0.125
 40
0.25
 40
0.25
 40
0.25
 40
0.25
 40
0.375
 40
0.375
 40
0.375
 40
0.375
 40
0.5
 40
0.5
 40
0.5
 40
0.5
 40
0.625
 40
0.625
 40
0.625
 40
0.625
 40
0.75
 40
0.75
 40
0.75
 40
0.75
 40
0.875
 40
0.875
 40
0.875
 40
0.875
 40
1.0
 40
1.0
 40
1.0
 40
1.0
 10
868.084
 20
-343.4777
 30
0.0
 10
869.854
 20
-343.4881
 30
0.0
 10
871.438
 20
-344.2211
 30
0.0
 10
871.7027
 20
-345.5717
 30
0.0
 10
871.7027
 20
-345.5717
 30
0.0
 10
873.3227
 20
-345.7765
 30
0.0
 10
874.4844
 20
-347.4242
 30
0.0
 10
874.45
 20
-349.0204
 30
0.0
 10
874.45
 20
-349.0204
 30
0.0
 10
874.45
 20
-349.0204
 30
0.0
 10
878.9089
 20
-349.0204
 30
0.0
 10
878.9089
 20
-349.0204
 30
0.0
 10
878.9089
 20
-349.0204
 30
0.0
 10
878.9089
 20
-349.0204
 30
0.0
 10
878.9089
 20
-347.0617
 30
0.0
 10
878.9089
 20
-347.0617
 30
0.0
 10
878.9089
 20
-347.0617
 30
0.0
 10
877.5035
 20
-347.0629
 30
0.0
 10
875.8786
 20
-346.2809
 30
0.0
 10
875.6591
 20
-344.6219
 30
0.0
 10
875.6591
 20
-344.6219
 30
0.0
 10
874.4147
 20
-344.6804
 30
0.0
 10
873.3075
 20
-343.4142
 30
0.0
 10
873.2487
 20
-341.5163
 30
0.0
 10
873.2487
 20
-341.5163
 30
0.0
 10
873.2487
 20
-341.5163
 30
0.0
 10
868.084
 20
-341.5163
 30
0.0
 10
868.084
 20
-341.5163
 30
0.0
 10
868.084
 20
-341.5163
 30
0.0
 10
868.084
 20
-341.5163
 30
0.0
 10
868.084
 20
-343.4777
 30
0.0
 10
868.084
 20
-343.4777
 30
0.0
  0
SPLINE
  5
160
330
1F
100
AcDbEntity
  8
layer 1
 62
   250
370
     9
100
AcDbSpline
210
0.0
220
0.0
230
1.0
 70
    11
 71
     3
 72
    20
 73
    16
 74
     0
 42
0.0000000001
 43
0.0000000001
 40
0.0
 40
0.0
 40
0.0
 40
0.0
 40
0.25
 40
0.25
 40
0.25
 40
0.25
 40
0.5
 40
0.5
 40
0.5
 40
0.5
 40
0.75
 40
0.75
 40
0.75
 40
0.75
 40
1.0
 40
1.0
 40
1.0
 40
1.0
 10
870.7355
 20
-346.6081
 30
0.0
 10
870.6103
 20
-345.202
 30
0.0
 10
869.3082
 20
-344.744
 30
0.0
 10
868.084
 20
-344.6558
 30
0.0
 10
868.084
 20
-344.6558
 30
0.0
 10
868.084
 20
-344.6558
 30
0.0
 10
868.084
 20
-349.0204
 30
0.0
 10
868.084
 20
-349.0204
 30
0.0
 10
868.084
 20
-349.0204
 30
0.0
 10
868.084
 20
-349.0204
 30
0.0
 10
873.2564
 20
-349.0204
 30
0.0
 10
873.2564
 20
-349.0204
 30
0.0
 10
873.2564
 20
-349.0204
 30
0.0
 10
873.1413
 20
-347.6733
 30
0.0
 10
872.1217
 20
-346.6417
 30
0.0
 10
870.7355
 20
-346.6081
 30
0.0
  0
SPLINE
  5
161
330
1F
100
AcDbEntity
  8
layer 1
 62
   250
370
     9
100
AcDbSpline
210
0.0
220
0.0
230
1.0
 70
    11
 71
     3
 72
    20
 73
    16
 74
     0
 42
0.0000000001
 43
0.0000000001
 40
0.0
 40
0.0
 40
0.0
 40
0.0
 40
0.25
 40
0.25
 40
0.25
 40
0.25
 40
0.5
 40
0.5
 40
0.5
 40
0.5
 40
0.75
 40
0.75
 40
0.75
 40
0.75
 40
1.0
 40
1.0
 40
1.0
 40
1.0
 10
868.084
 20
-357.8275
 30
0.0
 10
868.084
 20
-357.8275
 30
0.0
 10
873.2501
 20
-357.8275
 30
0.0
 10
873.2501
 20
-357.8275
 30
0.0
 10
873.2501
 20
-357.8275
 30
0.0
 10
873.2501
 20
-357.8275
 30
0.0
 10
873.2501
 20
-350.2179
 30
0.0
 10
873.2501
 20
-350.2179
 30
0.0
 10
873.2501
 20
-350.2179
 30
0.0
 10
873.2501
 20
-350.2179
 30
0.0
 10
868.084
 20
-350.2179
 30
0.0
 10
868.084
 20
-350.2179
 30
0.0
 10
868.084
 20
-350.2179
 30
0.0
 10
868.084
 20
-350.2179
 30
0.0
 10
868.084
 20
-357.8275
 30
0.0
 10
868.084
 20
-357.8275
 30
0.0
  0
SPLINE
  5
162
330
1F
100
AcDbEntity
  8
layer 1
 62
   250
370
     9
100
AcDbSpline
210
0.0
220
0.0
230
1.0
 70
    11
 71
     3
 72
    20
 73
    16
 74
     0
 42
0.0000000001
 43
0.0000000001
 40
0.0
 40
0.0
 40
0.0
 40
0.0
 40
0.25
 40
0.25
 40
0.25
 40
0.25
 40
0.5
 40
0.5
 40
0.5
 40
0.5
 40
0.75
 40
0.75
 40
0.75
 40
0.75
 40
1.0
 40
1.0
 40
1.0
 40
1.0
 10
873.2501
 20
-361.5833
 30
0.0
 10
873.2501
 20
-361.5833
 30
0.0
 10
868.084
 20
-361.5833
 30
0.0
 10
868.084
 20
-361.5833
 30
0.0
 10
868.084
 20
-361.5833
 30
0.0
 10
868.084
 20
-361.5833
 30
0.0
 10
868.084
 20
-359.0249
 30
0.0
 10
868.084
 20
-359.0249
 30
0.0
 10
868.084
 20
-359.0249
 30
0.0
 10
868.084
 20
-359.0249
 30
0.0
 10
873.2501
 20
-359.0249
 30
0.0
 10
873.2501
 20
-359.0249
 30
0.0
 10
873.2501
 20
-359.0249
 30
0.0
 10
873.2501
 20
-359.0249
 30
0.0
 10
873.2501
 20
-361.5833
 30
0.0
 10
873.2501
 20
-361.5833
 30
0.0
  0
SPLINE
  5
163
330
1F
100
AcDbEntity
  8
layer 1
 62
   250
370
     9
100
AcDbSpline
210
0.0
220
0.0
230
1.0
 70
    11
 71
     3
 72
    36
 73
    32
 74
     0
 42
0.0000000001
 43
0.0000000001
 40
0.0
 40
0.0
 40
0.0
 40
0.0
 40
0.125
 40
0.125
 40
0.125
 40
0.125
 40
0.25
 40
0.25
 40
0.25
 40
0.25
 40
0.375
 40
0.375
 40
0.375
 40
0.375
 40
0.5
 40
0.5
 40
0.5
 40
0.5
 40
0.625
 40
0.625
 40
0.625
 40
0.625
 40
0.75
 40
0.75
 40
0.75
 40
0.75
 40
0.875
 40
0.875
 40
0.875
 40
0.875
 40
1.0
 40
1.0
 40
1.0
 40
1.0
 10
878.9096
 20
-361.5833
 30
0.0
 10
878.9096
 20
-361.5833
 30
0.0
 10
874.4474
 20
-361.5833
 30
0.0
 10
874.4474
 20
-361.5833
 30
0.0
 10
874.4474
 20
-361.5833
 30
0.0
 10
874.4474
 20
-361.5833
 30
0.0
 10
874.4474
 20
-359.0257
 30
0.0
 10
874.4474
 20
-359.0257
 30
0.0
 10
874.4474
 20
-359.0257
 30
0.0
 10
876.2275
 20
-358.8434
 30
0.0
 10
877.4022
 20
-358.471
 30
0.0
 10
877.7646
 20
-356.6241
 30
0.0
 10
877.7646
 20
-356.6241
 30
0.0
 10
879.1219
 20
-356.4951
 30
0.0
 10
880.049
 20
-355.3752
 30
0.0
 10
880.1077
 20
-353.4804
 30
0.0
 10
880.1077
 20
-353.4804
 30
0.0
 10
880.1077
 20
-353.4804
 30
0.0
 10
884.5675
 20
-353.4804
 30
0.0
 10
884.5675
 20
-353.4804
 30
0.0
 10
884.5675
 20
-353.4804
 30
0.0
 10
884.5675
 20
-353.4804
 30
0.0
 10
884.5675
 20
-355.4333
 30
0.0
 10
884.5675
 20
-355.4333
 30
0.0
 10
884.5675
 20
-355.4333
 30
0.0
 10
882.8267
 20
-355.4707
 30
0.0
 10
881.358
 20
-356.5079
 30
0.0
 10
881.1752
 20
-358.1696
 30
0.0
 10
881.1752
 20
-358.1696
 30
0.0
 10
879.5253
 20
-358.4242
 30
0.0
 10
878.886
 20
-359.8661
 30
0.0
 10
878.9096
 20
-361.5833
 30
0.0
  0
SPLINE
  5
164
330
1F
100
AcDbEntity
  8
layer 1
 62
   250
370
     9
100
AcDbSpline
210
0.0
220
0.0
230
1.0
 70
    11
 71
     3
 72
    20
 73
    16
 74
     0
 42
0.0000000001
 43
0.0000000001
 40
0.0
 40
0.0
 40
0.0
 40
0.0
 40
0.25
 40
0.25
 40
0.25
 40
0.25
 40
0.5
 40
0.5
 40
0.5
 40
0.5
 40
0.75
 40
0.75
 40
0.75
 40
0.75
 40
1.0
 40
1.0
 40
1.0
 40
1.0
 10
884.5675
 20
-361.5833
 30
0.0
 10
884.5675
 20
-361.5833
 30
0.0
 10
880.1064
 20
-361.5833
 30
0.0
 10
880.1064
 20
-361.5833
 30
0.0
 10
880.1064
 20
-361.5833
 30
0.0
 10
880.1593
 20
-360.3795
 30
0.0
 10
880.8882
 20
-359.0999
 30
0.0
 10
882.2277
 20
-359.0614
 30
0.0
 10
882.2277
 20
-359.0614
 30
0.0
 10
882.3412
 20
-357.6155
 30
0.0
 10
883.1216
 20
-356.7577
 30
0.0
 10
884.5675
 20
-356.6103
 30
0.0
 10
884.5675
 20
-356.6103
 30
0.0
 10
884.5675
 20
-356.6103
 30
0.0
 10
884.5675
 20
-361.5833
 30
0.0
 10
884.5675
 20
-361.5833
 30
0.0
  0
SPLINE
  5
165
330
1F
100
AcDbEntity
  8
layer 1
 62
   250
370
     9
100
AcDbSpline
210
0.0
220
0.0
230
1.0
 70
    11
 71
     3
 72
    20
 73
    16
 74
     0
 42
0.0000000001
 43
0.0000000001
 40
0.0
 40
0.0
 40
0.0
 40
0.0
 40
0.25
 40
0.25
 40
0.25
 40
0.25
 40
0.5
 40
0.5
 40
0.5
 40
0.5
 40
0.75
 40
0.75
 40
0.75
 40
0.75
 40
1.0
 40
1.0
 40
1.0
 40
1.0
 10
890.2259
 20
-361.5833
 30
0.0
 10
890.2259
 20
-361.5833
 30
0.0
 10
885.7649
 20
-361.5833
 30
0.0
 10
885.7649
 20
-361.5833
 30
0.0
 10
885.7649
 20
-361.5833
 30
0.0
 10
885.7649
 20
-361.5833
 30
0.0
 10
885.7649
 20
-356.6103
 30
0.0
 10
885.7649
 20
-356.6103
 30
0.0
 10
885.7649
 20
-356.6103
 30
0.0
 10
887.2107
 20
-356.7577
 30
0.0
 10
887.9911
 20
-357.6155
 30
0.0
 10
888.1046
 20
-359.0614
 30
0.0
 10
888.1046
 20
-359.0614
 30
0.0
 10
889.4439
 20
-359.0999
 30
0.0
 10
890.173
 20
-360.3793
 30
0.0
 10
890.2259
 20
-361.5833
 30
0.0
  0
SPLINE
  5
166
330
1F
100
AcDbEntity
  8
layer 1
 62
   250
370
     9
100
AcDbSpline
210
0.0
220
0.0
230
1.0
 70
    11
 71
     3
 72
    20
 73
    16
 74
     0
 42
0.0000000001
 43
0.0000000001
 40
0.0
 40
0.0
 40
0.0
 40
0.0
 40
0.25
 40
0.25
 40
0.25
 40
0.25
 40
0.5
 40
0.5
 40
0.5
 40
0.5
 40
0.75
 40
0.75
 40
0.75
 40
0.75
 40
1.0
 40
1.0
 40
1.0
 40
1.0
 10
895.8849
 20
-341.5174
 30
0.0
 10
895.8849
 20
-341.5174
 30
0.0
 10
891.4235
 20
-341.5163
 30
0.0
 10
891.4235
 20
-341.5163
 30
0.0
 10
891.4235
 20
-341.5163
 30
0.0
 10
891.4235
 20
-341.5163
 30
0.0
 10
891.4235
 20
-345.8897
 30
0.0
 10
891.4235
 20
-345.8897
 30
0.0
 10
891.4235
 20
-345.8897
 30
0.0
 10
892.7759
 20
-345.7744
 30
0.0
 10
893.6309
 20
-345.1332
 30
0.0
 10
893.7131
 20
-343.7124
 30
0.0
 10
893.7131
 20
-343.7124
 30
0.0
 10
895.0227
 20
-343.6878
 30
0.0
 10
895.7967
 20
-342.7831
 30
0.0
 10
895.8849
 20
-341.5174
 30
0.0
  0
SPLINE
  5
167
330
1F
100
AcDbEntity
  8
layer 1
 62
   250
370
     9
100
AcDbSpline
210
0.0
220
0.0
230
1.0
 70
    11
 71
     3
 72
    24
 73
    20
 74
     0
 42
0.0000000001
 43
0.0000000001
 40
0.0
 40
0.0
 40
0.0
 40
0.0
 40
0.2
 40
0.2
 40
0.2
 40
0.2
 40
0.4
 40
0.4
 40
0.4
 40
0.4
 40
0.6000000000000001
 40
0.6000000000000001
 40
0.6000000000000001
 40
0.6000000000000001
 40
0.8
 40
0.8
 40
0.8
 40
0.8
 40
1.0
 40
1.0
 40
1.0
 40
1.0
 10
895.8849
 20
-348.9677
 30
0.0
 10
895.8849
 20
-348.9677
 30
0.0
 10
895.8849
 20
-344.0094
 30
0.0
 10
895.8849
 20
-344.0094
 30
0.0
 10
895.8849
 20
-344.0094
 30
0.0
 10
895.5536
 20
-344.3892
 30
0.0
 10
895.1458
 20
-344.6316
 30
0.0
 10
894.6953
 20
-344.5972
 30
0.0
 10
894.6953
 20
-344.5972
 30
0.0
 10
894.3887
 20
-346.2791
 30
0.0
 10
893.0364
 20
-346.9778
 30
0.0
 10
891.4235
 20
-347.0617
 30
0.0
 10
891.4235
 20
-347.0617
 30
0.0
 10
891.4235
 20
-347.0617
 30
0.0
 10
891.4235
 20
-349.0204
 30
0.0
 10
891.4235
 20
-349.0204
 30
0.0
 10
891.4235
 20
-349.0204
 30
0.0
 10
891.7958
 20
-349.0204
 30
0.0
 10
895.8812
 20
-349.0494
 30
0.0
 10
895.8849
 20
-348.9677
 30
0.0
  0
SPLINE
  5
168
330
1F
100
AcDbEntity
  8
layer 1
 62
   250
370
     9
100
AcDbSpline
210
0.0
220
0.0
230
1.0
 70
    11
 71
     3
 72
    36
 73
    32
 74
     0
 42
0.0000000001
 43
0.0000000001
 40
0.0
 40
0.0
 40
0.0
 40
0.0
 40
0.125
 40
0.125
 40
0.125
 40
0.125
 40
0.25
 40
0.25
 40
0.25
 40
0.25
 40
0.375
 40
0.375
 40
0.375
 40
0.375
 40
0.5
 40
0.5
 40
0.5
 40
0.5
 40
0.625
 40
0.625
 40
0.625
 40
0.625
 40
0.75
 40
0.75
 40
0.75
 40
0.75
 40
0.875
 40
0.875
 40
0.875
 40
0.875
 40
1.0
 40
1.0
 40
1.0
 40
1.0
 10
895.8849
 20
-361.5833
 30
0.0
 10
895.8849
 20
-361.5833
 30
0.0
 10
891.423
 20
-361.5833
 30
0.0
 10
891.423
 20
-361.5833
 30
0.0
 10
891.423
 20
-361.5833
 30
0.0
 10
891.4466
 20
-359.9303
 30
0.0
 10
890.6155
 20
-358.3176
 30
0.0
 10
889.1573
 20
-358.1696
 30
0.0
 10
889.1573
 20
-358.1696
 30
0.0
 10
889.0385
 20
-356.6998
 30
0.0
 10
887.5058
 20
-355.4707
 30
0.0
 10
885.7649
 20
-355.4333
 30
0.0
 10
885.7649
 20
-355.4333
 30
0.0
 10
885.7649
 20
-355.4333
 30
0.0
 10
885.7649
 20
-353.4804
 30
0.0
 10
885.7649
 20
-353.4804
 30
0.0
 10
885.7649
 20
-353.4804
 30
0.0
 10
885.7649
 20
-353.4804
 30
0.0
 10
890.2275
 20
-353.4804
 30
0.0
 10
890.2275
 20
-353.4804
 30
0.0
 10
890.2275
 20
-353.4804
 30
0.0
 10
890.2857
 20
-355.3111
 30
0.0
 10
891.2588
 20
-356.4348
 30
0.0
 10
892.6132
 20
-356.5175
 30
0.0
 10
892.6132
 20
-356.5175
 30
0.0
 10
892.741
 20
-358.1286
 30
0.0
 10
894.1268
 20
-358.9278
 30
0.0
 10
895.8849
 20
-359.0256
 30
0.0
 10
895.8849
 20
-359.0256
 30
0.0
 10
895.8849
 20
-359.0256
 30
0.0
 10
895.8849
 20
-361.5833
 30
0.0
 10
895.8849
 20
-361.5833
 30
0.0
  0
ENDSEC
  0
SECTION
  2
OBJECTS
  0
DICTIONARY
  5
C
330
0
100
AcDbDictionary
281
     1
  3
ACAD_GROUP
350
D
  3
ACAD_LAYOUT
350
1A
  3
ACAD_MLEADERSTYLE
350
16A
  3
ACAD_MLINESTYLE
350
17
  3
ACAD_PLOTSETTINGS
350
19
  3
ACAD_PLOTSTYLENAME
350
E
  3
ACAD_SCALELIST
350
3B
  3
ACAD_TABLESTYLE
350
169
  3
ACAD_VISUALSTYLE
350
2A
  0
DICTIONARY
  5
D
102
{ACAD_REACTORS
330
C
102
}
330
C
100
AcDbDictionary
281
     1
  0
DICTIONARY
  5
1A
102
{ACAD_REACTORS
330
C
102
}
330
C
100
AcDbDictionary
281
     1
  3
Layout1
350
1E
  3
Layout2
350
26
  3
Model
350
22
  0
DICTIONARY
  5
16A
102
{ACAD_REACTORS
330
C
102
}
330
C
100
AcDbDictionary
281
     1
  0
DICTIONARY
  5
17
102
{ACAD_REACTORS
330
C
102
}
330
C
100
AcDbDictionary
281
     1
  3
Standard
350
18
  0
DICTIONARY
  5
19
102
{ACAD_REACTORS
330
C
102
}
330
C
100
AcDbDictionary
281
     1
  0
ACDBDICTIONARYWDFLT
  5
E
102
{ACAD_REACTORS
330
C
102
}
330
C
100
AcDbDictionary
281
     1
  3
Normal
350
F
100
AcDbDictionaryWithDefault
340
F
  0
DICTIONARY
  5
3B
102
{ACAD_REACTORS
330
C
102
}
330
C
100
AcDbDictionary
281
     1
  3
A0
350
3C
  3
A1
350
3D
  3
A2
350
3E
  3
A3
350
3F
  3
A4
350
40
  3
A5
350
41
  3
A6
350
42
  3
A7
350
43
  3
A8
350
44
  3
A9
350
45
  3
B0
350
46
  3
B1
350
47
  3
B2
350
48
  3
B3
350
49
  3
B4
350
4A
  3
B5
350
4B
  3
B6
350
4C
  3
B7
350
4D
  3
B8
350
4E
  3
B9
350
4F
  3
C0
350
50
  3
C1
350
51
  3
C2
350
52
  3
C3
350
53
  3
C4
350
54
  3
C5
350
55
  3
C6
350
56
  3
C7
350
57
  3
C8
350
58
  3
C9
350
59
  3
D0
350
5A
  3
D1
350
5B
  3
D2
350
5C
  0
DICTIONARY
  5
169
102
{ACAD_REACTORS
330
C
102
}
330
C
100
AcDbDictionary
281
     1
  0
DICTIONARY
  5
2A
102
{ACAD_REACTORS
330
C
102
}
330
C
100
AcDbDictionary
281
     1
  3
2dWireframe
350
2F
  3
3D Hidden
350
31
  3
3dWireframe
350
30
  3
Basic
350
32
  3
Brighten
350
36
  3
ColorChange
350
3A
  3
Conceptual
350
34
  3
Dim
350
35
  3
Facepattern
350
39
  3
Flat
350
2B
  3
FlatWithEdges
350
2C
  3
Gouraud
350
2D
  3
GouraudWithEdges
350
2E
  3
Linepattern
350
38
  3
Realistic
350
33
  3
Thicken
350
37
  0
LAYOUT
  5
1E
102
{ACAD_REACTORS
330
1A
102
}
330
1A
100
AcDbPlotSettings
  1

  2
none_device
  4

  6

 40
0.0
 41
0.0
 42
0.0
 43
0.0
 44
0.0
 45
0.0
 46
0.0
 47
0.0
 48
0.0
 49
0.0
140
0.0
141
0.0
142
1.0
143
1.0
 70
   688
 72
     0
 73
     0
 74
     5
  7

 75
    16
 76
     0
 77
     2
 78
   300
147
1.0
148
0.0
149
0.0
100
AcDbLayout
  1
Layout1
 70
     1
 71
     1
 10
0.0
 20
0.0
 11
12.0
 21
9.0
 12
0.0
 22
0.0
 32
0.0
 14
1.000000000000000E+20
 24
1.000000000000000E+20
 34
1.000000000000000E+20
 15
-1.000000000000000E+20
 25
-1.000000000000000E+20
 35
-1.000000000000000E+20
146
0.0
 13
0.0
 23
0.0
 33
0.0
 16
1.0
 26
0.0
 36
0.0
 17
0.0
 27
1.0
 37
0.0
 76
     0
330
1B
  0
LAYOUT
  5
26
102
{ACAD_REACTORS
330
1A
102
}
330
1A
100
AcDbPlotSettings
  1

  2
none_device
  4

  6

 40
0.0
 41
0.0
 42
0.0
 43
0.0
 44
0.0
 45
0.0
 46
0.0
 47
0.0
 48
0.0
 49
0.0
140
0.0
141
0.0
142
1.0
143
1.0
 70
   688
 72
     0
 73
     0
 74
     5
  7

 75
    16
 76
     0
 77
     2
 78
   300
147
1.0
148
0.0
149
0.0
100
AcDbLayout
  1
Layout2
 70
     1
 71
     2
 10
0.0
 20
0.0
 11
0.0
 21
0.0
 12
0.0
 22
0.0
 32
0.0
 14
0.0
 24
0.0
 34
0.0
 15
0.0
 25
0.0
 35
0.0
146
0.0
 13
0.0
 23
0.0
 33
0.0
 16
1.0
 26
0.0
 36
0.0
 17
0.0
 27
1.0
 37
0.0
 76
     0
330
23
  0
LAYOUT
  5
22
102
{ACAD_REACTORS
330
1A
102
}
330
1A
100
AcDbPlotSettings
  1

  2
none_device
  4

  6

 40
0.0
 41
0.0
 42
0.0
 43
0.0
 44
0.0
 45
0.0
 46
0.0
 47
0.0
 48
0.0
 49
0.0
140
0.0
141
0.0
142
1.0
143
1.0
 70
  1712
 72
     0
 73
     0
 74
     0
  7

 75
     0
 76
     0
 77
     2
 78
   300
147
1.0
148
0.0
149
0.0
100
AcDbLayout
  1
Model
 70
     1
 71
     0
 10
0.0
 20
0.0
 11
12.0
 21
9.0
 12
0.0
 22
0.0
 32
0.0
 14
837.4846
 24
-363.1844
 34
0.0
 15
897.486
 25
-288.0104
 35
0.0
146
0.0
 13
0.0
 23
0.0
 33
0.0
 16
1.0
 26
0.0
 36
0.0
 17
0.0
 27
1.0
 37
0.0
 76
     0
330
1F
331
29
  0
MLINESTYLE
  5
18
102
{ACAD_REACTORS
330
17
102
}
330
17
100
AcDbMlineStyle
  2
Standard
 70
     0
  3

 62
   256
 51
90.0
 52
90.0
 71
     2
 49
0.5
 62
   256
  6
BYLAYER
 49
-0.5
 62
   256
  6
BYLAYER
  0
ACDBPLACEHOLDER
  5
F
102
{ACAD_REACTORS
330
E
102
}
330
E
  0
SCALE
  5
3C
102
{ACAD_REACTORS
330
3B
102
}
330
3B
100
AcDbScale
 70
     0
300
1:1
140
1.0
141
1.0
290
     1
  0
SCALE
  5
3D
102
{ACAD_REACTORS
330
3B
102
}
330
3B
100
AcDbScale
 70
     0
300
1:2
140
1.0
141
2.0
290
     0
  0
SCALE
  5
3E
102
{ACAD_REACTORS
330
3B
102
}
330
3B
100
AcDbScale
 70
     0
300
1:4
140
1.0
141
4.0
290
     0
  0
SCALE
  5
3F
102
{ACAD_REACTORS
330
3B
102
}
330
3B
100
AcDbScale
 70
     0
300
1:5
140
1.0
141
5.0
290
     0
  0
SCALE
  5
40
102
{ACAD_REACTORS
330
3B
102
}
330
3B
100
AcDbScale
 70
     0
300
1:8
140
1.0
141
8.0
290
     0
  0
SCALE
  5
41
102
{ACAD_REACTORS
330
3B
102
}
330
3B
100
AcDbScale
 70
     0
300
1:10
140
1.0
141
10.0
290
     0
  0
SCALE
  5
42
102
{ACAD_REACTORS
330
3B
102
}
330
3B
100
AcDbScale
 70
     0
300
1:16
140
1.0
141
16.0
290
     0
  0
SCALE
  5
43
102
{ACAD_REACTORS
330
3B
102
}
330
3B
100
AcDbScale
 70
     0
300
1:20
140
1.0
141
20.0
290
     0
  0
SCALE
  5
44
102
{ACAD_REACTORS
330
3B
102
}
330
3B
100
AcDbScale
 70
     0
300
1:30
140
1.0
141
30.0
290
     0
  0
SCALE
  5
45
102
{ACAD_REACTORS
330
3B
102
}
330
3B
100
AcDbScale
 70
     0
300
1:40
140
1.0
141
40.0
290
     0
  0
SCALE
  5
46
102
{ACAD_REACTORS
330
3B
102
}
330
3B
100
AcDbScale
 70
     0
300
1:50
140
1.0
141
50.0
290
     0
  0
SCALE
  5
47
102
{ACAD_REACTORS
330
3B
102
}
330
3B
100
AcDbScale
 70
     0
300
1:100
140
1.0
141
100.0
290
     0
  0
SCALE
  5
48
102
{ACAD_REACTORS
330
3B
102
}
330
3B
100
AcDbScale
 70
     0
300
2:1
140
2.0
141
1.0
290
     0
  0
SCALE
  5
49
102
{ACAD_REACTORS
330
3B
102
}
330
3B
100
AcDbScale
 70
     0
300
4:1
140
4.0
141
1.0
290
     0
  0
SCALE
  5
4A
102
{ACAD_REACTORS
330
3B
102
}
330
3B
100
AcDbScale
 70
     0
300
8:1
140
8.0
141
1.0
290
     0
  0
SCALE
  5
4B
102
{ACAD_REACTORS
330
3B
102
}
330
3B
100
AcDbScale
 70
     0
300
10:1
140
10.0
141
1.0
290
     0
  0
SCALE
  5
4C
102
{ACAD_REACTORS
330
3B
102
}
330
3B
100
AcDbScale
 70
     0
300
100:1
140
100.0
141
1.0
290
     0
  0
SCALE
  5
4D
102
{ACAD_REACTORS
330
3B
102
}
330
3B
100
AcDbScale
 70
     0
300
1/128" = 1'-0"
140
0.0078125
141
12.0
290
     0
  0
SCALE
  5
4E
102
{ACAD_REACTORS
330
3B
102
}
330
3B
100
AcDbScale
 70
     0
300
1/64" = 1'-0"
140
0.015625
141
12.0
290
     0
  0
SCALE
  5
4F
102
{ACAD_REACTORS
330
3B
102
}
330
3B
100
AcDbScale
 70
     0
300
1/32" = 1'-0"
140
0.03125
141
12.0
290
     0
  0
SCALE
  5
50
102
{ACAD_REACTORS
330
3B
102
}
330
3B
100
AcDbScale
 70
     0
300
1/16" = 1'-0"
140
0.0625
141
12.0
290
     0
  0
SCALE
  5
51
102
{ACAD_REACTORS
330
3B
102
}
330
3B
100
AcDbScale
 70
     0
300
3/32" = 1'-0"
140
0.09375
141
12.0
290
     0
  0
SCALE
  5
52
102
{ACAD_REACTORS
330
3B
102
}
330
3B
100
AcDbScale
 70
     0
300
1/8" = 1'-0"
140
0.125
141
12.0
290
     0
  0
SCALE
  5
53
102
{ACAD_REACTORS
330
3B
102
}
330
3B
100
AcDbScale
 70
     0
300
3/16" = 1'-0"
140
0.1875
141
12.0
290
     0
  0
SCALE
  5
54
102
{ACAD_REACTORS
330
3B
102
}
330
3B
100
AcDbScale
 70
     0
300
1/4" = 1'-0"
140
0.25
141
12.0
290
     0
  0
SCALE
  5
55
102
{ACAD_REACTORS
330
3B
102
}
330
3B
100
AcDbScale
 70
     0
300
3/8" = 1'-0"
140
0.375
141
12.0
290
     0
  0
SCALE
  5
56
102
{ACAD_REACTORS
330
3B
102
}
330
3B
100
AcDbScale
 70
     0
300
1/2" = 1'-0"
140
0.5
141
12.0
290
     0
  0
SCALE
  5
57
102
{ACAD_REACTORS
330
3B
102
}
330
3B
100
AcDbScale
 70
     0
300
3/4" = 1'-0"
140
0.75
141
12.0
290
     0
  0
SCALE
  5
58
102
{ACAD_REACTORS
330
3B
102
}
330
3B
100
AcDbScale
 70
     0
300
1" = 1'-0"
140
1.0
141
12.0
290
     0
  0
SCALE
  5
59
102
{ACAD_REACTORS
330
3B
102
}
330
3B
100
AcDbScale
 70
     0
300
1-1/2" = 1'-0"
140
1.5
141
12.0
290
     0
  0
SCALE
  5
5A
102
{ACAD_REACTORS
330
3B
102
}
330
3B
100
AcDbScale
 70
     0
300
3" = 1'-0"
140
3.0
141
12.0
290
     0
  0
SCALE
  5
5B
102
{ACAD_REACTORS
330
3B
102
}
330
3B
100
AcDbScale
 70
     0
300
6" = 1'-0"
140
6.0
141
12.0
290
     0
  0
SCALE
  5
5C
102
{ACAD_REACTORS
330
3B
102
}
330
3B
100
AcDbScale
 70
     0
300
1'-0" = 1'-0"
140
12.0
141
12.0
290
     0
  0
VISUALSTYLE
  5
2F
102
{ACAD_REACTORS
330
2A
102
}
330
2A
100
AcDbVisualStyle
  2
2dWireframe
 70
     4
 71
     0
 72
     2
 73
     0
 90
        0
 40
-0.6
 41
-30.0
 62
     5
 63
     7
421
 16777215
 74
     1
 91
        4
 64
     7
 65
   257
 75
     1
175
     1
 42
1.0
 92
        0
 66
   257
 43
1.0
 76
     1
 77
     6
 78
     2
 67
     7
 79
     5
170
     0
171
     0
290
     0
174
     0
 93
        1
 44
0.0
173
     0
291
     0
 45
0.0
  0
VISUALSTYLE
  5
31
102
{ACAD_REACTORS
330
2A
102
}
330
2A
100
AcDbVisualStyle
  2
3D Hidden
 70
     6
 71
     1
 72
     2
 73
     2
 90
        0
 40
-0.6
 41
-30.0
 62
     5
 63
     7
421
 16777215
 74
     2
 91
        2
 64
     7
 65
   257
 75
     2
175
     1
 42
40.0
 92
        0
 66
   257
 43
1.0
 76
     1
 77
     6
 78
     2
 67
     7
 79
     3
170
     0
171
     0
290
     0
174
     0
 93
        1
 44
0.0
173
     0
291
     0
 45
0.0
  0
VISUALSTYLE
  5
30
102
{ACAD_REACTORS
330
2A
102
}
330
2A
100
AcDbVisualStyle
  2
3dWireframe
 70
     5
 71
     0
 72
     2
 73
     0
 90
        0
 40
-0.6
 41
-30.0
 62
     5
 63
     7
421
 16777215
 74
     1
 91
        4
 64
     7
 65
   257
 75
     1
175
     1
 42
1.0
 92
        0
 66
   257
 43
1.0
 76
     1
 77
     6
 78
     2
 67
     7
 79
     5
170
     0
171
     0
290
     0
174
     0
 93
        1
 44
0.0
173
     0
291
     0
 45
0.0
  0
VISUALSTYLE
  5
32
102
{ACAD_REACTORS
330
2A
102
}
330
2A
100
AcDbVisualStyle
  2
Basic
 70
     7
 71
     1
 72
     0
 73
     1
 90
        0
 40
-0.6
 41
-30.0
 62
     5
 63
     7
421
 16777215
 74
     0
 91
        4
 64
     7
 65
   257
 75
     1
175
     1
 42
1.0
 92
        8
 66
     7
 43
1.0
 76
     1
 77
     6
 78
     2
 67
     7
 79
     5
170
     0
171
     0
290
     0
174
     0
 93
        1
 44
0.0
173
     0
291
     1
 45
0.0
  0
VISUALSTYLE
  5
36
102
{ACAD_REACTORS
330
2A
102
}
330
2A
100
AcDbVisualStyle
  2
Brighten
 70
    12
 71
     2
 72
     2
 73
     0
 90
        0
 40
-0.6
 41
-30.0
 62
     5
 63
     7
421
 16777215
 74
     1
 91
        4
 64
     7
 65
   257
 75
     1
175
     1
 42
1.0
 92
        8
 66
     7
 43
1.0
 76
     1
 77
     6
 78
     2
 67
     7
 79
     5
170
     0
171
     0
290
     0
174
     0
 93
        1
 44
50.0
173
     0
291
     1
 45
0.0
  0
VISUALSTYLE
  5
3A
102
{ACAD_REACTORS
330
2A
102
}
330
2A
100
AcDbVisualStyle
  2
ColorChange
 70
    16
 71
     2
 72
     2
 73
     3
 90
        0
 40
-0.6
 41
-30.0
 62
     5
 63
     8
421
  8421504
 74
     1
 91
        4
 64
     7
 65
   257
 75
     1
175
     1
 42
1.0
 92
        8
 66
     8
424
  8421504
 43
1.0
 76
     1
 77
     6
 78
     2
 67
     7
 79
     5
170
     0
171
     0
290
     0
174
     0
 93
        1
 44
0.0
173
     0
291
     1
 45
0.0
  0
VISUALSTYLE
  5
34
102
{ACAD_REACTORS
330
2A
102
}
330
2A
100
AcDbVisualStyle
  2
Conceptual
 70
     9
 71
     3
 72
     2
 73
     0
 90
        0
 40
-0.6
 41
-30.0
 62
     5
 63
     7
421
 16777215
 74
     2
 91
        2
 64
     7
 65
   257
 75
     1
175
     1
 42
40.0
 92
        8
 66
     7
 43
1.0
 76
     1
 77
     6
 78
     2
 67
     7
 79
     3
170
     0
171
     0
290
     0
174
     0
 93
        1
 44
0.0
173
     0
291
     0
 45
0.0
  0
VISUALSTYLE
  5
35
102
{ACAD_REACTORS
330
2A
102
}
330
2A
100
AcDbVisualStyle
  2
Dim
 70
    11
 71
     2
 72
     2
 73
     0
 90
        0
 40
-0.6
 41
-30.0
 62
     5
 63
     7
421
 16777215
 74
     1
 91
        4
 64
     7
 65
   257
 75
     1
175
     1
 42
1.0
 92
        8
 66
     7
 43
1.0
 76
     1
 77
     6
 78
     2
 67
     7
 79
     5
170
     0
171
     0
290
     0
174
     0
 93
        1
 44
-50.0
173
     0
291
     1
 45
0.0
  0
VISUALSTYLE
  5
39
102
{ACAD_REACTORS
330
2A
102
}
330
2A
100
AcDbVisualStyle
  2
Facepattern
 70
    15
 71
     2
 72
     2
 73
     0
 90
        0
 40
-0.6
 41
-30.0
 62
     5
 63
     7
421
 16777215
 74
     1
 91
        4
 64
     7
 65
   257
 75
     1
175
     1
 42
1.0
 92
        8
 66
     7
 43
1.0
 76
     1
 77
     6
 78
     2
 67
     7
 79
     5
170
     0
171
     0
290
     0
174
     0
 93
        1
 44
0.0
173
     0
291
     1
 45
0.0
  0
VISUALSTYLE
  5
2B
102
{ACAD_REACTORS
330
2A
102
}
330
2A
100
AcDbVisualStyle
  2
Flat
 70
     0
 71
     2
 72
     1
 73
     1
 90
        2
 40
-0.6
 41
30.0
 62
     5
 63
     7
421
 16777215
 74
     0
 91
        4
 64
     7
 65
   257
 75
     1
175
     1
 42
1.0
 92
        8
 66
     7
 43
1.0
 76
     1
 77
     6
 78
     2
 67
     7
 79
     5
170
     0
171
     0
290
     0
174
     0
 93
       13
 44
0.0
173
     0
291
     1
 45
0.0
  0
VISUALSTYLE
  5
2C
102
{ACAD_REACTORS
330
2A
102
}
330
2A
100
AcDbVisualStyle
  2
FlatWithEdges
 70
     1
 71
     2
 72
     1
 73
     1
 90
        2
 40
-0.6
 41
30.0
 62
     5
 63
     7
421
 16777215
 74
     1
 91
        4
 64
     7
 65
   257
 75
     1
175
     1
 42
1.0
 92
        0
 66
   257
 43
1.0
 76
     1
 77
     6
 78
     2
 67
     7
 79
     5
170
     0
171
     0
290
     0
174
     0
 93
       13
 44
0.0
173
     0
291
     1
 45
0.0
  0
VISUALSTYLE
  5
2D
102
{ACAD_REACTORS
330
2A
102
}
330
2A
100
AcDbVisualStyle
  2
Gouraud
 70
     2
 71
     2
 72
     2
 73
     1
 90
        2
 40
-0.6
 41
30.0
 62
     5
 63
     7
421
 16777215
 74
     0
 91
        4
 64
     7
 65
   257
 75
     1
175
     1
 42
1.0
 92
        0
 66
     7
 43
1.0
 76
     1
 77
     6
 78
     2
 67
     7
 79
     5
170
     0
171
     0
290
     0
174
     0
 93
       13
 44
0.0
173
     0
291
     1
 45
0.0
  0
VISUALSTYLE
  5
2E
102
{ACAD_REACTORS
330
2A
102
}
330
2A
100
AcDbVisualStyle
  2
GouraudWithEdges
 70
     3
 71
     2
 72
     2
 73
     1
 90
        2
 40
-0.6
 41
30.0
 62
     5
 63
     7
421
 16777215
 74
     1
 91
        4
 64
     7
 65
   257
 75
     1
175
     1
 42
1.0
 92
        0
 66
   257
 43
1.0
 76
     1
 77
     6
 78
     2
 67
     7
 79
     5
170
     0
171
     0
290
     0
174
     0
 93
       13
 44
0.0
173
     0
291
     1
 45
0.0
  0
VISUALSTYLE
  5
38
102
{ACAD_REACTORS
330
2A
102
}
330
2A
100
AcDbVisualStyle
  2
Linepattern
 70
    14
 71
     2
 72
     2
 73
     0
 90
        0
 40
-0.6
 41
-30.0
 62
     5
 63
     7
421
 16777215
 74
     1
 91
        4
 64
     7
 65
   257
 75
     7
175
     7
 42
1.0
 92
        8
 66
     7
 43
1.0
 76
     1
 77
     6
 78
     2
 67
     7
 79
     5
170
     0
171
     0
290
     0
174
     0
 93
        1
 44
0.0
173
     0
291
     1
 45
0.0
  0
VISUALSTYLE
  5
33
102
{ACAD_REACTORS
330
2A
102
}
330
2A
100
AcDbVisualStyle
  2
Realistic
 70
     8
 71
     2
 72
     2
 73
     0
 90
        0
 40
-0.6
 41
-30.0
 62
     5
 63
     7
421
 16777215
 74
     1
 91
        0
 64
     7
 65
   257
 75
     1
175
     1
 42
1.0
 92
        8
 66
     8
424
  7895160
 43
1.0
 76
     1
 77
     6
 78
     2
 67
     7
 79
     5
170
     0
171
     0
290
     0
174
     0
 93
       13
 44
0.0
173
     0
291
     0
 45
0.0
  0
VISUALSTYLE
  5
37
102
{ACAD_REACTORS
330
2A
102
}
330
2A
100
AcDbVisualStyle
  2
Thicken
 70
    13
 71
     2
 72
     2
 73
     0
 90
        0
 40
-0.6
 41
-30.0
 62
     5
 63
     7
421
 16777215
 74
     1
 91
        4
 64
     7
 65
   257
 75
     1
175
     1
 42
1.0
 92
       12
 66
     7
 43
1.0
 76
     1
 77
     6
 78
     2
 67
     7
 79
     5
170
     0
171
     0
290
     0
174
     0
 93
        1
 44
0.0
173
     0
291
     1
 45
0.0
  0
ENDSEC
  0
EOF
