 0 
SECTION
 2 
ENTITIES
 0 
LINE
 10 
 150.8 
 20 
 125.9 
 30 
 0 
 11 
 148.348791503906 
 21 
 122.480798339844 
 31 
 0 
 0 
LINE
 10 
 148.348791503906 
 20 
 122.480798339844 
 30 
 0 
 11 
 145.566394042969 
 21 
 120.122399902344 
 31 
 0 
 0 
LINE
 10 
 145.566394042969 
 20 
 120.122399902344 
 30 
 0 
 11 
 141.929602050781 
 21 
 118.613598632813 
 31 
 0 
 0 
LINE
 10 
 141.929602050781 
 20 
 118.613598632813 
 30 
 0 
 11 
 136.915197753906 
 21 
 117.743200683594 
 31 
 0 
 0 
LINE
 10 
 136.915197753906 
 20 
 117.743200683594 
 30 
 0 
 11 
 130 
 21 
 117.3 
 31 
 0 
 0 
LINE
 10 
 130 
 20 
 117.3 
 30 
 0 
 11 
 126.408801269531 
 21 
 117.169604492188 
 31 
 0 
 0 
LINE
 10 
 126.408801269531 
 20 
 117.169604492188 
 30 
 0 
 11 
 122.774401855469 
 21 
 117.0248046875 
 31 
 0 
 0 
LINE
 10 
 122.774401855469 
 20 
 117.0248046875 
 30 
 0 
 11 
 119.365600585938 
 21 
 116.875207519531 
 31 
 0 
 0 
LINE
 10 
 119.365600585938 
 20 
 116.875207519531 
 30 
 0 
 11 
 116.451208496094 
 21 
 116.730407714844 
 31 
 0 
 0 
LINE
 10 
 116.451208496094 
 20 
 116.730407714844 
 30 
 0 
 11 
 114.3 
 21 
 116.6 
 31 
 0 
 0 
LINE
 10 
 114.3 
 20 
 116.6 
 30 
 0 
 11 
 112.635192871094 
 21 
 116.564794921875 
 31 
 0 
 0 
LINE
 10 
 112.635192871094 
 20 
 116.564794921875 
 30 
 0 
 11 
 111.181604003906 
 21 
 116.582397460938 
 31 
 0 
 0 
LINE
 10 
 111.181604003906 
 20 
 116.582397460938 
 30 
 0 
 11 
 110.030407714844 
 21 
 116.657604980469 
 31 
 0 
 0 
LINE
 10 
 110.030407714844 
 20 
 116.657604980469 
 30 
 0 
 11 
 109.272802734375 
 21 
 116.795202636719 
 31 
 0 
 0 
LINE
 10 
 109.272802734375 
 20 
 116.795202636719 
 30 
 0 
 11 
 109 
 21 
 117 
 31 
 0 
 0 
LINE
 10 
 109 
 20 
 117 
 30 
 0 
 11 
 110.595190429688 
 21 
 117.671997070313 
 31 
 0 
 0 
LINE
 10 
 110.595190429688 
 20 
 117.671997070313 
 30 
 0 
 11 
 114.801599121094 
 21 
 118.823999023438 
 31 
 0 
 0 
LINE
 10 
 114.801599121094 
 20 
 118.823999023438 
 30 
 0 
 11 
 120.750402832031 
 21 
 120.240002441406 
 31 
 0 
 0 
LINE
 10 
 120.750402832031 
 20 
 120.240002441406 
 30 
 0 
 11 
 127.572802734375 
 21 
 121.70400390625 
 31 
 0 
 0 
LINE
 10 
 127.572802734375 
 20 
 121.70400390625 
 30 
 0 
 11 
 134.4 
 21 
 123 
 31 
 0 
 0 
LINE
 10 
 134.4 
 20 
 123 
 30 
 0 
 11 
 136.613598632813 
 21 
 123.496789550781 
 31 
 0 
 0 
LINE
 10 
 136.613598632813 
 20 
 123.496789550781 
 30 
 0 
 11 
 138.980798339844 
 21 
 124.238403320313 
 31 
 0 
 0 
LINE
 10 
 138.980798339844 
 20 
 124.238403320313 
 30 
 0 
 11 
 141.391198730469 
 21 
 125.181604003906 
 31 
 0 
 0 
LINE
 10 
 141.391198730469 
 20 
 125.181604003906 
 30 
 0 
 11 
 143.734399414063 
 21 
 126.283203125 
 31 
 0 
 0 
LINE
 10 
 143.734399414063 
 20 
 126.283203125 
 30 
 0 
 11 
 145.9 
 21 
 127.5 
 31 
 0 
 0 
LINE
 10 
 145.9 
 20 
 127.5 
 30 
 0 
 11 
 149.731188964844 
 21 
 129.714392089844 
 31 
 0 
 0 
LINE
 10 
 149.731188964844 
 20 
 129.714392089844 
 30 
 0 
 11 
 152.045593261719 
 21 
 130.69521484375 
 31 
 0 
 0 
LINE
 10 
 152.045593261719 
 20 
 130.69521484375 
 30 
 0 
 11 
 152.934399414063 
 21 
 130.408801269531 
 31 
 0 
 0 
LINE
 10 
 152.934399414063 
 20 
 130.408801269531 
 30 
 0 
 11 
 152.488806152344 
 21 
 128.821594238281 
 31 
 0 
 0 
LINE
 10 
 152.488806152344 
 20 
 128.821594238281 
 30 
 0 
 11 
 150.8 
 21 
 125.9 
 31 
 0 
 0 
LINE
 10 
 89 
 20 
 117.1 
 30 
 0 
 11 
 89.0335998535156 
 21 
 116.735192871094 
 31 
 0 
 0 
LINE
 10 
 89.0335998535156 
 20 
 116.735192871094 
 30 
 0 
 11 
 89.1247985839844 
 21 
 116.269604492188 
 31 
 0 
 0 
LINE
 10 
 89.1247985839844 
 20 
 116.269604492188 
 30 
 0 
 11 
 89.2591979980469 
 21 
 115.746398925781 
 31 
 0 
 0 
LINE
 10 
 89.2591979980469 
 20 
 115.746398925781 
 30 
 0 
 11 
 89.4223999023438 
 21 
 115.208801269531 
 31 
 0 
 0 
LINE
 10 
 89.4223999023438 
 20 
 115.208801269531 
 30 
 0 
 11 
 89.6 
 21 
 114.7 
 31 
 0 
 0 
LINE
 10 
 89.6 
 20 
 114.7 
 30 
 0 
 11 
 89.5775939941406 
 21 
 113.55439453125 
 31 
 0 
 0 
LINE
 10 
 89.5775939941406 
 20 
 113.55439453125 
 30 
 0 
 11 
 88.6528015136719 
 21 
 112.783203125 
 31 
 0 
 0 
LINE
 10 
 88.6528015136719 
 20 
 112.783203125 
 30 
 0 
 11 
 86.97919921875 
 21 
 112.4248046875 
 31 
 0 
 0 
LINE
 10 
 86.97919921875 
 20 
 112.4248046875 
 30 
 0 
 11 
 84.710400390625 
 21 
 112.517602539063 
 31 
 0 
 0 
LINE
 10 
 84.710400390625 
 20 
 112.517602539063 
 30 
 0 
 11 
 82 
 21 
 113.1 
 31 
 0 
 0 
LINE
 10 
 82 
 20 
 113.1 
 30 
 0 
 11 
 79.6711975097656 
 21 
 113.926403808594 
 31 
 0 
 0 
LINE
 10 
 79.6711975097656 
 20 
 113.926403808594 
 30 
 0 
 11 
 78.4416015625 
 21 
 114.647192382813 
 31 
 0 
 0 
LINE
 10 
 78.4416015625 
 20 
 114.647192382813 
 30 
 0 
 11 
 78.3064025878906 
 21 
 115.324792480469 
 31 
 0 
 0 
LINE
 10 
 78.3064025878906 
 20 
 115.324792480469 
 30 
 0 
 11 
 79.2608032226563 
 21 
 116.021606445313 
 31 
 0 
 0 
LINE
 10 
 79.2608032226563 
 20 
 116.021606445313 
 30 
 0 
 11 
 81.3 
 21 
 116.8 
 31 
 0 
 0 
LINE
 10 
 81.3 
 20 
 116.8 
 30 
 0 
 11 
 83.6751953125 
 21 
 117.435998535156 
 31 
 0 
 0 
LINE
 10 
 83.6751953125 
 20 
 117.435998535156 
 30 
 0 
 11 
 85.7816040039063 
 21 
 117.783996582031 
 31 
 0 
 0 
LINE
 10 
 85.7816040039063 
 20 
 117.783996582031 
 30 
 0 
 11 
 87.4703979492188 
 21 
 117.843994140625 
 31 
 0 
 0 
LINE
 10 
 87.4703979492188 
 20 
 117.843994140625 
 30 
 0 
 11 
 88.5927978515625 
 21 
 117.616003417969 
 31 
 0 
 0 
LINE
 10 
 88.5927978515625 
 20 
 117.616003417969 
 30 
 0 
 11 
 89 
 21 
 117.1 
 31 
 0 
 0 
LINE
 10 
 181 
 20 
 79.6 
 30 
 0 
 11 
 181.102392578125 
 21 
 78.8976013183594 
 31 
 0 
 0 
LINE
 10 
 181.102392578125 
 20 
 78.8976013183594 
 30 
 0 
 11 
 181.38720703125 
 21 
 77.82080078125 
 31 
 0 
 0 
LINE
 10 
 181.38720703125 
 20 
 77.82080078125 
 30 
 0 
 11 
 181.82080078125 
 21 
 76.4752014160156 
 31 
 0 
 0 
LINE
 10 
 181.82080078125 
 20 
 76.4752014160156 
 30 
 0 
 11 
 182.369604492188 
 21 
 74.9664001464844 
 31 
 0 
 0 
LINE
 10 
 182.369604492188 
 20 
 74.9664001464844 
 30 
 0 
 11 
 183 
 21 
 73.4 
 31 
 0 
 0 
LINE
 10 
 183 
 20 
 73.4 
 30 
 0 
 11 
 183.618395996094 
 21 
 71.8903991699219 
 31 
 0 
 0 
LINE
 10 
 183.618395996094 
 20 
 71.8903991699219 
 30 
 0 
 11 
 184.131213378906 
 21 
 70.5391967773438 
 31 
 0 
 0 
LINE
 10 
 184.131213378906 
 20 
 70.5391967773438 
 30 
 0 
 11 
 184.504797363281 
 21 
 69.4328002929688 
 31 
 0 
 0 
LINE
 10 
 184.504797363281 
 20 
 69.4328002929688 
 30 
 0 
 11 
 184.705603027344 
 21 
 68.6576049804688 
 31 
 0 
 0 
LINE
 10 
 184.705603027344 
 20 
 68.6576049804688 
 30 
 0 
 11 
 184.7 
 21 
 68.3 
 31 
 0 
 0 
LINE
 10 
 184.7 
 20 
 68.3 
 30 
 0 
 11 
 184.286389160156 
 21 
 68.3176025390625 
 31 
 0 
 0 
LINE
 10 
 184.286389160156 
 20 
 68.3176025390625 
 30 
 0 
 11 
 183.359204101563 
 21 
 68.5848022460938 
 31 
 0 
 0 
LINE
 10 
 183.359204101563 
 20 
 68.5848022460938 
 30 
 0 
 11 
 182.028796386719 
 21 
 69.0632019042969 
 31 
 0 
 0 
LINE
 10 
 182.028796386719 
 20 
 69.0632019042969 
 30 
 0 
 11 
 180.405603027344 
 21 
 69.7143981933594 
 31 
 0 
 0 
LINE
 10 
 180.405603027344 
 20 
 69.7143981933594 
 30 
 0 
 11 
 178.6 
 21 
 70.5 
 31 
 0 
 0 
LINE
 10 
 178.6 
 20 
 70.5 
 30 
 0 
 11 
 172.8 
 21 
 73.1 
 31 
 0 
 0 
LINE
 10 
 172.8 
 20 
 73.1 
 30 
 0 
 11 
 175.9 
 21 
 76.2 
 31 
 0 
 0 
LINE
 10 
 175.9 
 20 
 76.2 
 30 
 0 
 11 
 176.875183105469 
 21 
 77.2592041015625 
 31 
 0 
 0 
LINE
 10 
 176.875183105469 
 20 
 77.2592041015625 
 30 
 0 
 11 
 177.725610351563 
 21 
 78.2416015625 
 31 
 0 
 0 
LINE
 10 
 177.725610351563 
 20 
 78.2416015625 
 30 
 0 
 11 
 178.398400878906 
 21 
 79.0943969726563 
 31 
 0 
 0 
LINE
 10 
 178.398400878906 
 20 
 79.0943969726563 
 30 
 0 
 11 
 178.840808105469 
 21 
 79.7648010253906 
 31 
 0 
 0 
LINE
 10 
 178.840808105469 
 20 
 79.7648010253906 
 30 
 0 
 11 
 179 
 21 
 80.2 
 31 
 0 
 0 
LINE
 10 
 179 
 20 
 80.2 
 30 
 0 
 11 
 179.055993652344 
 21 
 80.4367980957031 
 31 
 0 
 0 
LINE
 10 
 179.055993652344 
 20 
 80.4367980957031 
 30 
 0 
 11 
 179.2080078125 
 21 
 80.6544067382813 
 31 
 0 
 0 
LINE
 10 
 179.2080078125 
 20 
 80.6544067382813 
 30 
 0 
 11 
 179.432006835938 
 21 
 80.8335998535156 
 31 
 0 
 0 
LINE
 10 
 179.432006835938 
 20 
 80.8335998535156 
 30 
 0 
 11 
 179.70400390625 
 21 
 80.9552001953125 
 31 
 0 
 0 
LINE
 10 
 179.70400390625 
 20 
 80.9552001953125 
 30 
 0 
 11 
 180 
 21 
 81 
 31 
 0 
 0 
LINE
 10 
 180 
 20 
 81 
 30 
 0 
 11 
 180.334387207031 
 21 
 80.9311950683594 
 31 
 0 
 0 
LINE
 10 
 180.334387207031 
 20 
 80.9311950683594 
 30 
 0 
 11 
 180.611206054688 
 21 
 80.7376037597656 
 31 
 0 
 0 
LINE
 10 
 180.611206054688 
 20 
 80.7376037597656 
 30 
 0 
 11 
 180.82080078125 
 21 
 80.4384033203125 
 31 
 0 
 0 
LINE
 10 
 180.82080078125 
 20 
 80.4384033203125 
 30 
 0 
 11 
 180.953601074219 
 21 
 80.0528015136719 
 31 
 0 
 0 
LINE
 10 
 180.953601074219 
 20 
 80.0528015136719 
 30 
 0 
 11 
 181 
 21 
 79.6 
 31 
 0 
 0 
LINE
 10 
 232.5 
 20 
 245.9 
 30 
 0 
 11 
 225.139208984375 
 21 
 244.359204101563 
 31 
 0 
 0 
LINE
 10 
 225.139208984375 
 20 
 244.359204101563 
 30 
 0 
 11 
 218.3255859375 
 21 
 241.901586914063 
 31 
 0 
 0 
LINE
 10 
 218.3255859375 
 20 
 241.901586914063 
 30 
 0 
 11 
 211.7423828125 
 21 
 238.35439453125 
 31 
 0 
 0 
LINE
 10 
 211.7423828125 
 20 
 238.35439453125 
 30 
 0 
 11 
 205.072802734375 
 21 
 233.544799804688 
 31 
 0 
 0 
LINE
 10 
 205.072802734375 
 20 
 233.544799804688 
 30 
 0 
 11 
 198 
 21 
 227.3 
 31 
 0 
 0 
LINE
 10 
 198 
 20 
 227.3 
 30 
 0 
 11 
 194.991186523438 
 21 
 224.482373046875 
 31 
 0 
 0 
LINE
 10 
 194.991186523438 
 20 
 224.482373046875 
 30 
 0 
 11 
 192.649609375 
 21 
 222.855200195313 
 31 
 0 
 0 
LINE
 10 
 192.649609375 
 20 
 222.855200195313 
 30 
 0 
 11 
 190.202404785156 
 21 
 222.216796875 
 31 
 0 
 0 
LINE
 10 
 190.202404785156 
 20 
 222.216796875 
 30 
 0 
 11 
 186.876806640625 
 21 
 222.365600585938 
 31 
 0 
 0 
LINE
 10 
 186.876806640625 
 20 
 222.365600585938 
 30 
 0 
 11 
 181.9 
 21 
 223.1 
 31 
 0 
 0 
LINE
 10 
 181.9 
 20 
 223.1 
 30 
 0 
 11 
 177.935986328125 
 21 
 223.580786132813 
 31 
 0 
 0 
LINE
 10 
 177.935986328125 
 20 
 223.580786132813 
 30 
 0 
 11 
 174.644006347656 
 21 
 223.706396484375 
 31 
 0 
 0 
LINE
 10 
 174.644006347656 
 20 
 223.706396484375 
 30 
 0 
 11 
 172.144006347656 
 21 
 223.481591796875 
 31 
 0 
 0 
LINE
 10 
 172.144006347656 
 20 
 223.481591796875 
 30 
 0 
 11 
 170.556005859375 
 21 
 222.911206054688 
 31 
 0 
 0 
LINE
 10 
 170.556005859375 
 20 
 222.911206054688 
 30 
 0 
 11 
 170 
 21 
 222 
 31 
 0 
 0 
LINE
 10 
 170 
 20 
 222 
 30 
 0 
 11 
 170.432800292969 
 21 
 221.577587890625 
 31 
 0 
 0 
LINE
 10 
 170.432800292969 
 20 
 221.577587890625 
 30 
 0 
 11 
 171.638403320313 
 21 
 220.948828125 
 31 
 0 
 0 
LINE
 10 
 171.638403320313 
 20 
 220.948828125 
 30 
 0 
 11 
 173.477600097656 
 21 
 220.171215820313 
 31 
 0 
 0 
LINE
 10 
 173.477600097656 
 20 
 220.171215820313 
 30 
 0 
 11 
 175.811206054688 
 21 
 219.302416992188 
 31 
 0 
 0 
LINE
 10 
 175.811206054688 
 20 
 219.302416992188 
 30 
 0 
 11 
 178.5 
 21 
 218.4 
 31 
 0 
 0 
LINE
 10 
 178.5 
 20 
 218.4 
 30 
 0 
 11 
 181.188793945313 
 21 
 217.568798828125 
 31 
 0 
 0 
LINE
 10 
 181.188793945313 
 20 
 217.568798828125 
 30 
 0 
 11 
 183.522412109375 
 21 
 216.790405273438 
 31 
 0 
 0 
LINE
 10 
 183.522412109375 
 20 
 216.790405273438 
 30 
 0 
 11 
 185.361596679688 
 21 
 216.117602539063 
 31 
 0 
 0 
LINE
 10 
 185.361596679688 
 20 
 216.117602539063 
 30 
 0 
 11 
 186.567199707031 
 21 
 215.603198242188 
 31 
 0 
 0 
LINE
 10 
 186.567199707031 
 20 
 215.603198242188 
 30 
 0 
 11 
 187 
 21 
 215.3 
 31 
 0 
 0 
LINE
 10 
 187 
 20 
 215.3 
 30 
 0 
 11 
 186.898388671875 
 21 
 215.044799804688 
 31 
 0 
 0 
LINE
 10 
 186.898388671875 
 20 
 215.044799804688 
 30 
 0 
 11 
 186.619201660156 
 21 
 214.554418945313 
 31 
 0 
 0 
LINE
 10 
 186.619201660156 
 20 
 214.554418945313 
 30 
 0 
 11 
 186.200793457031 
 21 
 213.881591796875 
 31 
 0 
 0 
LINE
 10 
 186.200793457031 
 20 
 213.881591796875 
 30 
 0 
 11 
 185.681604003906 
 21 
 213.07919921875 
 31 
 0 
 0 
LINE
 10 
 185.681604003906 
 20 
 213.07919921875 
 30 
 0 
 11 
 185.1 
 21 
 212.2 
 31 
 0 
 0 
LINE
 10 
 185.1 
 20 
 212.2 
 30 
 0 
 11 
 184.446398925781 
 21 
 211.150390625 
 31 
 0 
 0 
LINE
 10 
 184.446398925781 
 20 
 211.150390625 
 30 
 0 
 11 
 183.831213378906 
 21 
 209.8751953125 
 31 
 0 
 0 
LINE
 10 
 183.831213378906 
 20 
 209.8751953125 
 30 
 0 
 11 
 183.292797851563 
 21 
 208.484790039063 
 31 
 0 
 0 
LINE
 10 
 183.292797851563 
 20 
 208.484790039063 
 30 
 0 
 11 
 182.869604492188 
 21 
 207.089599609375 
 31 
 0 
 0 
LINE
 10 
 182.869604492188 
 20 
 207.089599609375 
 30 
 0 
 11 
 182.6 
 21 
 205.8 
 31 
 0 
 0 
LINE
 10 
 182.6 
 20 
 205.8 
 30 
 0 
 11 
 181.834387207031 
 21 
 203.414379882813 
 31 
 0 
 0 
LINE
 10 
 181.834387207031 
 20 
 203.414379882813 
 30 
 0 
 11 
 180.483203125 
 21 
 201.283190917969 
 31 
 0 
 0 
LINE
 10 
 180.483203125 
 20 
 201.283190917969 
 30 
 0 
 11 
 178.704797363281 
 21 
 199.564807128906 
 31 
 0 
 0 
LINE
 10 
 178.704797363281 
 20 
 199.564807128906 
 30 
 0 
 11 
 176.657604980469 
 21 
 198.417602539063 
 31 
 0 
 0 
LINE
 10 
 176.657604980469 
 20 
 198.417602539063 
 30 
 0 
 11 
 174.5 
 21 
 198 
 31 
 0 
 0 
LINE
 10 
 174.5 
 20 
 198 
 30 
 0 
 11 
 172.526391601563 
 21 
 197.211999511719 
 31 
 0 
 0 
LINE
 10 
 172.526391601563 
 20 
 197.211999511719 
 30 
 0 
 11 
 169.67919921875 
 21 
 195.296008300781 
 31 
 0 
 0 
LINE
 10 
 169.67919921875 
 20 
 195.296008300781 
 30 
 0 
 11 
 166.788793945313 
 21 
 192.923999023438 
 31 
 0 
 0 
LINE
 10 
 166.788793945313 
 20 
 192.923999023438 
 30 
 0 
 11 
 164.685595703125 
 21 
 190.768005371094 
 31 
 0 
 0 
LINE
 10 
 164.685595703125 
 20 
 190.768005371094 
 30 
 0 
 11 
 164.2 
 21 
 189.5 
 31 
 0 
 0 
LINE
 10 
 164.2 
 20 
 189.5 
 30 
 0 
 11 
 164.522387695313 
 21 
 189.435192871094 
 31 
 0 
 0 
LINE
 10 
 164.522387695313 
 20 
 189.435192871094 
 30 
 0 
 11 
 165.195202636719 
 21 
 189.581591796875 
 31 
 0 
 0 
LINE
 10 
 165.195202636719 
 20 
 189.581591796875 
 30 
 0 
 11 
 166.136804199219 
 21 
 189.910400390625 
 31 
 0 
 0 
LINE
 10 
 166.136804199219 
 20 
 189.910400390625 
 30 
 0 
 11 
 167.265600585938 
 21 
 190.392810058594 
 31 
 0 
 0 
LINE
 10 
 167.265600585938 
 20 
 190.392810058594 
 30 
 0 
 11 
 168.5 
 21 
 191 
 31 
 0 
 0 
LINE
 10 
 168.5 
 20 
 191 
 30 
 0 
 11 
 172.625598144531 
 21 
 192.543994140625 
 31 
 0 
 0 
LINE
 10 
 172.625598144531 
 20 
 192.543994140625 
 30 
 0 
 11 
 175.896801757813 
 21 
 192.864001464844 
 31 
 0 
 0 
LINE
 10 
 175.896801757813 
 20 
 192.864001464844 
 30 
 0 
 11 
 177.795202636719 
 21 
 192.152001953125 
 31 
 0 
 0 
LINE
 10 
 177.795202636719 
 20 
 192.152001953125 
 30 
 0 
 11 
 177.802404785156 
 21 
 190.6 
 31 
 0 
 0 
LINE
 10 
 177.802404785156 
 20 
 190.6 
 30 
 0 
 11 
 175.4 
 21 
 188.4 
 31 
 0 
 0 
LINE
 10 
 175.4 
 20 
 188.4 
 30 
 0 
 11 
 174.499987792969 
 21 
 187.718408203125 
 31 
 0 
 0 
LINE
 10 
 174.499987792969 
 20 
 187.718408203125 
 30 
 0 
 11 
 173.840002441406 
 21 
 187.003198242188 
 31 
 0 
 0 
LINE
 10 
 173.840002441406 
 20 
 187.003198242188 
 30 
 0 
 11 
 173.419995117188 
 21 
 186.268811035156 
 31 
 0 
 0 
LINE
 10 
 173.419995117188 
 20 
 186.268811035156 
 30 
 0 
 11 
 173.240002441406 
 21 
 185.529602050781 
 31 
 0 
 0 
LINE
 10 
 173.240002441406 
 20 
 185.529602050781 
 30 
 0 
 11 
 173.3 
 21 
 184.8 
 31 
 0 
 0 
LINE
 10 
 173.3 
 20 
 184.8 
 30 
 0 
 11 
 173.432800292969 
 21 
 184.205603027344 
 31 
 0 
 0 
LINE
 10 
 173.432800292969 
 20 
 184.205603027344 
 30 
 0 
 11 
 173.4744140625 
 21 
 183.644799804688 
 31 
 0 
 0 
LINE
 10 
 173.4744140625 
 20 
 183.644799804688 
 30 
 0 
 11 
 173.42958984375 
 21 
 183.151208496094 
 31 
 0 
 0 
LINE
 10 
 173.42958984375 
 20 
 183.151208496094 
 30 
 0 
 11 
 173.303210449219 
 21 
 182.7583984375 
 31 
 0 
 0 
LINE
 10 
 173.303210449219 
 20 
 182.7583984375 
 30 
 0 
 11 
 173.1 
 21 
 182.5 
 31 
 0 
 0 
LINE
 10 
 173.1 
 20 
 182.5 
 30 
 0 
 11 
 172.886389160156 
 21 
 182.232800292969 
 31 
 0 
 0 
LINE
 10 
 172.886389160156 
 20 
 182.232800292969 
 30 
 0 
 11 
 172.735205078125 
 21 
 181.706396484375 
 31 
 0 
 0 
LINE
 10 
 172.735205078125 
 20 
 181.706396484375 
 30 
 0 
 11 
 172.660803222656 
 21 
 180.973608398438 
 31 
 0 
 0 
LINE
 10 
 172.660803222656 
 20 
 180.973608398438 
 30 
 0 
 11 
 172.677600097656 
 21 
 180.08720703125 
 31 
 0 
 0 
LINE
 10 
 172.677600097656 
 20 
 180.08720703125 
 30 
 0 
 11 
 172.8 
 21 
 179.1 
 31 
 0 
 0 
LINE
 10 
 172.8 
 20 
 179.1 
 30 
 0 
 11 
 172.902404785156 
 21 
 177.939196777344 
 31 
 0 
 0 
LINE
 10 
 172.902404785156 
 20 
 177.939196777344 
 30 
 0 
 11 
 172.827209472656 
 21 
 177.061608886719 
 31 
 0 
 0 
LINE
 10 
 172.827209472656 
 20 
 177.061608886719 
 30 
 0 
 11 
 172.540795898438 
 21 
 176.414404296875 
 31 
 0 
 0 
LINE
 10 
 172.540795898438 
 20 
 176.414404296875 
 30 
 0 
 11 
 172.009606933594 
 21 
 175.944799804688 
 31 
 0 
 0 
LINE
 10 
 172.009606933594 
 20 
 175.944799804688 
 30 
 0 
 11 
 171.2 
 21 
 175.6 
 31 
 0 
 0 
LINE
 10 
 171.2 
 20 
 175.6 
 30 
 0 
 11 
 170.524792480469 
 21 
 175.384802246094 
 31 
 0 
 0 
LINE
 10 
 170.524792480469 
 20 
 175.384802246094 
 30 
 0 
 11 
 169.854406738281 
 21 
 175.222399902344 
 31 
 0 
 0 
LINE
 10 
 169.854406738281 
 20 
 175.222399902344 
 30 
 0 
 11 
 169.2416015625 
 21 
 175.117602539063 
 31 
 0 
 0 
LINE
 10 
 169.2416015625 
 20 
 175.117602539063 
 30 
 0 
 11 
 168.739208984375 
 21 
 175.075207519531 
 31 
 0 
 0 
LINE
 10 
 168.739208984375 
 20 
 175.075207519531 
 30 
 0 
 11 
 168.4 
 21 
 175.1 
 31 
 0 
 0 
LINE
 10 
 168.4 
 20 
 175.1 
 30 
 0 
 11 
 166.203198242188 
 21 
 175.1248046875 
 31 
 0 
 0 
LINE
 10 
 166.203198242188 
 20 
 175.1248046875 
 30 
 0 
 11 
 165.129602050781 
 21 
 174.434411621094 
 31 
 0 
 0 
LINE
 10 
 165.129602050781 
 20 
 174.434411621094 
 30 
 0 
 11 
 165.174401855469 
 21 
 173.321594238281 
 31 
 0 
 0 
LINE
 10 
 165.174401855469 
 20 
 173.321594238281 
 30 
 0 
 11 
 166.332800292969 
 21 
 172.07919921875 
 31 
 0 
 0 
LINE
 10 
 166.332800292969 
 20 
 172.07919921875 
 30 
 0 
 11 
 168.6 
 21 
 171 
 31 
 0 
 0 
LINE
 10 
 168.6 
 20 
 171 
 30 
 0 
 11 
 170.12958984375 
 21 
 170.592797851563 
 31 
 0 
 0 
LINE
 10 
 170.12958984375 
 20 
 170.592797851563 
 30 
 0 
 11 
 171.932800292969 
 21 
 170.334399414063 
 31 
 0 
 0 
LINE
 10 
 171.932800292969 
 20 
 170.334399414063 
 30 
 0 
 11 
 173.97119140625 
 21 
 170.229602050781 
 31 
 0 
 0 
LINE
 10 
 173.97119140625 
 20 
 170.229602050781 
 30 
 0 
 11 
 176.206408691406 
 21 
 170.283203125 
 31 
 0 
 0 
LINE
 10 
 176.206408691406 
 20 
 170.283203125 
 30 
 0 
 11 
 178.6 
 21 
 170.5 
 31 
 0 
 0 
LINE
 10 
 178.6 
 20 
 170.5 
 30 
 0 
 11 
 181.26240234375 
 21 
 170.723999023438 
 31 
 0 
 0 
LINE
 10 
 181.26240234375 
 20 
 170.723999023438 
 30 
 0 
 11 
 183.099206542969 
 21 
 170.780004882813 
 31 
 0 
 0 
LINE
 10 
 183.099206542969 
 20 
 170.780004882813 
 30 
 0 
 11 
 184.244812011719 
 21 
 170.643994140625 
 31 
 0 
 0 
LINE
 10 
 184.244812011719 
 20 
 170.643994140625 
 30 
 0 
 11 
 184.833605957031 
 21 
 170.292004394531 
 31 
 0 
 0 
LINE
 10 
 184.833605957031 
 20 
 170.292004394531 
 30 
 0 
 11 
 185 
 21 
 169.7 
 31 
 0 
 0 
LINE
 10 
 185 
 20 
 169.7 
 30 
 0 
 11 
 184.823205566406 
 21 
 169.174389648438 
 31 
 0 
 0 
LINE
 10 
 184.823205566406 
 20 
 169.174389648438 
 30 
 0 
 11 
 184.305603027344 
 21 
 168.68720703125 
 31 
 0 
 0 
LINE
 10 
 184.305603027344 
 20 
 168.68720703125 
 30 
 0 
 11 
 183.466394042969 
 21 
 168.252795410156 
 31 
 0 
 0 
LINE
 10 
 183.466394042969 
 20 
 168.252795410156 
 30 
 0 
 11 
 182.3248046875 
 21 
 167.885607910156 
 31 
 0 
 0 
LINE
 10 
 182.3248046875 
 20 
 167.885607910156 
 30 
 0 
 11 
 180.9 
 21 
 167.6 
 31 
 0 
 0 
LINE
 10 
 180.9 
 20 
 167.6 
 30 
 0 
 11 
 176.41279296875 
 21 
 166.407189941406 
 31 
 0 
 0 
LINE
 10 
 176.41279296875 
 20 
 166.407189941406 
 30 
 0 
 11 
 171.642407226563 
 21 
 164.297595214844 
 31 
 0 
 0 
LINE
 10 
 171.642407226563 
 20 
 164.297595214844 
 30 
 0 
 11 
 166.665600585938 
 21 
 161.314404296875 
 31 
 0 
 0 
LINE
 10 
 166.665600585938 
 20 
 161.314404296875 
 30 
 0 
 11 
 161.559204101563 
 21 
 157.500805664063 
 31 
 0 
 0 
LINE
 10 
 161.559204101563 
 20 
 157.500805664063 
 30 
 0 
 11 
 156.4 
 21 
 152.9 
 31 
 0 
 0 
LINE
 10 
 156.4 
 20 
 152.9 
 30 
 0 
 11 
 151.94638671875 
 21 
 148.721594238281 
 31 
 0 
 0 
LINE
 10 
 151.94638671875 
 20 
 148.721594238281 
 30 
 0 
 11 
 148.419201660156 
 21 
 145.872802734375 
 31 
 0 
 0 
LINE
 10 
 148.419201660156 
 20 
 145.872802734375 
 30 
 0 
 11 
 145.448803710938 
 21 
 144.123205566406 
 31 
 0 
 0 
LINE
 10 
 145.448803710938 
 20 
 144.123205566406 
 30 
 0 
 11 
 142.665600585938 
 21 
 143.242407226563 
 31 
 0 
 0 
LINE
 10 
 142.665600585938 
 20 
 143.242407226563 
 30 
 0 
 11 
 139.7 
 21 
 143 
 31 
 0 
 0 
LINE
 10 
 139.7 
 20 
 143 
 30 
 0 
 11 
 138.56318359375 
 21 
 142.931201171875 
 31 
 0 
 0 
LINE
 10 
 138.56318359375 
 20 
 142.931201171875 
 30 
 0 
 11 
 137.373596191406 
 21 
 142.737609863281 
 31 
 0 
 0 
LINE
 10 
 137.373596191406 
 20 
 142.737609863281 
 30 
 0 
 11 
 136.222399902344 
 21 
 142.438403320313 
 31 
 0 
 0 
LINE
 10 
 136.222399902344 
 20 
 142.438403320313 
 30 
 0 
 11 
 135.200805664063 
 21 
 142.052807617188 
 31 
 0 
 0 
LINE
 10 
 135.200805664063 
 20 
 142.052807617188 
 30 
 0 
 11 
 134.4 
 21 
 141.6 
 31 
 0 
 0 
LINE
 10 
 134.4 
 20 
 141.6 
 30 
 0 
 11 
 133.564782714844 
 21 
 141.137585449219 
 31 
 0 
 0 
LINE
 10 
 133.564782714844 
 20 
 141.137585449219 
 30 
 0 
 11 
 132.446398925781 
 21 
 140.732800292969 
 31 
 0 
 0 
LINE
 10 
 132.446398925781 
 20 
 140.732800292969 
 30 
 0 
 11 
 131.145593261719 
 21 
 140.419201660156 
 31 
 0 
 0 
LINE
 10 
 131.145593261719 
 20 
 140.419201660156 
 30 
 0 
 11 
 129.763208007813 
 21 
 140.230395507813 
 31 
 0 
 0 
LINE
 10 
 129.763208007813 
 20 
 140.230395507813 
 30 
 0 
 11 
 128.4 
 21 
 140.2 
 31 
 0 
 0 
LINE
 10 
 128.4 
 20 
 140.2 
 30 
 0 
 11 
 123.186401367188 
 21 
 139.53359375 
 31 
 0 
 0 
LINE
 10 
 123.186401367188 
 20 
 139.53359375 
 30 
 0 
 11 
 113.379211425781 
 21 
 137.892810058594 
 31 
 0 
 0 
LINE
 10 
 113.379211425781 
 20 
 137.892810058594 
 30 
 0 
 11 
 101.968798828125 
 21 
 135.815209960938 
 31 
 0 
 0 
LINE
 10 
 101.968798828125 
 20 
 135.815209960938 
 30 
 0 
 11 
 91.94560546875 
 21 
 133.838403320313 
 31 
 0 
 0 
LINE
 10 
 91.94560546875 
 20 
 133.838403320313 
 30 
 0 
 11 
 86.3 
 21 
 132.5 
 31 
 0 
 0 
LINE
 10 
 86.3 
 20 
 132.5 
 30 
 0 
 11 
 85.8559936523438 
 21 
 132.256005859375 
 31 
 0 
 0 
LINE
 10 
 85.8559936523438 
 20 
 132.256005859375 
 30 
 0 
 11 
 85.6039978027344 
 21 
 131.868005371094 
 31 
 0 
 0 
LINE
 10 
 85.6039978027344 
 20 
 131.868005371094 
 30 
 0 
 11 
 85.5440002441406 
 21 
 131.311999511719 
 31 
 0 
 0 
LINE
 10 
 85.5440002441406 
 20 
 131.311999511719 
 30 
 0 
 11 
 85.6760009765625 
 21 
 130.564001464844 
 31 
 0 
 0 
LINE
 10 
 85.6760009765625 
 20 
 130.564001464844 
 30 
 0 
 11 
 86 
 21 
 129.6 
 31 
 0 
 0 
LINE
 10 
 86 
 20 
 129.6 
 30 
 0 
 11 
 86.3343994140625 
 21 
 127.550390625 
 31 
 0 
 0 
LINE
 10 
 86.3343994140625 
 20 
 127.550390625 
 30 
 0 
 11 
 85.1952026367188 
 21 
 126.235205078125 
 31 
 0 
 0 
LINE
 10 
 85.1952026367188 
 20 
 126.235205078125 
 30 
 0 
 11 
 82.068798828125 
 21 
 125.5248046875 
 31 
 0 
 0 
LINE
 10 
 82.068798828125 
 20 
 125.5248046875 
 30 
 0 
 11 
 76.4416015625 
 21 
 125.289599609375 
 31 
 0 
 0 
LINE
 10 
 76.4416015625 
 20 
 125.289599609375 
 30 
 0 
 11 
 67.8 
 21 
 125.4 
 31 
 0 
 0 
LINE
 10 
 67.8 
 20 
 125.4 
 30 
 0 
 11 
 60.3367980957031 
 21 
 125.634399414063 
 31 
 0 
 0 
LINE
 10 
 60.3367980957031 
 20 
 125.634399414063 
 30 
 0 
 11 
 55.3503967285156 
 21 
 125.97919921875 
 31 
 0 
 0 
LINE
 10 
 55.3503967285156 
 20 
 125.97919921875 
 30 
 0 
 11 
 51.7656005859375 
 21 
 126.616796875 
 31 
 0 
 0 
LINE
 10 
 51.7656005859375 
 20 
 126.616796875 
 30 
 0 
 11 
 48.5071990966797 
 21 
 127.729602050781 
 31 
 0 
 0 
LINE
 10 
 48.5071990966797 
 20 
 127.729602050781 
 30 
 0 
 11 
 44.5 
 21 
 129.5 
 31 
 0 
 0 
LINE
 10 
 44.5 
 20 
 129.5 
 30 
 0 
 11 
 41.7055969238281 
 21 
 130.777600097656 
 31 
 0 
 0 
LINE
 10 
 41.7055969238281 
 20 
 130.777600097656 
 30 
 0 
 11 
 38.7527984619141 
 21 
 132.136804199219 
 31 
 0 
 0 
LINE
 10 
 38.7527984619141 
 20 
 132.136804199219 
 30 
 0 
 11 
 35.8671997070313 
 21 
 133.467199707031 
 31 
 0 
 0 
LINE
 10 
 35.8671997070313 
 20 
 133.467199707031 
 30 
 0 
 11 
 33.2744018554688 
 21 
 134.6583984375 
 31 
 0 
 0 
LINE
 10 
 33.2744018554688 
 20 
 134.6583984375 
 30 
 0 
 11 
 31.2 
 21 
 135.6 
 31 
 0 
 0 
LINE
 10 
 31.2 
 20 
 135.6 
 30 
 0 
 11 
 29.5223999023438 
 21 
 136.348803710938 
 31 
 0 
 0 
LINE
 10 
 29.5223999023438 
 20 
 136.348803710938 
 30 
 0 
 11 
 28.0272003173828 
 21 
 137.006396484375 
 31 
 0 
 0 
LINE
 10 
 28.0272003173828 
 20 
 137.006396484375 
 30 
 0 
 11 
 26.8007995605469 
 21 
 137.529602050781 
 31 
 0 
 0 
LINE
 10 
 26.8007995605469 
 20 
 137.529602050781 
 30 
 0 
 11 
 25.9295989990234 
 21 
 137.875207519531 
 31 
 0 
 0 
LINE
 10 
 25.9295989990234 
 20 
 137.875207519531 
 30 
 0 
 11 
 25.5 
 21 
 138 
 31 
 0 
 0 
LINE
 10 
 25.5 
 20 
 138 
 30 
 0 
 11 
 24.9952011108398 
 21 
 138.181591796875 
 31 
 0 
 0 
LINE
 10 
 24.9952011108398 
 20 
 138.181591796875 
 30 
 0 
 11 
 23.8136016845703 
 21 
 138.684802246094 
 31 
 0 
 0 
LINE
 10 
 23.8136016845703 
 20 
 138.684802246094 
 30 
 0 
 11 
 22.0944000244141 
 21 
 139.447204589844 
 31 
 0 
 0 
LINE
 10 
 22.0944000244141 
 20 
 139.447204589844 
 30 
 0 
 11 
 19.9768005371094 
 21 
 140.406396484375 
 31 
 0 
 0 
LINE
 10 
 19.9768005371094 
 20 
 140.406396484375 
 30 
 0 
 11 
 17.6 
 21 
 141.5 
 31 
 0 
 0 
LINE
 10 
 17.6 
 20 
 141.5 
 30 
 0 
 11 
 15.1407989501953 
 21 
 142.593591308594 
 31 
 0 
 0 
LINE
 10 
 15.1407989501953 
 20 
 142.593591308594 
 30 
 0 
 11 
 12.9024002075195 
 21 
 143.552807617188 
 31 
 0 
 0 
LINE
 10 
 12.9024002075195 
 20 
 143.552807617188 
 30 
 0 
 11 
 11.0335998535156 
 21 
 144.315209960938 
 31 
 0 
 0 
LINE
 10 
 11.0335998535156 
 20 
 144.315209960938 
 30 
 0 
 11 
 9.68320007324219 
 21 
 144.818408203125 
 31 
 0 
 0 
LINE
 10 
 9.68320007324219 
 20 
 144.818408203125 
 30 
 0 
 11 
 9 
 21 
 145 
 31 
 0 
 0 
LINE
 10 
 9 
 20 
 145 
 30 
 0 
 11 
 8.26799926757813 
 21 
 144.484790039063 
 31 
 0 
 0 
LINE
 10 
 8.26799926757813 
 20 
 144.484790039063 
 30 
 0 
 11 
 7.41599960327148 
 21 
 143.230407714844 
 31 
 0 
 0 
LINE
 10 
 7.41599960327148 
 20 
 143.230407714844 
 30 
 0 
 11 
 6.65999984741211 
 21 
 141.673596191406 
 31 
 0 
 0 
LINE
 10 
 6.65999984741211 
 20 
 141.673596191406 
 30 
 0 
 11 
 6.21599998474121 
 21 
 140.251208496094 
 31 
 0 
 0 
LINE
 10 
 6.21599998474121 
 20 
 140.251208496094 
 30 
 0 
 11 
 6.3 
 21 
 139.4 
 31 
 0 
 0 
LINE
 10 
 6.3 
 20 
 139.4 
 30 
 0 
 11 
 8.05599975585938 
 21 
 138.436791992188 
 31 
 0 
 0 
LINE
 10 
 8.05599975585938 
 20 
 138.436791992188 
 30 
 0 
 11 
 12.1880004882813 
 21 
 136.350402832031 
 31 
 0 
 0 
LINE
 10 
 12.1880004882813 
 20 
 136.350402832031 
 30 
 0 
 11 
 17.7120010375977 
 21 
 133.625598144531 
 31 
 0 
 0 
LINE
 10 
 17.7120010375977 
 20 
 133.625598144531 
 30 
 0 
 11 
 23.6440002441406 
 21 
 130.747204589844 
 31 
 0 
 0 
LINE
 10 
 23.6440002441406 
 20 
 130.747204589844 
 30 
 0 
 11 
 29 
 21 
 128.2 
 31 
 0 
 0 
LINE
 10 
 29 
 20 
 128.2 
 30 
 0 
 11 
 39.4160003662109 
 21 
 123.264807128906 
 31 
 0 
 0 
LINE
 10 
 39.4160003662109 
 20 
 123.264807128906 
 30 
 0 
 11 
 47.4320007324219 
 21 
 119.222399902344 
 31 
 0 
 0 
LINE
 10 
 47.4320007324219 
 20 
 119.222399902344 
 30 
 0 
 11 
 53.4799987792969 
 21 
 115.83759765625 
 31 
 0 
 0 
LINE
 10 
 53.4799987792969 
 20 
 115.83759765625 
 30 
 0 
 11 
 57.9920043945313 
 21 
 112.8751953125 
 31 
 0 
 0 
LINE
 10 
 57.9920043945313 
 20 
 112.8751953125 
 30 
 0 
 11 
 61.4 
 21 
 110.1 
 31 
 0 
 0 
LINE
 10 
 61.4 
 20 
 110.1 
 30 
 0 
 11 
 62.5287963867188 
 21 
 109.145593261719 
 31 
 0 
 0 
LINE
 10 
 62.5287963867188 
 20 
 109.145593261719 
 30 
 0 
 11 
 63.6143981933594 
 21 
 108.536804199219 
 31 
 0 
 0 
LINE
 10 
 63.6143981933594 
 20 
 108.536804199219 
 30 
 0 
 11 
 64.8056030273438 
 21 
 108.235205078125 
 31 
 0 
 0 
LINE
 10 
 64.8056030273438 
 20 
 108.235205078125 
 30 
 0 
 11 
 66.2512023925781 
 21 
 108.202404785156 
 31 
 0 
 0 
LINE
 10 
 66.2512023925781 
 20 
 108.202404785156 
 30 
 0 
 11 
 68.1 
 21 
 108.4 
 31 
 0 
 0 
LINE
 10 
 68.1 
 20 
 108.4 
 30 
 0 
 11 
 71.2695922851563 
 21 
 108.440795898438 
 31 
 0 
 0 
LINE
 10 
 71.2695922851563 
 20 
 108.440795898438 
 30 
 0 
 11 
 74.376806640625 
 21 
 107.838403320313 
 31 
 0 
 0 
LINE
 10 
 74.376806640625 
 20 
 107.838403320313 
 30 
 0 
 11 
 76.9992004394531 
 21 
 106.765600585938 
 31 
 0 
 0 
LINE
 10 
 76.9992004394531 
 20 
 106.765600585938 
 30 
 0 
 11 
 78.714404296875 
 21 
 105.395202636719 
 31 
 0 
 0 
LINE
 10 
 78.714404296875 
 20 
 105.395202636719 
 30 
 0 
 11 
 79.1 
 21 
 103.9 
 31 
 0 
 0 
LINE
 10 
 79.1 
 20 
 103.9 
 30 
 0 
 11 
 78.9583923339844 
 21 
 103.07119140625 
 31 
 0 
 0 
LINE
 10 
 78.9583923339844 
 20 
 103.07119140625 
 30 
 0 
 11 
 78.7831970214844 
 21 
 101.637603759766 
 31 
 0 
 0 
LINE
 10 
 78.7831970214844 
 20 
 101.637603759766 
 30 
 0 
 11 
 78.5888000488281 
 21 
 99.7384033203125 
 31 
 0 
 0 
LINE
 10 
 78.5888000488281 
 20 
 99.7384033203125 
 30 
 0 
 11 
 78.389599609375 
 21 
 97.5128051757813 
 31 
 0 
 0 
LINE
 10 
 78.389599609375 
 20 
 97.5128051757813 
 30 
 0 
 11 
 78.2 
 21 
 95.1 
 31 
 0 
 0 
LINE
 10 
 78.2 
 20 
 95.1 
 30 
 0 
 11 
 78.1159973144531 
 21 
 90.6927978515625 
 31 
 0 
 0 
LINE
 10 
 78.1159973144531 
 20 
 90.6927978515625 
 30 
 0 
 11 
 78.3920043945313 
 21 
 86.3384033203125 
 31 
 0 
 0 
LINE
 10 
 78.3920043945313 
 20 
 86.3384033203125 
 30 
 0 
 11 
 79.1 
 21 
 81.6575988769531 
 31 
 0 
 0 
LINE
 10 
 79.1 
 20 
 81.6575988769531 
 30 
 0 
 11 
 80.3119995117188 
 21 
 76.2712036132813 
 31 
 0 
 0 
LINE
 10 
 80.3119995117188 
 20 
 76.2712036132813 
 30 
 0 
 11 
 82.1 
 21 
 69.8 
 31 
 0 
 0 
LINE
 10 
 82.1 
 20 
 69.8 
 30 
 0 
 11 
 83.616796875 
 21 
 63.7511962890625 
 31 
 0 
 0 
LINE
 10 
 83.616796875 
 20 
 63.7511962890625 
 30 
 0 
 11 
 84.1784057617188 
 21 
 58.6575988769531 
 31 
 0 
 0 
LINE
 10 
 84.1784057617188 
 20 
 58.6575988769531 
 30 
 0 
 11 
 83.7416015625 
 21 
 53.9383972167969 
 31 
 0 
 0 
LINE
 10 
 83.7416015625 
 20 
 53.9383972167969 
 30 
 0 
 11 
 82.2632019042969 
 21 
 49.0128021240234 
 31 
 0 
 0 
LINE
 10 
 82.2632019042969 
 20 
 49.0128021240234 
 30 
 0 
 11 
 79.7 
 21 
 43.3 
 31 
 0 
 0 
LINE
 10 
 79.7 
 20 
 43.3 
 30 
 0 
 11 
 78.1023986816406 
 21 
 40.3079986572266 
 31 
 0 
 0 
LINE
 10 
 78.1023986816406 
 20 
 40.3079986572266 
 30 
 0 
 11 
 76.3992065429688 
 21 
 37.4600006103516 
 31 
 0 
 0 
LINE
 10 
 76.3992065429688 
 20 
 37.4600006103516 
 30 
 0 
 11 
 74.7248046875 
 21 
 34.9480010986328 
 31 
 0 
 0 
LINE
 10 
 74.7248046875 
 20 
 34.9480010986328 
 30 
 0 
 11 
 73.2136047363281 
 21 
 32.9640014648438 
 31 
 0 
 0 
LINE
 10 
 73.2136047363281 
 20 
 32.9640014648438 
 30 
 0 
 11 
 72 
 21 
 31.7 
 31 
 0 
 0 
LINE
 10 
 72 
 20 
 31.7 
 30 
 0 
 11 
 69.7911987304688 
 21 
 30.1360015869141 
 31 
 0 
 0 
LINE
 10 
 69.7911987304688 
 20 
 30.1360015869141 
 30 
 0 
 11 
 67.2175964355469 
 21 
 28.8360015869141 
 31 
 0 
 0 
LINE
 10 
 67.2175964355469 
 20 
 28.8360015869141 
 30 
 0 
 11 
 64.4183959960938 
 21 
 27.847998046875 
 31 
 0 
 0 
LINE
 10 
 64.4183959960938 
 20 
 27.847998046875 
 30 
 0 
 11 
 61.5328002929688 
 21 
 27.2200012207031 
 31 
 0 
 0 
LINE
 10 
 61.5328002929688 
 20 
 27.2200012207031 
 30 
 0 
 11 
 58.7 
 21 
 27 
 31 
 0 
 0 
LINE
 10 
 58.7 
 20 
 27 
 30 
 0 
 11 
 57.8184020996094 
 21 
 26.9535980224609 
 31 
 0 
 0 
LINE
 10 
 57.8184020996094 
 20 
 26.9535980224609 
 30 
 0 
 11 
 57.1191955566406 
 21 
 26.82080078125 
 31 
 0 
 0 
LINE
 10 
 57.1191955566406 
 20 
 26.82080078125 
 30 
 0 
 11 
 56.6408020019531 
 21 
 26.6111999511719 
 31 
 0 
 0 
LINE
 10 
 56.6408020019531 
 20 
 26.6111999511719 
 30 
 0 
 11 
 56.4216003417969 
 21 
 26.3343994140625 
 31 
 0 
 0 
LINE
 10 
 56.4216003417969 
 20 
 26.3343994140625 
 30 
 0 
 11 
 56.5 
 21 
 26 
 31 
 0 
 0 
LINE
 10 
 56.5 
 20 
 26 
 30 
 0 
 11 
 57.5455993652344 
 21 
 25.3520004272461 
 31 
 0 
 0 
LINE
 10 
 57.5455993652344 
 20 
 25.3520004272461 
 30 
 0 
 11 
 59.6088012695313 
 21 
 25.0880004882813 
 31 
 0 
 0 
LINE
 10 
 59.6088012695313 
 20 
 25.0880004882813 
 30 
 0 
 11 
 62.6992004394531 
 21 
 25.2080001831055 
 31 
 0 
 0 
LINE
 10 
 62.6992004394531 
 20 
 25.2080001831055 
 30 
 0 
 11 
 66.8264038085938 
 21 
 25.7119995117188 
 31 
 0 
 0 
LINE
 10 
 66.8264038085938 
 20 
 25.7119995117188 
 30 
 0 
 11 
 72 
 21 
 26.6 
 31 
 0 
 0 
LINE
 10 
 72 
 20 
 26.6 
 30 
 0 
 11 
 75.8711975097656 
 21 
 27.3951995849609 
 31 
 0 
 0 
LINE
 10 
 75.8711975097656 
 20 
 27.3951995849609 
 30 
 0 
 11 
 78.8976013183594 
 21 
 28.3055999755859 
 31 
 0 
 0 
LINE
 10 
 78.8976013183594 
 20 
 28.3055999755859 
 30 
 0 
 11 
 81.6984008789063 
 21 
 29.6384002685547 
 31 
 0 
 0 
LINE
 10 
 81.6984008789063 
 20 
 29.6384002685547 
 30 
 0 
 11 
 84.8928039550781 
 21 
 31.7007995605469 
 31 
 0 
 0 
LINE
 10 
 84.8928039550781 
 20 
 31.7007995605469 
 30 
 0 
 11 
 89.1 
 21 
 34.8 
 31 
 0 
 0 
LINE
 10 
 89.1 
 20 
 34.8 
 30 
 0 
 11 
 92.9295959472656 
 21 
 37.7223999023438 
 31 
 0 
 0 
LINE
 10 
 92.9295959472656 
 20 
 37.7223999023438 
 30 
 0 
 11 
 95.4488037109375 
 21 
 39.8191986083984 
 31 
 0 
 0 
LINE
 10 
 95.4488037109375 
 20 
 39.8191986083984 
 30 
 0 
 11 
 96.883203125 
 21 
 41.3447998046875 
 31 
 0 
 0 
LINE
 10 
 96.883203125 
 20 
 41.3447998046875 
 30 
 0 
 11 
 97.4584045410156 
 21 
 42.5536010742188 
 31 
 0 
 0 
LINE
 10 
 97.4584045410156 
 20 
 42.5536010742188 
 30 
 0 
 11 
 97.4 
 21 
 43.7 
 31 
 0 
 0 
LINE
 10 
 97.4 
 20 
 43.7 
 30 
 0 
 11 
 97.2039978027344 
 21 
 44.668798828125 
 31 
 0 
 0 
LINE
 10 
 97.2039978027344 
 20 
 44.668798828125 
 30 
 0 
 11 
 97.2480041503906 
 21 
 45.3304016113281 
 31 
 0 
 0 
LINE
 10 
 97.2480041503906 
 20 
 45.3304016113281 
 30 
 0 
 11 
 97.5800048828125 
 21 
 45.7376007080078 
 31 
 0 
 0 
LINE
 10 
 97.5800048828125 
 20 
 45.7376007080078 
 30 
 0 
 11 
 98.2480041503906 
 21 
 45.9432006835938 
 31 
 0 
 0 
LINE
 10 
 98.2480041503906 
 20 
 45.9432006835938 
 30 
 0 
 11 
 99.3 
 21 
 46 
 31 
 0 
 0 
LINE
 10 
 99.3 
 20 
 46 
 30 
 0 
 11 
 100.119995117188 
 21 
 45.9424011230469 
 31 
 0 
 0 
LINE
 10 
 100.119995117188 
 20 
 45.9424011230469 
 30 
 0 
 11 
 100.868005371094 
 21 
 45.77919921875 
 31 
 0 
 0 
LINE
 10 
 100.868005371094 
 20 
 45.77919921875 
 30 
 0 
 11 
 101.49599609375 
 21 
 45.5247985839844 
 31 
 0 
 0 
LINE
 10 
 101.49599609375 
 20 
 45.5247985839844 
 30 
 0 
 11 
 101.955999755859 
 21 
 45.1936004638672 
 31 
 0 
 0 
LINE
 10 
 101.955999755859 
 20 
 45.1936004638672 
 30 
 0 
 11 
 102.2 
 21 
 44.8 
 31 
 0 
 0 
LINE
 10 
 102.2 
 20 
 44.8 
 30 
 0 
 11 
 102.647204589844 
 21 
 44.4295989990234 
 31 
 0 
 0 
LINE
 10 
 102.647204589844 
 20 
 44.4295989990234 
 30 
 0 
 11 
 103.521606445313 
 21 
 44.5248046875 
 31 
 0 
 0 
LINE
 10 
 103.521606445313 
 20 
 44.5248046875 
 30 
 0 
 11 
 104.842395019531 
 21 
 45.0952026367188 
 31 
 0 
 0 
LINE
 10 
 104.842395019531 
 20 
 45.0952026367188 
 30 
 0 
 11 
 106.62880859375 
 21 
 46.1503997802734 
 31 
 0 
 0 
LINE
 10 
 106.62880859375 
 20 
 46.1503997802734 
 30 
 0 
 11 
 108.9 
 21 
 47.7 
 31 
 0 
 0 
LINE
 10 
 108.9 
 20 
 47.7 
 30 
 0 
 11 
 108.824792480469 
 21 
 48.0207946777344 
 31 
 0 
 0 
LINE
 10 
 108.824792480469 
 20 
 48.0207946777344 
 30 
 0 
 11 
 108.394396972656 
 21 
 48.8024047851563 
 31 
 0 
 0 
LINE
 10 
 108.394396972656 
 20 
 48.8024047851563 
 30 
 0 
 11 
 107.661596679688 
 21 
 49.9536010742188 
 31 
 0 
 0 
LINE
 10 
 107.661596679688 
 20 
 49.9536010742188 
 30 
 0 
 11 
 106.67919921875 
 21 
 51.383203125 
 31 
 0 
 0 
LINE
 10 
 106.67919921875 
 20 
 51.383203125 
 30 
 0 
 11 
 105.5 
 21 
 53 
 31 
 0 
 0 
LINE
 10 
 105.5 
 20 
 53 
 30 
 0 
 11 
 104.040002441406 
 21 
 54.9023986816406 
 31 
 0 
 0 
LINE
 10 
 104.040002441406 
 20 
 54.9023986816406 
 30 
 0 
 11 
 102.747998046875 
 21 
 56.3152038574219 
 31 
 0 
 0 
LINE
 10 
 102.747998046875 
 20 
 56.3152038574219 
 30 
 0 
 11 
 101.576000976563 
 21 
 57.2768005371094 
 31 
 0 
 0 
LINE
 10 
 101.576000976563 
 20 
 57.2768005371094 
 30 
 0 
 11 
 100.476000976563 
 21 
 57.8255981445313 
 31 
 0 
 0 
LINE
 10 
 100.476000976563 
 20 
 57.8255981445313 
 30 
 0 
 11 
 99.4 
 21 
 58 
 31 
 0 
 0 
LINE
 10 
 99.4 
 20 
 58 
 30 
 0 
 11 
 98.6511962890625 
 21 
 58.0463989257813 
 31 
 0 
 0 
LINE
 10 
 98.6511962890625 
 20 
 58.0463989257813 
 30 
 0 
 11 
 97.9936096191406 
 21 
 58.17919921875 
 31 
 0 
 0 
LINE
 10 
 97.9936096191406 
 20 
 58.17919921875 
 30 
 0 
 11 
 97.4704040527344 
 21 
 58.3888000488281 
 31 
 0 
 0 
LINE
 10 
 97.4704040527344 
 20 
 58.3888000488281 
 30 
 0 
 11 
 97.1248046875 
 21 
 58.6656005859375 
 31 
 0 
 0 
LINE
 10 
 97.1248046875 
 20 
 58.6656005859375 
 30 
 0 
 11 
 97 
 21 
 59 
 31 
 0 
 0 
LINE
 10 
 97 
 20 
 59 
 30 
 0 
 11 
 98.2271911621094 
 21 
 59.4320007324219 
 31 
 0 
 0 
LINE
 10 
 98.2271911621094 
 20 
 59.4320007324219 
 30 
 0 
 11 
 101.249603271484 
 21 
 59.4559997558594 
 31 
 0 
 0 
LINE
 10 
 101.249603271484 
 20 
 59.4559997558594 
 30 
 0 
 11 
 105.078405761719 
 21 
 59.1440002441406 
 31 
 0 
 0 
LINE
 10 
 105.078405761719 
 20 
 59.1440002441406 
 30 
 0 
 11 
 108.7248046875 
 21 
 58.5679992675781 
 31 
 0 
 0 
LINE
 10 
 108.7248046875 
 20 
 58.5679992675781 
 30 
 0 
 11 
 111.2 
 21 
 57.8 
 31 
 0 
 0 
LINE
 10 
 111.2 
 20 
 57.8 
 30 
 0 
 11 
 111.9248046875 
 21 
 57.3215942382813 
 31 
 0 
 0 
LINE
 10 
 111.9248046875 
 20 
 57.3215942382813 
 30 
 0 
 11 
 112.438403320313 
 21 
 56.5648010253906 
 31 
 0 
 0 
LINE
 10 
 112.438403320313 
 20 
 56.5648010253906 
 30 
 0 
 11 
 112.769604492188 
 21 
 55.4671997070313 
 31 
 0 
 0 
LINE
 10 
 112.769604492188 
 20 
 55.4671997070313 
 30 
 0 
 11 
 112.947204589844 
 21 
 53.9664001464844 
 31 
 0 
 0 
LINE
 10 
 112.947204589844 
 20 
 53.9664001464844 
 30 
 0 
 11 
 113 
 21 
 52 
 31 
 0 
 0 
LINE
 10 
 113 
 20 
 52 
 30 
 0 
 11 
 112.87919921875 
 21 
 49.8320007324219 
 31 
 0 
 0 
LINE
 10 
 112.87919921875 
 20 
 49.8320007324219 
 30 
 0 
 11 
 112.465600585938 
 21 
 47.6399993896484 
 31 
 0 
 0 
LINE
 10 
 112.465600585938 
 20 
 47.6399993896484 
 30 
 0 
 11 
 111.682397460938 
 21 
 45.2320007324219 
 31 
 0 
 0 
LINE
 10 
 111.682397460938 
 20 
 45.2320007324219 
 30 
 0 
 11 
 110.452807617188 
 21 
 42.4160003662109 
 31 
 0 
 0 
LINE
 10 
 110.452807617188 
 20 
 42.4160003662109 
 30 
 0 
 11 
 108.7 
 21 
 39 
 31 
 0 
 0 
LINE
 10 
 108.7 
 20 
 39 
 30 
 0 
 11 
 105.876000976563 
 21 
 34.0424011230469 
 31 
 0 
 0 
LINE
 10 
 105.876000976563 
 20 
 34.0424011230469 
 30 
 0 
 11 
 102.932006835938 
 21 
 30.1072021484375 
 31 
 0 
 0 
LINE
 10 
 102.932006835938 
 20 
 30.1072021484375 
 30 
 0 
 11 
 99.7 
 21 
 27.0407989501953 
 31 
 0 
 0 
LINE
 10 
 99.7 
 20 
 27.0407989501953 
 30 
 0 
 11 
 96.0119995117188 
 21 
 24.689599609375 
 31 
 0 
 0 
LINE
 10 
 96.0119995117188 
 20 
 24.689599609375 
 30 
 0 
 11 
 91.7 
 21 
 22.9 
 31 
 0 
 0 
LINE
 10 
 91.7 
 20 
 22.9 
 30 
 0 
 11 
 90.2103942871094 
 21 
 22.3439987182617 
 31 
 0 
 0 
LINE
 10 
 90.2103942871094 
 20 
 22.3439987182617 
 30 
 0 
 11 
 89.0231994628906 
 21 
 21.7880004882813 
 31 
 0 
 0 
LINE
 10 
 89.0231994628906 
 20 
 21.7880004882813 
 30 
 0 
 11 
 88.2007995605469 
 21 
 21.2800003051758 
 31 
 0 
 0 
LINE
 10 
 88.2007995605469 
 20 
 21.2800003051758 
 30 
 0 
 11 
 87.8056030273438 
 21 
 20.868000793457 
 31 
 0 
 0 
LINE
 10 
 87.8056030273438 
 20 
 20.868000793457 
 30 
 0 
 11 
 87.9 
 21 
 20.6 
 31 
 0 
 0 
LINE
 10 
 87.9 
 20 
 20.6 
 30 
 0 
 11 
 89.4943908691406 
 21 
 20.3048004150391 
 31 
 0 
 0 
LINE
 10 
 89.4943908691406 
 20 
 20.3048004150391 
 30 
 0 
 11 
 92.4952026367188 
 21 
 20.3503997802734 
 31 
 0 
 0 
LINE
 10 
 92.4952026367188 
 20 
 20.3503997802734 
 30 
 0 
 11 
 96.3888061523438 
 21 
 20.6936004638672 
 31 
 0 
 0 
LINE
 10 
 96.3888061523438 
 20 
 20.6936004638672 
 30 
 0 
 11 
 100.661602783203 
 21 
 21.2912002563477 
 31 
 0 
 0 
LINE
 10 
 100.661602783203 
 20 
 21.2912002563477 
 30 
 0 
 11 
 104.8 
 21 
 22.1 
 31 
 0 
 0 
LINE
 10 
 104.8 
 20 
 22.1 
 30 
 0 
 11 
 108.944799804688 
 21 
 23.789599609375 
 31 
 0 
 0 
LINE
 10 
 108.944799804688 
 20 
 23.789599609375 
 30 
 0 
 11 
 113.9583984375 
 21 
 26.8808013916016 
 31 
 0 
 0 
LINE
 10 
 113.9583984375 
 20 
 26.8808013916016 
 30 
 0 
 11 
 118.789599609375 
 21 
 30.5671997070313 
 31 
 0 
 0 
LINE
 10 
 118.789599609375 
 20 
 30.5671997070313 
 30 
 0 
 11 
 122.38720703125 
 21 
 34.0424011230469 
 31 
 0 
 0 
LINE
 10 
 122.38720703125 
 20 
 34.0424011230469 
 30 
 0 
 11 
 123.7 
 21 
 36.5 
 31 
 0 
 0 
LINE
 10 
 123.7 
 20 
 36.5 
 30 
 0 
 11 
 123.955200195313 
 21 
 37.6831970214844 
 31 
 0 
 0 
LINE
 10 
 123.955200195313 
 20 
 37.6831970214844 
 30 
 0 
 11 
 124.781604003906 
 21 
 38.5256011962891 
 31 
 0 
 0 
LINE
 10 
 124.781604003906 
 20 
 38.5256011962891 
 30 
 0 
 11 
 125.910400390625 
 21 
 38.9264007568359 
 31 
 0 
 0 
LINE
 10 
 125.910400390625 
 20 
 38.9264007568359 
 30 
 0 
 11 
 127.072802734375 
 21 
 38.7847991943359 
 31 
 0 
 0 
LINE
 10 
 127.072802734375 
 20 
 38.7847991943359 
 30 
 0 
 11 
 128 
 21 
 38 
 31 
 0 
 0 
LINE
 10 
 128 
 20 
 38 
 30 
 0 
 11 
 128.412805175781 
 21 
 37.6279998779297 
 31 
 0 
 0 
LINE
 10 
 128.412805175781 
 20 
 37.6279998779297 
 30 
 0 
 11 
 129.070397949219 
 21 
 37.5920013427734 
 31 
 0 
 0 
LINE
 10 
 129.070397949219 
 20 
 37.5920013427734 
 30 
 0 
 11 
 130.001599121094 
 21 
 37.8919982910156 
 31 
 0 
 0 
LINE
 10 
 130.001599121094 
 20 
 37.8919982910156 
 30 
 0 
 11 
 131.235205078125 
 21 
 38.5279998779297 
 31 
 0 
 0 
LINE
 10 
 131.235205078125 
 20 
 38.5279998779297 
 30 
 0 
 11 
 132.8 
 21 
 39.5 
 31 
 0 
 0 
LINE
 10 
 132.8 
 20 
 39.5 
 30 
 0 
 11 
 136.9 
 21 
 42.2 
 31 
 0 
 0 
LINE
 10 
 136.9 
 20 
 42.2 
 30 
 0 
 11 
 133.4 
 21 
 46.6 
 31 
 0 
 0 
LINE
 10 
 133.4 
 20 
 46.6 
 30 
 0 
 11 
 132.192785644531 
 21 
 47.9423980712891 
 31 
 0 
 0 
LINE
 10 
 132.192785644531 
 20 
 47.9423980712891 
 30 
 0 
 11 
 130.918408203125 
 21 
 49.1552001953125 
 31 
 0 
 0 
LINE
 10 
 130.918408203125 
 20 
 49.1552001953125 
 30 
 0 
 11 
 129.677600097656 
 21 
 50.1567993164063 
 31 
 0 
 0 
LINE
 10 
 129.677600097656 
 20 
 50.1567993164063 
 30 
 0 
 11 
 128.571203613281 
 21 
 50.8656005859375 
 31 
 0 
 0 
LINE
 10 
 128.571203613281 
 20 
 50.8656005859375 
 30 
 0 
 11 
 127.7 
 21 
 51.2 
 31 
 0 
 0 
LINE
 10 
 127.7 
 20 
 51.2 
 30 
 0 
 11 
 126.806396484375 
 21 
 51.4111999511719 
 31 
 0 
 0 
LINE
 10 
 126.806396484375 
 20 
 51.4111999511719 
 30 
 0 
 11 
 126.143212890625 
 21 
 51.8336059570313 
 31 
 0 
 0 
LINE
 10 
 126.143212890625 
 20 
 51.8336059570313 
 30 
 0 
 11 
 125.676806640625 
 21 
 52.510400390625 
 31 
 0 
 0 
LINE
 10 
 125.676806640625 
 20 
 52.510400390625 
 30 
 0 
 11 
 125.373596191406 
 21 
 53.4848022460938 
 31 
 0 
 0 
LINE
 10 
 125.373596191406 
 20 
 53.4848022460938 
 30 
 0 
 11 
 125.2 
 21 
 54.8 
 31 
 0 
 0 
LINE
 10 
 125.2 
 20 
 54.8 
 30 
 0 
 11 
 124.9 
 21 
 58 
 31 
 0 
 0 
LINE
 10 
 124.9 
 20 
 58 
 30 
 0 
 11 
 131.5 
 21 
 58 
 31 
 0 
 0 
LINE
 10 
 131.5 
 20 
 58 
 30 
 0 
 11 
 135.880798339844 
 21 
 58.1551940917969 
 31 
 0 
 0 
LINE
 10 
 135.880798339844 
 20 
 58.1551940917969 
 30 
 0 
 11 
 138.922399902344 
 21 
 58.6656005859375 
 31 
 0 
 0 
LINE
 10 
 138.922399902344 
 20 
 58.6656005859375 
 30 
 0 
 11 
 140.773596191406 
 21 
 59.5984008789063 
 31 
 0 
 0 
LINE
 10 
 140.773596191406 
 20 
 59.5984008789063 
 30 
 0 
 11 
 141.583203125 
 21 
 61.02080078125 
 31 
 0 
 0 
LINE
 10 
 141.583203125 
 20 
 61.02080078125 
 30 
 0 
 11 
 141.5 
 21 
 63 
 31 
 0 
 0 
LINE
 10 
 141.5 
 20 
 63 
 30 
 0 
 11 
 141.306396484375 
 21 
 65.1463928222656 
 31 
 0 
 0 
LINE
 10 
 141.306396484375 
 20 
 65.1463928222656 
 30 
 0 
 11 
 141.67919921875 
 21 
 67.0192016601563 
 31 
 0 
 0 
LINE
 10 
 141.67919921875 
 20 
 67.0192016601563 
 30 
 0 
 11 
 142.608801269531 
 21 
 68.6088012695313 
 31 
 0 
 0 
LINE
 10 
 142.608801269531 
 20 
 68.6088012695313 
 30 
 0 
 11 
 144.085595703125 
 21 
 69.9056030273438 
 31 
 0 
 0 
LINE
 10 
 144.085595703125 
 20 
 69.9056030273438 
 30 
 0 
 11 
 146.1 
 21 
 70.9 
 31 
 0 
 0 
LINE
 10 
 146.1 
 20 
 70.9 
 30 
 0 
 11 
 150.092797851563 
 21 
 71.8711975097656 
 31 
 0 
 0 
LINE
 10 
 150.092797851563 
 20 
 71.8711975097656 
 30 
 0 
 11 
 154.546398925781 
 21 
 71.7096008300781 
 31 
 0 
 0 
LINE
 10 
 154.546398925781 
 20 
 71.7096008300781 
 30 
 0 
 11 
 160.593603515625 
 21 
 70.1223999023438 
 31 
 0 
 0 
LINE
 10 
 160.593603515625 
 20 
 70.1223999023438 
 30 
 0 
 11 
 169.367199707031 
 21 
 66.8168029785156 
 31 
 0 
 0 
LINE
 10 
 169.367199707031 
 20 
 66.8168029785156 
 30 
 0 
 11 
 182 
 21 
 61.5 
 31 
 0 
 0 
LINE
 10 
 182 
 20 
 61.5 
 30 
 0 
 11 
 185.063989257813 
 21 
 60.1983947753906 
 31 
 0 
 0 
LINE
 10 
 185.063989257813 
 20 
 60.1983947753906 
 30 
 0 
 11 
 188.440014648438 
 21 
 58.7672058105469 
 31 
 0 
 0 
LINE
 10 
 188.440014648438 
 20 
 58.7672058105469 
 30 
 0 
 11 
 191.864001464844 
 21 
 57.316796875 
 31 
 0 
 0 
LINE
 10 
 191.864001464844 
 20 
 57.316796875 
 30 
 0 
 11 
 195.072009277344 
 21 
 55.9575988769531 
 31 
 0 
 0 
LINE
 10 
 195.072009277344 
 20 
 55.9575988769531 
 30 
 0 
 11 
 197.8 
 21 
 54.8 
 31 
 0 
 0 
LINE
 10 
 197.8 
 20 
 54.8 
 30 
 0 
 11 
 201.242395019531 
 21 
 53.33359375 
 31 
 0 
 0 
LINE
 10 
 201.242395019531 
 20 
 53.33359375 
 30 
 0 
 11 
 203.355200195313 
 21 
 52.2607971191406 
 31 
 0 
 0 
LINE
 10 
 203.355200195313 
 20 
 52.2607971191406 
 30 
 0 
 11 
 204.416809082031 
 21 
 51.3512023925781 
 31 
 0 
 0 
LINE
 10 
 204.416809082031 
 20 
 51.3512023925781 
 30 
 0 
 11 
 204.705603027344 
 21 
 50.3744018554688 
 31 
 0 
 0 
LINE
 10 
 204.705603027344 
 20 
 50.3744018554688 
 30 
 0 
 11 
 204.5 
 21 
 49.1 
 31 
 0 
 0 
LINE
 10 
 204.5 
 20 
 49.1 
 30 
 0 
 11 
 203.873596191406 
 21 
 46.5824005126953 
 31 
 0 
 0 
LINE
 10 
 203.873596191406 
 20 
 46.5824005126953 
 30 
 0 
 11 
 203.544799804688 
 21 
 44.631201171875 
 31 
 0 
 0 
LINE
 10 
 203.544799804688 
 20 
 44.631201171875 
 30 
 0 
 11 
 203.499194335938 
 21 
 42.8287994384766 
 31 
 0 
 0 
LINE
 10 
 203.499194335938 
 20 
 42.8287994384766 
 30 
 0 
 11 
 203.722399902344 
 21 
 40.7575988769531 
 31 
 0 
 0 
LINE
 10 
 203.722399902344 
 20 
 40.7575988769531 
 30 
 0 
 11 
 204.2 
 21 
 38 
 31 
 0 
 0 
LINE
 10 
 204.2 
 20 
 38 
 30 
 0 
 11 
 205.487182617188 
 21 
 33.7919952392578 
 31 
 0 
 0 
LINE
 10 
 205.487182617188 
 20 
 33.7919952392578 
 30 
 0 
 11 
 207.921606445313 
 21 
 28.0959991455078 
 31 
 0 
 0 
LINE
 10 
 207.921606445313 
 20 
 28.0959991455078 
 30 
 0 
 11 
 210.802392578125 
 21 
 22.3039993286133 
 31 
 0 
 0 
LINE
 10 
 210.802392578125 
 20 
 22.3039993286133 
 30 
 0 
 11 
 213.42880859375 
 21 
 17.8080001831055 
 31 
 0 
 0 
LINE
 10 
 213.42880859375 
 20 
 17.8080001831055 
 30 
 0 
 11 
 215.1 
 21 
 16 
 31 
 0 
 0 
LINE
 10 
 215.1 
 20 
 16 
 30 
 0 
 11 
 215.34560546875 
 21 
 16.2167999267578 
 31 
 0 
 0 
LINE
 10 
 215.34560546875 
 20 
 16.2167999267578 
 30 
 0 
 11 
 215.696826171875 
 21 
 16.8224014282227 
 31 
 0 
 0 
LINE
 10 
 215.696826171875 
 20 
 16.8224014282227 
 30 
 0 
 11 
 216.115209960938 
 21 
 17.7496002197266 
 31 
 0 
 0 
LINE
 10 
 216.115209960938 
 20 
 17.7496002197266 
 30 
 0 
 11 
 216.56240234375 
 21 
 18.931201171875 
 31 
 0 
 0 
LINE
 10 
 216.56240234375 
 20 
 18.931201171875 
 30 
 0 
 11 
 217 
 21 
 20.3 
 31 
 0 
 0 
LINE
 10 
 217 
 20 
 20.3 
 30 
 0 
 11 
 217.416796875 
 21 
 21.6991989135742 
 31 
 0 
 0 
LINE
 10 
 217.416796875 
 20 
 21.6991989135742 
 30 
 0 
 11 
 217.814404296875 
 21 
 23.0695999145508 
 31 
 0 
 0 
LINE
 10 
 217.814404296875 
 20 
 23.0695999145508 
 30 
 0 
 11 
 218.173608398438 
 21 
 24.310400390625 
 31 
 0 
 0 
LINE
 10 
 218.173608398438 
 20 
 24.310400390625 
 30 
 0 
 11 
 218.475219726563 
 21 
 25.32080078125 
 31 
 0 
 0 
LINE
 10 
 218.475219726563 
 20 
 25.32080078125 
 30 
 0 
 11 
 218.7 
 21 
 26 
 31 
 0 
 0 
LINE
 10 
 218.7 
 20 
 26 
 30 
 0 
 11 
 218.935986328125 
 21 
 26.5727996826172 
 31 
 0 
 0 
LINE
 10 
 218.935986328125 
 20 
 26.5727996826172 
 30 
 0 
 11 
 219.196020507813 
 21 
 26.8384002685547 
 31 
 0 
 0 
LINE
 10 
 219.196020507813 
 20 
 26.8384002685547 
 30 
 0 
 11 
 219.528002929688 
 21 
 26.7776000976563 
 31 
 0 
 0 
LINE
 10 
 219.528002929688 
 20 
 26.7776000976563 
 30 
 0 
 11 
 219.980004882813 
 21 
 26.3712005615234 
 31 
 0 
 0 
LINE
 10 
 219.980004882813 
 20 
 26.3712005615234 
 30 
 0 
 11 
 220.6 
 21 
 25.6 
 31 
 0 
 0 
LINE
 10 
 220.6 
 20 
 25.6 
 30 
 0 
 11 
 221.052807617188 
 21 
 24.87919921875 
 31 
 0 
 0 
LINE
 10 
 221.052807617188 
 20 
 24.87919921875 
 30 
 0 
 11 
 221.438403320313 
 21 
 24.0816009521484 
 31 
 0 
 0 
LINE
 10 
 221.438403320313 
 20 
 24.0816009521484 
 30 
 0 
 11 
 221.73759765625 
 21 
 23.2744003295898 
 31 
 0 
 0 
LINE
 10 
 221.73759765625 
 20 
 23.2744003295898 
 30 
 0 
 11 
 221.931201171875 
 21 
 22.5248001098633 
 31 
 0 
 0 
LINE
 10 
 221.931201171875 
 20 
 22.5248001098633 
 30 
 0 
 11 
 222 
 21 
 21.9 
 31 
 0 
 0 
LINE
 10 
 222 
 20 
 21.9 
 30 
 0 
 11 
 222.056005859375 
 21 
 21.295198059082 
 31 
 0 
 0 
LINE
 10 
 222.056005859375 
 20 
 21.295198059082 
 30 
 0 
 11 
 222.2080078125 
 21 
 20.7095993041992 
 31 
 0 
 0 
LINE
 10 
 222.2080078125 
 20 
 20.7095993041992 
 30 
 0 
 11 
 222.432006835938 
 21 
 20.1863998413086 
 31 
 0 
 0 
LINE
 10 
 222.432006835938 
 20 
 20.1863998413086 
 30 
 0 
 11 
 222.70400390625 
 21 
 19.7688003540039 
 31 
 0 
 0 
LINE
 10 
 222.70400390625 
 20 
 19.7688003540039 
 30 
 0 
 11 
 223 
 21 
 19.5 
 31 
 0 
 0 
LINE
 10 
 223 
 20 
 19.5 
 30 
 0 
 11 
 223.323193359375 
 21 
 19.3192001342773 
 31 
 0 
 0 
LINE
 10 
 223.323193359375 
 20 
 19.3192001342773 
 30 
 0 
 11 
 223.569604492188 
 21 
 19.2536010742188 
 31 
 0 
 0 
LINE
 10 
 223.569604492188 
 20 
 19.2536010742188 
 30 
 0 
 11 
 223.734399414063 
 21 
 19.2984008789063 
 31 
 0 
 0 
LINE
 10 
 223.734399414063 
 20 
 19.2984008789063 
 30 
 0 
 11 
 223.81279296875 
 21 
 19.4488006591797 
 31 
 0 
 0 
LINE
 10 
 223.81279296875 
 20 
 19.4488006591797 
 30 
 0 
 11 
 223.8 
 21 
 19.7 
 31 
 0 
 0 
LINE
 10 
 223.8 
 20 
 19.7 
 30 
 0 
 11 
 224.007202148438 
 21 
 21.1279998779297 
 31 
 0 
 0 
LINE
 10 
 224.007202148438 
 20 
 21.1279998779297 
 30 
 0 
 11 
 224.881591796875 
 21 
 23.4919998168945 
 31 
 0 
 0 
LINE
 10 
 224.881591796875 
 20 
 23.4919998168945 
 30 
 0 
 11 
 226.082397460938 
 21 
 26.0720001220703 
 31 
 0 
 0 
LINE
 10 
 226.082397460938 
 20 
 26.0720001220703 
 30 
 0 
 11 
 227.268798828125 
 21 
 28.1480010986328 
 31 
 0 
 0 
LINE
 10 
 227.268798828125 
 20 
 28.1480010986328 
 30 
 0 
 11 
 228.1 
 21 
 29 
 31 
 0 
 0 
LINE
 10 
 228.1 
 20 
 29 
 30 
 0 
 11 
 228.431982421875 
 21 
 28.8976013183594 
 31 
 0 
 0 
LINE
 10 
 228.431982421875 
 20 
 28.8976013183594 
 30 
 0 
 11 
 228.81201171875 
 21 
 28.6127990722656 
 31 
 0 
 0 
LINE
 10 
 228.81201171875 
 20 
 28.6127990722656 
 30 
 0 
 11 
 229.215991210938 
 21 
 28.17919921875 
 31 
 0 
 0 
LINE
 10 
 229.215991210938 
 20 
 28.17919921875 
 30 
 0 
 11 
 229.619995117188 
 21 
 27.6304016113281 
 31 
 0 
 0 
LINE
 10 
 229.619995117188 
 20 
 27.6304016113281 
 30 
 0 
 11 
 230 
 21 
 27 
 31 
 0 
 0 
LINE
 10 
 230 
 20 
 27 
 30 
 0 
 11 
 230.436791992188 
 21 
 26.3695983886719 
 31 
 0 
 0 
LINE
 10 
 230.436791992188 
 20 
 26.3695983886719 
 30 
 0 
 11 
 230.998413085938 
 21 
 25.82080078125 
 31 
 0 
 0 
LINE
 10 
 230.998413085938 
 20 
 25.82080078125 
 30 
 0 
 11 
 231.6416015625 
 21 
 25.3871994018555 
 31 
 0 
 0 
LINE
 10 
 231.6416015625 
 20 
 25.3871994018555 
 30 
 0 
 11 
 232.323193359375 
 21 
 25.1024002075195 
 31 
 0 
 0 
LINE
 10 
 232.323193359375 
 20 
 25.1024002075195 
 30 
 0 
 11 
 233 
 21 
 25 
 31 
 0 
 0 
LINE
 10 
 233 
 20 
 25 
 30 
 0 
 11 
 233.799194335938 
 21 
 25.1039993286133 
 31 
 0 
 0 
LINE
 10 
 233.799194335938 
 20 
 25.1039993286133 
 30 
 0 
 11 
 234.305615234375 
 21 
 25.4960006713867 
 31 
 0 
 0 
LINE
 10 
 234.305615234375 
 20 
 25.4960006713867 
 30 
 0 
 11 
 234.56240234375 
 21 
 26.2960021972656 
 31 
 0 
 0 
LINE
 10 
 234.56240234375 
 20 
 26.2960021972656 
 30 
 0 
 11 
 234.612817382813 
 21 
 27.6239990234375 
 31 
 0 
 0 
LINE
 10 
 234.612817382813 
 20 
 27.6239990234375 
 30 
 0 
 11 
 234.5 
 21 
 29.6 
 31 
 0 
 0 
LINE
 10 
 234.5 
 20 
 29.6 
 30 
 0 
 11 
 234.559985351563 
 21 
 32.5223968505859 
 31 
 0 
 0 
LINE
 10 
 234.559985351563 
 20 
 32.5223968505859 
 30 
 0 
 11 
 235.171997070313 
 21 
 34.3071990966797 
 31 
 0 
 0 
LINE
 10 
 235.171997070313 
 20 
 34.3071990966797 
 30 
 0 
 11 
 236.264013671875 
 21 
 34.92080078125 
 31 
 0 
 0 
LINE
 10 
 236.264013671875 
 20 
 34.92080078125 
 30 
 0 
 11 
 237.763989257813 
 21 
 34.3295989990234 
 31 
 0 
 0 
LINE
 10 
 237.763989257813 
 20 
 34.3295989990234 
 30 
 0 
 11 
 239.6 
 21 
 32.5 
 31 
 0 
 0 
LINE
 10 
 239.6 
 20 
 32.5 
 30 
 0 
 11 
 240.583203125 
 21 
 31.3184020996094 
 31 
 0 
 0 
LINE
 10 
 240.583203125 
 20 
 31.3184020996094 
 30 
 0 
 11 
 241.297583007813 
 21 
 30.6311981201172 
 31 
 0 
 0 
LINE
 10 
 241.297583007813 
 20 
 30.6311981201172 
 30 
 0 
 11 
 241.810400390625 
 21 
 30.4048004150391 
 31 
 0 
 0 
LINE
 10 
 241.810400390625 
 20 
 30.4048004150391 
 30 
 0 
 11 
 242.188793945313 
 21 
 30.6055999755859 
 31 
 0 
 0 
LINE
 10 
 242.188793945313 
 20 
 30.6055999755859 
 30 
 0 
 11 
 242.5 
 21 
 31.2 
 31 
 0 
 0 
LINE
 10 
 242.5 
 20 
 31.2 
 30 
 0 
 11 
 242.680786132813 
 21 
 31.8024017333984 
 31 
 0 
 0 
LINE
 10 
 242.680786132813 
 20 
 31.8024017333984 
 30 
 0 
 11 
 242.746411132813 
 21 
 32.4911987304688 
 31 
 0 
 0 
LINE
 10 
 242.746411132813 
 20 
 32.4911987304688 
 30 
 0 
 11 
 242.701611328125 
 21 
 33.2088012695313 
 31 
 0 
 0 
LINE
 10 
 242.701611328125 
 20 
 33.2088012695313 
 30 
 0 
 11 
 242.551220703125 
 21 
 33.8976013183594 
 31 
 0 
 0 
LINE
 10 
 242.551220703125 
 20 
 33.8976013183594 
 30 
 0 
 11 
 242.3 
 21 
 34.5 
 31 
 0 
 0 
LINE
 10 
 242.3 
 20 
 34.5 
 30 
 0 
 11 
 242.027197265625 
 21 
 35.1599975585938 
 31 
 0 
 0 
LINE
 10 
 242.027197265625 
 20 
 35.1599975585938 
 30 
 0 
 11 
 241.821606445313 
 21 
 36.0119995117188 
 31 
 0 
 0 
LINE
 10 
 241.821606445313 
 20 
 36.0119995117188 
 30 
 0 
 11 
 241.702392578125 
 21 
 36.9840026855469 
 31 
 0 
 0 
LINE
 10 
 241.702392578125 
 20 
 36.9840026855469 
 30 
 0 
 11 
 241.688793945313 
 21 
 38.0040008544922 
 31 
 0 
 0 
LINE
 10 
 241.688793945313 
 20 
 38.0040008544922 
 30 
 0 
 11 
 241.8 
 21 
 39 
 31 
 0 
 0 
LINE
 10 
 241.8 
 20 
 39 
 30 
 0 
 11 
 242.039208984375 
 21 
 40.2727996826172 
 31 
 0 
 0 
LINE
 10 
 242.039208984375 
 20 
 40.2727996826172 
 30 
 0 
 11 
 242.369604492188 
 21 
 41.0223999023438 
 31 
 0 
 0 
LINE
 10 
 242.369604492188 
 20 
 41.0223999023438 
 30 
 0 
 11 
 242.930395507813 
 21 
 41.3255981445313 
 31 
 0 
 0 
LINE
 10 
 242.930395507813 
 20 
 41.3255981445313 
 30 
 0 
 11 
 243.860815429688 
 21 
 41.2592010498047 
 31 
 0 
 0 
LINE
 10 
 243.860815429688 
 20 
 41.2592010498047 
 30 
 0 
 11 
 245.3 
 21 
 40.9 
 31 
 0 
 0 
LINE
 10 
 245.3 
 20 
 40.9 
 30 
 0 
 11 
 247.387182617188 
 21 
 40.3367980957031 
 31 
 0 
 0 
LINE
 10 
 247.387182617188 
 20 
 40.3367980957031 
 30 
 0 
 11 
 248.533618164063 
 21 
 40.1384002685547 
 31 
 0 
 0 
LINE
 10 
 248.533618164063 
 20 
 40.1384002685547 
 30 
 0 
 11 
 248.806396484375 
 21 
 40.3816009521484 
 31 
 0 
 0 
LINE
 10 
 248.806396484375 
 20 
 40.3816009521484 
 30 
 0 
 11 
 248.272802734375 
 21 
 41.1432006835938 
 31 
 0 
 0 
LINE
 10 
 248.272802734375 
 20 
 41.1432006835938 
 30 
 0 
 11 
 247 
 21 
 42.5 
 31 
 0 
 0 
LINE
 10 
 247 
 20 
 42.5 
 30 
 0 
 11 
 245.680810546875 
 21 
 44.0743988037109 
 31 
 0 
 0 
LINE
 10 
 245.680810546875 
 20 
 44.0743988037109 
 30 
 0 
 11 
 245.206396484375 
 21 
 45.0871978759766 
 31 
 0 
 0 
LINE
 10 
 245.206396484375 
 20 
 45.0871978759766 
 30 
 0 
 11 
 245.581616210938 
 21 
 45.5527984619141 
 31 
 0 
 0 
LINE
 10 
 245.581616210938 
 20 
 45.5527984619141 
 30 
 0 
 11 
 246.811206054688 
 21 
 45.4856018066406 
 31 
 0 
 0 
LINE
 10 
 246.811206054688 
 20 
 45.4856018066406 
 30 
 0 
 11 
 248.9 
 21 
 44.9 
 31 
 0 
 0 
LINE
 10 
 248.9 
 20 
 44.9 
 30 
 0 
 11 
 251.065600585938 
 21 
 44.3159973144531 
 31 
 0 
 0 
LINE
 10 
 251.065600585938 
 20 
 44.3159973144531 
 30 
 0 
 11 
 252.376806640625 
 21 
 44.3319976806641 
 31 
 0 
 0 
LINE
 10 
 252.376806640625 
 20 
 44.3319976806641 
 30 
 0 
 11 
 252.79521484375 
 21 
 44.9 
 31 
 0 
 0 
LINE
 10 
 252.79521484375 
 20 
 44.9 
 30 
 0 
 11 
 252.282397460938 
 21 
 45.9720001220703 
 31 
 0 
 0 
LINE
 10 
 252.282397460938 
 20 
 45.9720001220703 
 30 
 0 
 11 
 250.8 
 21 
 47.5 
 31 
 0 
 0 
LINE
 10 
 250.8 
 20 
 47.5 
 30 
 0 
 11 
 249.052001953125 
 21 
 49.1175964355469 
 31 
 0 
 0 
LINE
 10 
 249.052001953125 
 20 
 49.1175964355469 
 30 
 0 
 11 
 248.264013671875 
 21 
 50.1688018798828 
 31 
 0 
 0 
LINE
 10 
 248.264013671875 
 20 
 50.1688018798828 
 30 
 0 
 11 
 248.460009765625 
 21 
 50.7111999511719 
 31 
 0 
 0 
LINE
 10 
 248.460009765625 
 20 
 50.7111999511719 
 30 
 0 
 11 
 249.664013671875 
 21 
 50.8024017333984 
 31 
 0 
 0 
LINE
 10 
 249.664013671875 
 20 
 50.8024017333984 
 30 
 0 
 11 
 251.9 
 21 
 50.5 
 31 
 0 
 0 
LINE
 10 
 251.9 
 20 
 50.5 
 30 
 0 
 11 
 253.183984375 
 21 
 50.3679962158203 
 31 
 0 
 0 
LINE
 10 
 253.183984375 
 20 
 50.3679962158203 
 30 
 0 
 11 
 254.347998046875 
 21 
 50.3320007324219 
 31 
 0 
 0 
LINE
 10 
 254.347998046875 
 20 
 50.3320007324219 
 30 
 0 
 11 
 255.319995117188 
 21 
 50.3920013427734 
 31 
 0 
 0 
LINE
 10 
 255.319995117188 
 20 
 50.3920013427734 
 30 
 0 
 11 
 256.028002929688 
 21 
 50.5480010986328 
 31 
 0 
 0 
LINE
 10 
 256.028002929688 
 20 
 50.5480010986328 
 30 
 0 
 11 
 256.4 
 21 
 50.8 
 31 
 0 
 0 
LINE
 10 
 256.4 
 20 
 50.8 
 30 
 0 
 11 
 255.828784179688 
 21 
 51.947998046875 
 31 
 0 
 0 
LINE
 10 
 255.828784179688 
 20 
 51.947998046875 
 30 
 0 
 11 
 253.126416015625 
 21 
 53.2880004882813 
 31 
 0 
 0 
LINE
 10 
 253.126416015625 
 20 
 53.2880004882813 
 30 
 0 
 11 
 248.609594726563 
 21 
 54.7239990234375 
 31 
 0 
 0 
LINE
 10 
 248.609594726563 
 20 
 54.7239990234375 
 30 
 0 
 11 
 242.59521484375 
 21 
 56.1600036621094 
 31 
 0 
 0 
LINE
 10 
 242.59521484375 
 20 
 56.1600036621094 
 30 
 0 
 11 
 235.4 
 21 
 57.5 
 31 
 0 
 0 
LINE
 10 
 235.4 
 20 
 57.5 
 30 
 0 
 11 
 229.10400390625 
 21 
 58.4119934082031 
 31 
 0 
 0 
LINE
 10 
 229.10400390625 
 20 
 58.4119934082031 
 30 
 0 
 11 
 223.936010742188 
 21 
 58.8679992675781 
 31 
 0 
 0 
LINE
 10 
 223.936010742188 
 20 
 58.8679992675781 
 30 
 0 
 11 
 219.776000976563 
 21 
 58.8679992675781 
 31 
 0 
 0 
LINE
 10 
 219.776000976563 
 20 
 58.8679992675781 
 30 
 0 
 11 
 216.50400390625 
 21 
 58.4119995117188 
 31 
 0 
 0 
LINE
 10 
 216.50400390625 
 20 
 58.4119995117188 
 30 
 0 
 11 
 214 
 21 
 57.5 
 31 
 0 
 0 
LINE
 10 
 214 
 20 
 57.5 
 30 
 0 
 11 
 212.552001953125 
 21 
 56.8320007324219 
 31 
 0 
 0 
LINE
 10 
 212.552001953125 
 20 
 56.8320007324219 
 30 
 0 
 11 
 211.392016601563 
 21 
 56.5239990234375 
 31 
 0 
 0 
LINE
 10 
 211.392016601563 
 20 
 56.5239990234375 
 30 
 0 
 11 
 210.256005859375 
 21 
 56.6 
 31 
 0 
 0 
LINE
 10 
 210.256005859375 
 20 
 56.6 
 30 
 0 
 11 
 208.880004882813 
 21 
 57.0840026855469 
 31 
 0 
 0 
LINE
 10 
 208.880004882813 
 20 
 57.0840026855469 
 30 
 0 
 11 
 207 
 21 
 58 
 31 
 0 
 0 
LINE
 10 
 207 
 20 
 58 
 30 
 0 
 11 
 204.93359375 
 21 
 59.127197265625 
 31 
 0 
 0 
LINE
 10 
 204.93359375 
 20 
 59.127197265625 
 30 
 0 
 11 
 203.884802246094 
 21 
 60.1055969238281 
 31 
 0 
 0 
LINE
 10 
 203.884802246094 
 20 
 60.1055969238281 
 30 
 0 
 11 
 203.839208984375 
 21 
 61.2903991699219 
 31 
 0 
 0 
LINE
 10 
 203.839208984375 
 20 
 61.2903991699219 
 30 
 0 
 11 
 204.782397460938 
 21 
 63.0368041992188 
 31 
 0 
 0 
LINE
 10 
 204.782397460938 
 20 
 63.0368041992188 
 30 
 0 
 11 
 206.7 
 21 
 65.7 
 31 
 0 
 0 
LINE
 10 
 206.7 
 20 
 65.7 
 30 
 0 
 11 
 208.772802734375 
 21 
 67.8487976074219 
 31 
 0 
 0 
LINE
 10 
 208.772802734375 
 20 
 67.8487976074219 
 30 
 0 
 11 
 211.114404296875 
 21 
 68.8984008789063 
 31 
 0 
 0 
LINE
 10 
 211.114404296875 
 20 
 68.8984008789063 
 30 
 0 
 11 
 213.849609375 
 21 
 68.8536010742188 
 31 
 0 
 0 
LINE
 10 
 213.849609375 
 20 
 68.8536010742188 
 30 
 0 
 11 
 217.103198242188 
 21 
 67.7192016601563 
 31 
 0 
 0 
LINE
 10 
 217.103198242188 
 20 
 67.7192016601563 
 30 
 0 
 11 
 221 
 21 
 65.5 
 31 
 0 
 0 
LINE
 10 
 221 
 20 
 65.5 
 30 
 0 
 11 
 222.850390625 
 21 
 64.4064025878906 
 31 
 0 
 0 
LINE
 10 
 222.850390625 
 20 
 64.4064025878906 
 30 
 0 
 11 
 224.715209960938 
 21 
 63.4471984863281 
 31 
 0 
 0 
LINE
 10 
 224.715209960938 
 20 
 63.4471984863281 
 30 
 0 
 11 
 226.464794921875 
 21 
 62.6847961425781 
 31 
 0 
 0 
LINE
 10 
 226.464794921875 
 20 
 62.6847961425781 
 30 
 0 
 11 
 227.969604492188 
 21 
 62.1816040039063 
 31 
 0 
 0 
LINE
 10 
 227.969604492188 
 20 
 62.1816040039063 
 30 
 0 
 11 
 229.1 
 21 
 62 
 31 
 0 
 0 
LINE
 10 
 229.1 
 20 
 62 
 30 
 0 
 11 
 230.277587890625 
 21 
 62.2223937988281 
 31 
 0 
 0 
LINE
 10 
 230.277587890625 
 20 
 62.2223937988281 
 30 
 0 
 11 
 231.848803710938 
 21 
 62.8671997070313 
 31 
 0 
 0 
LINE
 10 
 231.848803710938 
 20 
 62.8671997070313 
 30 
 0 
 11 
 233.751220703125 
 21 
 63.9007995605469 
 31 
 0 
 0 
LINE
 10 
 233.751220703125 
 20 
 63.9007995605469 
 30 
 0 
 11 
 235.922412109375 
 21 
 65.289599609375 
 31 
 0 
 0 
LINE
 10 
 235.922412109375 
 20 
 65.289599609375 
 30 
 0 
 11 
 238.3 
 21 
 67 
 31 
 0 
 0 
LINE
 10 
 238.3 
 20 
 67 
 30 
 0 
 11 
 242.785595703125 
 21 
 70.2567993164063 
 31 
 0 
 0 
LINE
 10 
 242.785595703125 
 20 
 70.2567993164063 
 30 
 0 
 11 
 246.392822265625 
 21 
 72.2944030761719 
 31 
 0 
 0 
LINE
 10 
 246.392822265625 
 20 
 72.2944030761719 
 30 
 0 
 11 
 249.4671875 
 21 
 73.2135986328125 
 31 
 0 
 0 
LINE
 10 
 249.4671875 
 20 
 73.2135986328125 
 30 
 0 
 11 
 252.35439453125 
 21 
 73.1152038574219 
 31 
 0 
 0 
LINE
 10 
 252.35439453125 
 20 
 73.1152038574219 
 30 
 0 
 11 
 255.4 
 21 
 72.1 
 31 
 0 
 0 
LINE
 10 
 255.4 
 20 
 72.1 
 30 
 0 
 11 
 256.77841796875 
 21 
 71.4487915039063 
 31 
 0 
 0 
LINE
 10 
 256.77841796875 
 20 
 71.4487915039063 
 30 
 0 
 11 
 258.09921875 
 21 
 70.7304016113281 
 31 
 0 
 0 
LINE
 10 
 258.09921875 
 20 
 70.7304016113281 
 30 
 0 
 11 
 259.280810546875 
 21 
 69.9976013183594 
 31 
 0 
 0 
LINE
 10 
 259.280810546875 
 20 
 69.9976013183594 
 30 
 0 
 11 
 260.2416015625 
 21 
 69.3031982421875 
 31 
 0 
 0 
LINE
 10 
 260.2416015625 
 20 
 69.3031982421875 
 30 
 0 
 11 
 260.9 
 21 
 68.7 
 31 
 0 
 0 
LINE
 10 
 260.9 
 20 
 68.7 
 30 
 0 
 11 
 262.144775390625 
 21 
 67.5223999023438 
 31 
 0 
 0 
LINE
 10 
 262.144775390625 
 20 
 67.5223999023438 
 30 
 0 
 11 
 263.346411132813 
 21 
 67.1032043457031 
 31 
 0 
 0 
LINE
 10 
 263.346411132813 
 20 
 67.1032043457031 
 30 
 0 
 11 
 264.485620117188 
 21 
 67.4328002929688 
 31 
 0 
 0 
LINE
 10 
 264.485620117188 
 20 
 67.4328002929688 
 30 
 0 
 11 
 265.543212890625 
 21 
 68.5015991210938 
 31 
 0 
 0 
LINE
 10 
 265.543212890625 
 20 
 68.5015991210938 
 30 
 0 
 11 
 266.5 
 21 
 70.3 
 31 
 0 
 0 
LINE
 10 
 266.5 
 20 
 70.3 
 30 
 0 
 11 
 267.7927734375 
 21 
 73.6504028320313 
 31 
 0 
 0 
LINE
 10 
 267.7927734375 
 20 
 73.6504028320313 
 30 
 0 
 11 
 268.202392578125 
 21 
 75.7432006835938 
 31 
 0 
 0 
LINE
 10 
 268.202392578125 
 20 
 75.7432006835938 
 30 
 0 
 11 
 267.565600585938 
 21 
 76.8807983398438 
 31 
 0 
 0 
LINE
 10 
 267.565600585938 
 20 
 76.8807983398438 
 30 
 0 
 11 
 265.719213867188 
 21 
 77.3656005859375 
 31 
 0 
 0 
LINE
 10 
 265.719213867188 
 20 
 77.3656005859375 
 30 
 0 
 11 
 262.5 
 21 
 77.5 
 31 
 0 
 0 
LINE
 10 
 262.5 
 20 
 77.5 
 30 
 0 
 11 
 256.5 
 21 
 77.5 
 31 
 0 
 0 
LINE
 10 
 256.5 
 20 
 77.5 
 30 
 0 
 11 
 256.2 
 21 
 81.7 
 31 
 0 
 0 
LINE
 10 
 256.2 
 20 
 81.7 
 30 
 0 
 11 
 255.847192382813 
 21 
 84.3368041992188 
 31 
 0 
 0 
LINE
 10 
 255.847192382813 
 20 
 84.3368041992188 
 30 
 0 
 11 
 254.625610351563 
 21 
 85.9464050292969 
 31 
 0 
 0 
LINE
 10 
 254.625610351563 
 20 
 85.9464050292969 
 30 
 0 
 11 
 251.570385742188 
 21 
 86.7976013183594 
 31 
 0 
 0 
LINE
 10 
 251.570385742188 
 20 
 86.7976013183594 
 30 
 0 
 11 
 245.716796875 
 21 
 87.1592041015625 
 31 
 0 
 0 
LINE
 10 
 245.716796875 
 20 
 87.1592041015625 
 30 
 0 
 11 
 236.1 
 21 
 87.3 
 31 
 0 
 0 
LINE
 10 
 236.1 
 20 
 87.3 
 30 
 0 
 11 
 220.8 
 21 
 87.5 
 31 
 0 
 0 
LINE
 10 
 220.8 
 20 
 87.5 
 30 
 0 
 11 
 216.5 
 21 
 92.2 
 31 
 0 
 0 
LINE
 10 
 216.5 
 20 
 92.2 
 30 
 0 
 11 
 212.3 
 21 
 96.9 
 31 
 0 
 0 
LINE
 10 
 212.3 
 20 
 96.9 
 30 
 0 
 11 
 212.7 
 21 
 120.7 
 31 
 0 
 0 
LINE
 10 
 212.7 
 20 
 120.7 
 30 
 0 
 11 
 212.867993164063 
 21 
 128.512805175781 
 31 
 0 
 0 
LINE
 10 
 212.867993164063 
 20 
 128.512805175781 
 30 
 0 
 11 
 213.01201171875 
 21 
 135.898388671875 
 31 
 0 
 0 
LINE
 10 
 213.01201171875 
 20 
 135.898388671875 
 30 
 0 
 11 
 213.132006835938 
 21 
 142.357604980469 
 31 
 0 
 0 
LINE
 10 
 213.132006835938 
 20 
 142.357604980469 
 30 
 0 
 11 
 213.228002929688 
 21 
 147.391198730469 
 31 
 0 
 0 
LINE
 10 
 213.228002929688 
 20 
 147.391198730469 
 30 
 0 
 11 
 213.3 
 21 
 150.5 
 31 
 0 
 0 
LINE
 10 
 213.3 
 20 
 150.5 
 30 
 0 
 11 
 213.278393554688 
 21 
 153.130395507813 
 31 
 0 
 0 
LINE
 10 
 213.278393554688 
 20 
 153.130395507813 
 30 
 0 
 11 
 213.055200195313 
 21 
 155.29521484375 
 31 
 0 
 0 
LINE
 10 
 213.055200195313 
 20 
 155.29521484375 
 30 
 0 
 11 
 212.572802734375 
 21 
 157.2248046875 
 31 
 0 
 0 
LINE
 10 
 212.572802734375 
 20 
 157.2248046875 
 30 
 0 
 11 
 211.773608398438 
 21 
 159.149609375 
 31 
 0 
 0 
LINE
 10 
 211.773608398438 
 20 
 159.149609375 
 30 
 0 
 11 
 210.6 
 21 
 161.3 
 31 
 0 
 0 
LINE
 10 
 210.6 
 20 
 161.3 
 30 
 0 
 11 
 209.6912109375 
 21 
 162.919995117188 
 31 
 0 
 0 
LINE
 10 
 209.6912109375 
 20 
 162.919995117188 
 30 
 0 
 11 
 209.017602539063 
 21 
 164.372009277344 
 31 
 0 
 0 
LINE
 10 
 209.017602539063 
 20 
 164.372009277344 
 30 
 0 
 11 
 208.598388671875 
 21 
 165.584008789063 
 31 
 0 
 0 
LINE
 10 
 208.598388671875 
 20 
 165.584008789063 
 30 
 0 
 11 
 208.452807617188 
 21 
 166.484008789063 
 31 
 0 
 0 
LINE
 10 
 208.452807617188 
 20 
 166.484008789063 
 30 
 0 
 11 
 208.6 
 21 
 167 
 31 
 0 
 0 
LINE
 10 
 208.6 
 20 
 167 
 30 
 0 
 11 
 210.748779296875 
 21 
 166.928796386719 
 31 
 0 
 0 
LINE
 10 
 210.748779296875 
 20 
 166.928796386719 
 30 
 0 
 11 
 214.990405273438 
 21 
 165.686401367188 
 31 
 0 
 0 
LINE
 10 
 214.990405273438 
 20 
 165.686401367188 
 30 
 0 
 11 
 220.177612304688 
 21 
 163.709594726563 
 31 
 0 
 0 
LINE
 10 
 220.177612304688 
 20 
 163.709594726563 
 30 
 0 
 11 
 225.163208007813 
 21 
 161.435205078125 
 31 
 0 
 0 
LINE
 10 
 225.163208007813 
 20 
 161.435205078125 
 30 
 0 
 11 
 228.8 
 21 
 159.3 
 31 
 0 
 0 
LINE
 10 
 228.8 
 20 
 159.3 
 30 
 0 
 11 
 231.1248046875 
 21 
 157.729602050781 
 31 
 0 
 0 
LINE
 10 
 231.1248046875 
 20 
 157.729602050781 
 30 
 0 
 11 
 232.326416015625 
 21 
 157.248803710938 
 31 
 0 
 0 
LINE
 10 
 232.326416015625 
 20 
 157.248803710938 
 30 
 0 
 11 
 232.385595703125 
 21 
 157.723205566406 
 31 
 0 
 0 
LINE
 10 
 232.385595703125 
 20 
 157.723205566406 
 30 
 0 
 11 
 231.283203125 
 21 
 159.018408203125 
 31 
 0 
 0 
LINE
 10 
 231.283203125 
 20 
 159.018408203125 
 30 
 0 
 11 
 229 
 21 
 161 
 31 
 0 
 0 
LINE
 10 
 229 
 20 
 161 
 30 
 0 
 11 
 226.519189453125 
 21 
 163.243200683594 
 31 
 0 
 0 
LINE
 10 
 226.519189453125 
 20 
 163.243200683594 
 30 
 0 
 11 
 225.209619140625 
 21 
 165.001599121094 
 31 
 0 
 0 
LINE
 10 
 225.209619140625 
 20 
 165.001599121094 
 30 
 0 
 11 
 225.090405273438 
 21 
 166.198400878906 
 31 
 0 
 0 
LINE
 10 
 225.090405273438 
 20 
 166.198400878906 
 30 
 0 
 11 
 226.180810546875 
 21 
 166.756799316406 
 31 
 0 
 0 
LINE
 10 
 226.180810546875 
 20 
 166.756799316406 
 30 
 0 
 11 
 228.5 
 21 
 166.6 
 31 
 0 
 0 
LINE
 10 
 228.5 
 20 
 166.6 
 30 
 0 
 11 
 229.735205078125 
 21 
 166.431201171875 
 31 
 0 
 0 
LINE
 10 
 229.735205078125 
 20 
 166.431201171875 
 30 
 0 
 11 
 230.989599609375 
 21 
 166.401599121094 
 31 
 0 
 0 
LINE
 10 
 230.989599609375 
 20 
 166.401599121094 
 30 
 0 
 11 
 232.186401367188 
 21 
 166.506396484375 
 31 
 0 
 0 
LINE
 10 
 232.186401367188 
 20 
 166.506396484375 
 30 
 0 
 11 
 233.248803710938 
 21 
 166.740808105469 
 31 
 0 
 0 
LINE
 10 
 233.248803710938 
 20 
 166.740808105469 
 30 
 0 
 11 
 234.1 
 21 
 167.1 
 31 
 0 
 0 
LINE
 10 
 234.1 
 20 
 167.1 
 30 
 0 
 11 
 235.139184570313 
 21 
 167.652795410156 
 31 
 0 
 0 
LINE
 10 
 235.139184570313 
 20 
 167.652795410156 
 30 
 0 
 11 
 235.597607421875 
 21 
 168.090393066406 
 31 
 0 
 0 
LINE
 10 
 235.597607421875 
 20 
 168.090393066406 
 30 
 0 
 11 
 235.446411132813 
 21 
 168.561608886719 
 31 
 0 
 0 
LINE
 10 
 235.446411132813 
 20 
 168.561608886719 
 30 
 0 
 11 
 234.656811523438 
 21 
 169.215197753906 
 31 
 0 
 0 
LINE
 10 
 234.656811523438 
 20 
 169.215197753906 
 30 
 0 
 11 
 233.2 
 21 
 170.2 
 31 
 0 
 0 
LINE
 10 
 233.2 
 20 
 170.2 
 30 
 0 
 11 
 231.248779296875 
 21 
 171.723986816406 
 31 
 0 
 0 
LINE
 10 
 231.248779296875 
 20 
 171.723986816406 
 30 
 0 
 11 
 229.326416015625 
 21 
 173.824011230469 
 31 
 0 
 0 
LINE
 10 
 229.326416015625 
 20 
 173.824011230469 
 30 
 0 
 11 
 227.389599609375 
 21 
 176.571997070313 
 31 
 0 
 0 
LINE
 10 
 227.389599609375 
 20 
 176.571997070313 
 30 
 0 
 11 
 225.39521484375 
 21 
 180.040002441406 
 31 
 0 
 0 
LINE
 10 
 225.39521484375 
 20 
 180.040002441406 
 30 
 0 
 11 
 223.3 
 21 
 184.3 
 31 
 0 
 0 
LINE
 10 
 223.3 
 20 
 184.3 
 30 
 0 
 11 
 221.99599609375 
 21 
 187.081591796875 
 31 
 0 
 0 
LINE
 10 
 221.99599609375 
 20 
 187.081591796875 
 30 
 0 
 11 
 221.2919921875 
 21 
 188.768811035156 
 31 
 0 
 0 
LINE
 10 
 221.2919921875 
 20 
 188.768811035156 
 30 
 0 
 11 
 221.139990234375 
 21 
 189.635205078125 
 31 
 0 
 0 
LINE
 10 
 221.139990234375 
 20 
 189.635205078125 
 30 
 0 
 11 
 221.492016601563 
 21 
 189.954406738281 
 31 
 0 
 0 
LINE
 10 
 221.492016601563 
 20 
 189.954406738281 
 30 
 0 
 11 
 222.3 
 21 
 190 
 31 
 0 
 0 
LINE
 10 
 222.3 
 20 
 190 
 30 
 0 
 11 
 223.594384765625 
 21 
 189.559985351563 
 31 
 0 
 0 
LINE
 10 
 223.594384765625 
 20 
 189.559985351563 
 30 
 0 
 11 
 225.09521484375 
 21 
 188.352014160156 
 31 
 0 
 0 
LINE
 10 
 225.09521484375 
 20 
 188.352014160156 
 30 
 0 
 11 
 226.648803710938 
 21 
 186.543994140625 
 31 
 0 
 0 
LINE
 10 
 226.648803710938 
 20 
 186.543994140625 
 30 
 0 
 11 
 228.101611328125 
 21 
 184.30400390625 
 31 
 0 
 0 
LINE
 10 
 228.101611328125 
 20 
 184.30400390625 
 30 
 0 
 11 
 229.3 
 21 
 181.8 
 31 
 0 
 0 
LINE
 10 
 229.3 
 20 
 181.8 
 30 
 0 
 11 
 230.459204101563 
 21 
 179.706384277344 
 31 
 0 
 0 
LINE
 10 
 230.459204101563 
 20 
 179.706384277344 
 30 
 0 
 11 
 232.04560546875 
 21 
 177.963208007813 
 31 
 0 
 0 
LINE
 10 
 232.04560546875 
 20 
 177.963208007813 
 30 
 0 
 11 
 234.102416992188 
 21 
 176.536804199219 
 31 
 0 
 0 
LINE
 10 
 234.102416992188 
 20 
 176.536804199219 
 30 
 0 
 11 
 236.672802734375 
 21 
 175.393603515625 
 31 
 0 
 0 
LINE
 10 
 236.672802734375 
 20 
 175.393603515625 
 30 
 0 
 11 
 239.8 
 21 
 174.5 
 31 
 0 
 0 
LINE
 10 
 239.8 
 20 
 174.5 
 30 
 0 
 11 
 241.403979492188 
 21 
 174.202392578125 
 31 
 0 
 0 
LINE
 10 
 241.403979492188 
 20 
 174.202392578125 
 30 
 0 
 11 
 242.071997070313 
 21 
 174.303198242188 
 31 
 0 
 0 
LINE
 10 
 242.071997070313 
 20 
 174.303198242188 
 30 
 0 
 11 
 241.7080078125 
 21 
 175.032800292969 
 31 
 0 
 0 
LINE
 10 
 241.7080078125 
 20 
 175.032800292969 
 30 
 0 
 11 
 240.216015625 
 21 
 176.621606445313 
 31 
 0 
 0 
LINE
 10 
 240.216015625 
 20 
 176.621606445313 
 30 
 0 
 11 
 237.5 
 21 
 179.3 
 31 
 0 
 0 
LINE
 10 
 237.5 
 20 
 179.3 
 30 
 0 
 11 
 234.723193359375 
 21 
 182.030395507813 
 31 
 0 
 0 
LINE
 10 
 234.723193359375 
 20 
 182.030395507813 
 30 
 0 
 11 
 233.069604492188 
 21 
 183.935217285156 
 31 
 0 
 0 
LINE
 10 
 233.069604492188 
 20 
 183.935217285156 
 30 
 0 
 11 
 232.294409179688 
 21 
 185.484802246094 
 31 
 0 
 0 
LINE
 10 
 232.294409179688 
 20 
 185.484802246094 
 30 
 0 
 11 
 232.152807617188 
 21 
 187.149609375 
 31 
 0 
 0 
LINE
 10 
 232.152807617188 
 20 
 187.149609375 
 30 
 0 
 11 
 232.4 
 21 
 189.4 
 31 
 0 
 0 
LINE
 10 
 232.4 
 20 
 189.4 
 30 
 0 
 11 
 232.694384765625 
 21 
 191.540783691406 
 31 
 0 
 0 
LINE
 10 
 232.694384765625 
 20 
 191.540783691406 
 30 
 0 
 11 
 232.667211914063 
 21 
 193.134411621094 
 31 
 0 
 0 
LINE
 10 
 232.667211914063 
 20 
 193.134411621094 
 30 
 0 
 11 
 232.212817382813 
 21 
 194.497595214844 
 31 
 0 
 0 
LINE
 10 
 232.212817382813 
 20 
 194.497595214844 
 30 
 0 
 11 
 231.225610351563 
 21 
 195.947204589844 
 31 
 0 
 0 
LINE
 10 
 231.225610351563 
 20 
 195.947204589844 
 30 
 0 
 11 
 229.6 
 21 
 197.8 
 31 
 0 
 0 
LINE
 10 
 229.6 
 20 
 197.8 
 30 
 0 
 11 
 227.617602539063 
 21 
 200.263195800781 
 31 
 0 
 0 
LINE
 10 
 227.617602539063 
 20 
 200.263195800781 
 30 
 0 
 11 
 226.388793945313 
 21 
 202.361608886719 
 31 
 0 
 0 
LINE
 10 
 226.388793945313 
 20 
 202.361608886719 
 30 
 0 
 11 
 225.97119140625 
 21 
 203.898400878906 
 31 
 0 
 0 
LINE
 10 
 225.97119140625 
 20 
 203.898400878906 
 30 
 0 
 11 
 226.422387695313 
 21 
 204.676806640625 
 31 
 0 
 0 
LINE
 10 
 226.422387695313 
 20 
 204.676806640625 
 30 
 0 
 11 
 227.8 
 21 
 204.5 
 31 
 0 
 0 
LINE
 10 
 227.8 
 20 
 204.5 
 30 
 0 
 11 
 230.19599609375 
 21 
 203.849597167969 
 31 
 0 
 0 
LINE
 10 
 230.19599609375 
 20 
 203.849597167969 
 30 
 0 
 11 
 233.671997070313 
 21 
 203.184802246094 
 31 
 0 
 0 
LINE
 10 
 233.671997070313 
 20 
 203.184802246094 
 30 
 0 
 11 
 237.340014648438 
 21 
 202.635205078125 
 31 
 0 
 0 
LINE
 10 
 237.340014648438 
 20 
 202.635205078125 
 30 
 0 
 11 
 240.31201171875 
 21 
 202.330407714844 
 31 
 0 
 0 
LINE
 10 
 240.31201171875 
 20 
 202.330407714844 
 30 
 0 
 11 
 241.7 
 21 
 202.4 
 31 
 0 
 0 
LINE
 10 
 241.7 
 20 
 202.4 
 30 
 0 
 11 
 242.060791015625 
 21 
 203.239990234375 
 31 
 0 
 0 
LINE
 10 
 242.060791015625 
 20 
 203.239990234375 
 30 
 0 
 11 
 241.58642578125 
 21 
 204.319995117188 
 31 
 0 
 0 
LINE
 10 
 241.58642578125 
 20 
 204.319995117188 
 30 
 0 
 11 
 240.281591796875 
 21 
 205.639990234375 
 31 
 0 
 0 
LINE
 10 
 240.281591796875 
 20 
 205.639990234375 
 30 
 0 
 11 
 238.151196289063 
 21 
 207.2 
 31 
 0 
 0 
LINE
 10 
 238.151196289063 
 20 
 207.2 
 30 
 0 
 11 
 235.2 
 21 
 209 
 31 
 0 
 0 
LINE
 10 
 235.2 
 20 
 209 
 30 
 0 
 11 
 233.249609375 
 21 
 210.161596679688 
 31 
 0 
 0 
LINE
 10 
 233.249609375 
 20 
 210.161596679688 
 30 
 0 
 11 
 231.548803710938 
 21 
 211.3087890625 
 31 
 0 
 0 
LINE
 10 
 231.548803710938 
 20 
 211.3087890625 
 30 
 0 
 11 
 230.203198242188 
 21 
 212.355200195313 
 31 
 0 
 0 
LINE
 10 
 230.203198242188 
 20 
 212.355200195313 
 30 
 0 
 11 
 229.318408203125 
 21 
 213.214404296875 
 31 
 0 
 0 
LINE
 10 
 229.318408203125 
 20 
 213.214404296875 
 30 
 0 
 11 
 229 
 21 
 213.8 
 31 
 0 
 0 
LINE
 10 
 229 
 20 
 213.8 
 30 
 0 
 11 
 229.091186523438 
 21 
 214.388793945313 
 31 
 0 
 0 
LINE
 10 
 229.091186523438 
 20 
 214.388793945313 
 30 
 0 
 11 
 229.34560546875 
 21 
 215.150415039063 
 31 
 0 
 0 
LINE
 10 
 229.34560546875 
 20 
 215.150415039063 
 30 
 0 
 11 
 229.734399414063 
 21 
 216.017602539063 
 31 
 0 
 0 
LINE
 10 
 229.734399414063 
 20 
 216.017602539063 
 30 
 0 
 11 
 230.22880859375 
 21 
 216.923193359375 
 31 
 0 
 0 
LINE
 10 
 230.22880859375 
 20 
 216.923193359375 
 30 
 0 
 11 
 230.8 
 21 
 217.8 
 31 
 0 
 0 
LINE
 10 
 230.8 
 20 
 217.8 
 30 
 0 
 11 
 231.438403320313 
 21 
 218.930395507813 
 31 
 0 
 0 
LINE
 10 
 231.438403320313 
 20 
 218.930395507813 
 30 
 0 
 11 
 232.115209960938 
 21 
 220.435205078125 
 31 
 0 
 0 
LINE
 10 
 232.115209960938 
 20 
 220.435205078125 
 30 
 0 
 11 
 232.772802734375 
 21 
 222.184790039063 
 31 
 0 
 0 
LINE
 10 
 232.772802734375 
 20 
 222.184790039063 
 30 
 0 
 11 
 233.35361328125 
 21 
 224.049609375 
 31 
 0 
 0 
LINE
 10 
 233.35361328125 
 20 
 224.049609375 
 30 
 0 
 11 
 233.8 
 21 
 225.9 
 31 
 0 
 0 
LINE
 10 
 233.8 
 20 
 225.9 
 30 
 0 
 11 
 235.045581054688 
 21 
 230.712768554688 
 31 
 0 
 0 
LINE
 10 
 235.045581054688 
 20 
 230.712768554688 
 30 
 0 
 11 
 236.396801757813 
 21 
 234.186401367188 
 31 
 0 
 0 
LINE
 10 
 236.396801757813 
 20 
 234.186401367188 
 30 
 0 
 11 
 238.055200195313 
 21 
 236.613598632813 
 31 
 0 
 0 
LINE
 10 
 238.055200195313 
 20 
 236.613598632813 
 30 
 0 
 11 
 240.222412109375 
 21 
 238.28720703125 
 31 
 0 
 0 
LINE
 10 
 240.222412109375 
 20 
 238.28720703125 
 30 
 0 
 11 
 243.1 
 21 
 239.5 
 31 
 0 
 0 
LINE
 10 
 243.1 
 20 
 239.5 
 30 
 0 
 11 
 245.341577148438 
 21 
 240.185595703125 
 31 
 0 
 0 
LINE
 10 
 245.341577148438 
 20 
 240.185595703125 
 30 
 0 
 11 
 247.208813476563 
 21 
 240.568823242188 
 31 
 0 
 0 
LINE
 10 
 247.208813476563 
 20 
 240.568823242188 
 30 
 0 
 11 
 248.9751953125 
 21 
 240.659204101563 
 31 
 0 
 0 
LINE
 10 
 248.9751953125 
 20 
 240.659204101563 
 30 
 0 
 11 
 250.914404296875 
 21 
 240.46640625 
 31 
 0 
 0 
LINE
 10 
 250.914404296875 
 20 
 240.46640625 
 30 
 0 
 11 
 253.3 
 21 
 240 
 31 
 0 
 0 
LINE
 10 
 253.3 
 20 
 240 
 30 
 0 
 11 
 257.9423828125 
 21 
 238.86240234375 
 31 
 0 
 0 
LINE
 10 
 257.9423828125 
 20 
 238.86240234375 
 30 
 0 
 11 
 260.9912109375 
 21 
 237.955224609375 
 31 
 0 
 0 
LINE
 10 
 260.9912109375 
 20 
 237.955224609375 
 30 
 0 
 11 
 262.868798828125 
 21 
 237.076806640625 
 31 
 0 
 0 
LINE
 10 
 262.868798828125 
 20 
 237.076806640625 
 30 
 0 
 11 
 263.997607421875 
 21 
 236.025610351563 
 31 
 0 
 0 
LINE
 10 
 263.997607421875 
 20 
 236.025610351563 
 30 
 0 
 11 
 264.8 
 21 
 234.6 
 31 
 0 
 0 
LINE
 10 
 264.8 
 20 
 234.6 
 30 
 0 
 11 
 265.323193359375 
 21 
 233.716796875 
 31 
 0 
 0 
LINE
 10 
 265.323193359375 
 20 
 233.716796875 
 30 
 0 
 11 
 265.913623046875 
 21 
 233.006396484375 
 31 
 0 
 0 
LINE
 10 
 265.913623046875 
 20 
 233.006396484375 
 30 
 0 
 11 
 266.542407226563 
 21 
 232.497607421875 
 31 
 0 
 0 
LINE
 10 
 266.542407226563 
 20 
 232.497607421875 
 30 
 0 
 11 
 267.180810546875 
 21 
 232.219213867188 
 31 
 0 
 0 
LINE
 10 
 267.180810546875 
 20 
 232.219213867188 
 30 
 0 
 11 
 267.8 
 21 
 232.2 
 31 
 0 
 0 
LINE
 10 
 267.8 
 20 
 232.2 
 30 
 0 
 11 
 268.827197265625 
 21 
 232.748779296875 
 31 
 0 
 0 
LINE
 10 
 268.827197265625 
 20 
 232.748779296875 
 30 
 0 
 11 
 269.561596679688 
 21 
 233.710400390625 
 31 
 0 
 0 
LINE
 10 
 269.561596679688 
 20 
 233.710400390625 
 30 
 0 
 11 
 269.902392578125 
 21 
 234.777612304688 
 31 
 0 
 0 
LINE
 10 
 269.902392578125 
 20 
 234.777612304688 
 30 
 0 
 11 
 269.748803710938 
 21 
 235.643188476563 
 31 
 0 
 0 
LINE
 10 
 269.748803710938 
 20 
 235.643188476563 
 30 
 0 
 11 
 269 
 21 
 236 
 31 
 0 
 0 
LINE
 10 
 269 
 20 
 236 
 30 
 0 
 11 
 268.392822265625 
 21 
 236.181591796875 
 31 
 0 
 0 
LINE
 10 
 268.392822265625 
 20 
 236.181591796875 
 30 
 0 
 11 
 267.3583984375 
 21 
 236.684814453125 
 31 
 0 
 0 
LINE
 10 
 267.3583984375 
 20 
 236.684814453125 
 30 
 0 
 11 
 265.997607421875 
 21 
 237.447192382813 
 31 
 0 
 0 
LINE
 10 
 265.997607421875 
 20 
 237.447192382813 
 30 
 0 
 11 
 264.411206054688 
 21 
 238.406396484375 
 31 
 0 
 0 
LINE
 10 
 264.411206054688 
 20 
 238.406396484375 
 30 
 0 
 11 
 262.7 
 21 
 239.5 
 31 
 0 
 0 
LINE
 10 
 262.7 
 20 
 239.5 
 30 
 0 
 11 
 261.026391601563 
 21 
 240.593579101563 
 31 
 0 
 0 
LINE
 10 
 261.026391601563 
 20 
 240.593579101563 
 30 
 0 
 11 
 259.439208984375 
 21 
 241.552807617188 
 31 
 0 
 0 
LINE
 10 
 259.439208984375 
 20 
 241.552807617188 
 30 
 0 
 11 
 258.048803710938 
 21 
 242.315209960938 
 31 
 0 
 0 
LINE
 10 
 258.048803710938 
 20 
 242.315209960938 
 30 
 0 
 11 
 256.965600585938 
 21 
 242.818408203125 
 31 
 0 
 0 
LINE
 10 
 256.965600585938 
 20 
 242.818408203125 
 30 
 0 
 11 
 256.3 
 21 
 243 
 31 
 0 
 0 
LINE
 10 
 256.3 
 20 
 243 
 30 
 0 
 11 
 255.895971679688 
 21 
 243.04560546875 
 31 
 0 
 0 
LINE
 10 
 255.895971679688 
 20 
 243.04560546875 
 30 
 0 
 11 
 255.540014648438 
 21 
 243.172802734375 
 31 
 0 
 0 
LINE
 10 
 255.540014648438 
 20 
 243.172802734375 
 30 
 0 
 11 
 255.256005859375 
 21 
 243.3671875 
 31 
 0 
 0 
LINE
 10 
 255.256005859375 
 20 
 243.3671875 
 30 
 0 
 11 
 255.067993164063 
 21 
 243.614404296875 
 31 
 0 
 0 
LINE
 10 
 255.067993164063 
 20 
 243.614404296875 
 30 
 0 
 11 
 255 
 21 
 243.9 
 31 
 0 
 0 
LINE
 10 
 255 
 20 
 243.9 
 30 
 0 
 11 
 253.802392578125 
 21 
 245.346411132813 
 31 
 0 
 0 
LINE
 10 
 253.802392578125 
 20 
 245.346411132813 
 30 
 0 
 11 
 250.507202148438 
 21 
 246.303198242188 
 31 
 0 
 0 
LINE
 10 
 250.507202148438 
 20 
 246.303198242188 
 30 
 0 
 11 
 245.560791015625 
 21 
 246.73681640625 
 31 
 0 
 0 
LINE
 10 
 245.560791015625 
 20 
 246.73681640625 
 30 
 0 
 11 
 239.409619140625 
 21 
 246.613623046875 
 31 
 0 
 0 
LINE
 10 
 239.409619140625 
 20 
 246.613623046875 
 30 
 0 
 11 
 232.5 
 21 
 245.9 
 31 
 0 
 0 
ENDSEC
 0 
EOF
