999
dxflib 2.2.0.0
  0
SECTION
  2
HEADER
  9
$ACADVER
  1
AC1015
  9
$HANDSEED
  5
FFFF
  9
$INSUNITS
 70
4
  9
$DIMEXE
 40
1.25
  9
$TEXTSTYLE
  7
Standard
  9
$LIMMIN
 10
0.0
 20
0.0
  0
ENDSEC
  0
SECTION
  2
TABLES
  0
TABLE
  2
VPORT
  5
8
100
AcDbSymbolTable
 70
1
  0
VPORT
  5
30
100
AcDbSymbolTableRecord
100
AcDbViewportTableRecord
  2
*Active
 70
0
 10
0.0
 20
0.0
 11
1.0
 21
1.0
 12
286.30555555555549
 22
148.5
 13
0.0
 23
0.0
 14
10.0
 24
10.0
 15
10.0
 25
10.0
 16
0.0
 26
0.0
 36
1.0
 17
0.0
 27
0.0
 37
0.0
 40
297.0
 41
1.92798353909465
 42
50.0
 43
0.0
 44
0.0
 50
0.0
 51
0.0
 71
0
 72
100
 73
1
 74
3
 75
1
 76
1
 77
0
 78
0
281
0
 65
1
110
0.0
120
0.0
130
0.0
111
1.0
121
0.0
131
0.0
112
0.0
122
1.0
132
0.0
 79
0
146
0.0
  0
ENDTAB
  0
TABLE
  2
LTYPE
  5
5
100
AcDbSymbolTable
 70
25
  0
LTYPE
  5
14
100
AcDbSymbolTableRecord
100
AcDbLinetypeTableRecord
  2
BYBLOCK
 70
0
  3

 72
65
 73
0
 40
0.0
  0
LTYPE
  5
15
100
AcDbSymbolTableRecord
100
AcDbLinetypeTableRecord
  2
BYLAYER
 70
0
  3

 72
65
 73
0
 40
0.0
  0
LTYPE
  5
16
100
AcDbSymbolTableRecord
100
AcDbLinetypeTableRecord
  2
CONTINUOUS
 70
0
  3
Solid line
 72
65
 73
0
 40
0.0
  0
LTYPE
  5
31
100
AcDbSymbolTableRecord
100
AcDbLinetypeTableRecord
  2
ACAD_ISO02W100
 70
0
  3
ISO Dashed __ __ __ __ __ __ __ __ __ __ _
 72
65
 73
2
 40
15.0
 49
12.0
 74
0
 49
-3.0
 74
0
  0
LTYPE
  5
32
100
AcDbSymbolTableRecord
100
AcDbLinetypeTableRecord
  2
ACAD_ISO03W100
 70
0
  3
ISO Dashed with Distance __    __    __    _
 72
65
 73
2
 40
30.0
 49
12.0
 74
0
 49
-18.0
 74
0
  0
LTYPE
  5
33
100
AcDbSymbolTableRecord
100
AcDbLinetypeTableRecord
  2
ACAD_ISO04W100
 70
0
  3
ISO Long Dashed Dotted ____ . ____ . __
 72
65
 73
4
 40
30.0
 49
24.0
 74
0
 49
-3.0
 74
0
 49
0.0
 74
0
 49
-3.0
 74
0
  0
LTYPE
  5
34
100
AcDbSymbolTableRecord
100
AcDbLinetypeTableRecord
  2
ACAD_ISO05W100
 70
0
  3
ISO Long Dashed Double Dotted ____ .. __
 72
65
 73
6
 40
33.0
 49
24.0
 74
0
 49
-3.0
 74
0
 49
0.0
 74
0
 49
-3.0
 74
0
 49
0.0
 74
0
 49
-3.0
 74
0
  0
LTYPE
  5
35
100
AcDbSymbolTableRecord
100
AcDbLinetypeTableRecord
  2
BORDER
 70
0
  3
Border __ __ . __ __ . __ __ . __ __ . __ __ .
 72
65
 73
6
 40
44.450000000000003
 49
12.699999999999999
 74
0
 49
-6.3499999999999996
 74
0
 49
12.699999999999999
 74
0
 49
-6.3499999999999996
 74
0
 49
0.0
 74
0
 49
-6.3499999999999996
 74
0
  0
LTYPE
  5
36
100
AcDbSymbolTableRecord
100
AcDbLinetypeTableRecord
  2
BORDER2
 70
0
  3
Border (.5x) __.__.__.__.__.__.__.__.__.__.__.
 72
65
 73
6
 40
22.225000000000001
 49
6.3499999999999996
 74
0
 49
-3.1749999999999998
 74
0
 49
6.3499999999999996
 74
0
 49
-3.1749999999999998
 74
0
 49
0.0
 74
0
 49
-3.1749999999999998
 74
0
  0
LTYPE
  5
37
100
AcDbSymbolTableRecord
100
AcDbLinetypeTableRecord
  2
BORDERX2
 70
0
  3
Border (2x) ____  ____  .  ____  ____  .  ___
 72
65
 73
6
 40
88.900000000000006
 49
25.399999999999999
 74
0
 49
-12.699999999999999
 74
0
 49
25.399999999999999
 74
0
 49
-12.699999999999999
 74
0
 49
0.0
 74
0
 49
-12.699999999999999
 74
0
  0
LTYPE
  5
38
100
AcDbSymbolTableRecord
100
AcDbLinetypeTableRecord
  2
CENTER
 70
0
  3
Center ____ _ ____ _ ____ _ ____ _ ____ _ ____
 72
65
 73
4
 40
50.799999999999997
 49
31.75
 74
0
 49
-6.3499999999999996
 74
0
 49
6.3499999999999996
 74
0
 49
-6.3499999999999996
 74
0
  0
LTYPE
  5
39
100
AcDbSymbolTableRecord
100
AcDbLinetypeTableRecord
  2
CENTER2
 70
0
  3
Center (.5x) ___ _ ___ _ ___ _ ___ _ ___ _ ___
 72
65
 73
4
 40
28.574999999999999
 49
19.050000000000001
 74
0
 49
-3.1749999999999998
 74
0
 49
3.1749999999999998
 74
0
 49
-3.1749999999999998
 74
0
  0
LTYPE
  5
3A
100
AcDbSymbolTableRecord
100
AcDbLinetypeTableRecord
  2
CENTERX2
 70
0
  3
Center (2x) ________  __  ________  __  _____
 72
65
 73
4
 40
101.59999999999999
 49
63.5
 74
0
 49
-12.699999999999999
 74
0
 49
12.699999999999999
 74
0
 49
-12.699999999999999
 74
0
  0
LTYPE
  5
3B
100
AcDbSymbolTableRecord
100
AcDbLinetypeTableRecord
  2
DASHDOT
 70
0
  3
Dash dot __ . __ . __ . __ . __ . __ . __ . __
 72
65
 73
4
 40
25.399999999999999
 49
12.699999999999999
 74
0
 49
-6.3499999999999996
 74
0
 49
0.0
 74
0
 49
-6.3499999999999996
 74
0
  0
LTYPE
  5
3C
100
AcDbSymbolTableRecord
100
AcDbLinetypeTableRecord
  2
DASHDOT2
 70
0
  3
Dash dot (.5x) _._._._._._._._._._._._._._._.
 72
65
 73
4
 40
12.699999999999999
 49
6.3499999999999996
 74
0
 49
-3.1749999999999998
 74
0
 49
0.0
 74
0
 49
-3.1749999999999998
 74
0
  0
LTYPE
  5
3D
100
AcDbSymbolTableRecord
100
AcDbLinetypeTableRecord
  2
DASHDOTX2
 70
0
  3
Dash dot (2x) ____  .  ____  .  ____  .  ___
 72
65
 73
4
 40
50.799999999999997
 49
25.399999999999999
 74
0
 49
-12.699999999999999
 74
0
 49
0.0
 74
0
 49
-12.699999999999999
 74
0
  0
LTYPE
  5
3E
100
AcDbSymbolTableRecord
100
AcDbLinetypeTableRecord
  2
DASHED
 70
0
  3
Dashed __ __ __ __ __ __ __ __ __ __ __ __ __ _
 72
65
 73
2
 40
19.050000000000001
 49
12.699999999999999
 74
0
 49
-6.3499999999999996
 74
0
  0
LTYPE
  5
3F
100
AcDbSymbolTableRecord
100
AcDbLinetypeTableRecord
  2
DASHED2
 70
0
  3
Dashed (.5x) _ _ _ _ _ _ _ _ _ _ _ _ _ _ _ _ _
 72
65
 73
2
 40
9.5250000000000004
 49
6.3499999999999996
 74
0
 49
-3.1749999999999998
 74
0
  0
LTYPE
  5
40
100
AcDbSymbolTableRecord
100
AcDbLinetypeTableRecord
  2
DASHEDX2
 70
0
  3
Dashed (2x) ____  ____  ____  ____  ____  ___
 72
65
 73
2
 40
38.100000000000001
 49
25.399999999999999
 74
0
 49
-12.699999999999999
 74
0
  0
LTYPE
  5
41
100
AcDbSymbolTableRecord
100
AcDbLinetypeTableRecord
  2
DIVIDE
 70
0
  3
Divide ____ . . ____ . . ____ . . ____ . . ____
 72
65
 73
6
 40
31.75
 49
12.699999999999999
 74
0
 49
-6.3499999999999996
 74
0
 49
0.0
 74
0
 49
-6.3499999999999996
 74
0
 49
0.0
 74
0
 49
-6.3499999999999996
 74
0
  0
LTYPE
  5
42
100
AcDbSymbolTableRecord
100
AcDbLinetypeTableRecord
  2
DIVIDE2
 70
0
  3
Divide (.5x) __..__..__..__..__..__..__..__.._
 72
65
 73
6
 40
15.875
 49
6.3499999999999996
 74
0
 49
-3.1749999999999998
 74
0
 49
0.0
 74
0
 49
-3.1749999999999998
 74
0
 49
0.0
 74
0
 49
-3.1749999999999998
 74
0
  0
LTYPE
  5
43
100
AcDbSymbolTableRecord
100
AcDbLinetypeTableRecord
  2
DIVIDEX2
 70
0
  3
Divide (2x) ________  .  .  ________  .  .  _
 72
65
 73
6
 40
63.5
 49
25.399999999999999
 74
0
 49
-12.699999999999999
 74
0
 49
0.0
 74
0
 49
-12.699999999999999
 74
0
 49
0.0
 74
0
 49
-12.699999999999999
 74
0
  0
LTYPE
  5
44
100
AcDbSymbolTableRecord
100
AcDbLinetypeTableRecord
  2
DOT
 70
0
  3
Dot . . . . . . . . . . . . . . . . . . . . . .
 72
65
 73
2
 40
6.3499999999999996
 49
0.0
 74
0
 49
-6.3499999999999996
 74
0
  0
LTYPE
  5
45
100
AcDbSymbolTableRecord
100
AcDbLinetypeTableRecord
  2
DOT2
 70
0
  3
Dot (.5x) .....................................
 72
65
 73
2
 40
3.1749999999999998
 49
0.0
 74
0
 49
-3.1749999999999998
 74
0
  0
LTYPE
  5
46
100
AcDbSymbolTableRecord
100
AcDbLinetypeTableRecord
  2
DOTX2
 70
0
  3
Dot (2x) .  .  .  .  .  .  .  .  .  .  .  .  .
 72
65
 73
2
 40
12.699999999999999
 49
0.0
 74
0
 49
-12.699999999999999
 74
0
  0
ENDTAB
  0
TABLE
  2
LAYER
  5
2
100
AcDbSymbolTable
 70
3
  0
LAYER
  5
10
100
AcDbSymbolTableRecord
100
AcDbLayerTableRecord
  2
0
 70
0
 62
250
  6
CONTINUOUS
370
100
390
F
  0
LAYER
  5
47
100
AcDbSymbolTableRecord
100
AcDbLayerTableRecord
  2
color#00000000
 70
0
 62
7
  6
CONTINUOUS
370
100
390
F
  0
LAYER
  5
48
100
AcDbSymbolTableRecord
100
AcDbLayerTableRecord
  2
color#ffffffff
 70
0
 62
7
  6
CONTINUOUS
370
100
390
F
  0
ENDTAB
  0
TABLE
  2
STYLE
  5
3
100
AcDbSymbolTable
 70
1
  0
STYLE
  5
11
100
AcDbSymbolTableRecord
100
AcDbTextStyleTableRecord
  2
Standard
 70
0
 40
0.0
 41
0.75
 50
0.0
 71
0
 42
2.5
  3
txt
  4

  0
ENDTAB
  0
TABLE
  2
VIEW
  5
6
100
AcDbSymbolTable
 70
0
  0
ENDTAB
  0
TABLE
  2
UCS
  5
7
100
AcDbSymbolTable
 70
0
  0
ENDTAB
  0
TABLE
  2
APPID
  5
9
100
AcDbSymbolTable
 70
1
  0
APPID
  5
12
100
AcDbSymbolTableRecord
100
AcDbRegAppTableRecord
  2
ACAD
 70
0
  0
ENDTAB
  0
TABLE
  2
DIMSTYLE
  5
A
100
AcDbSymbolTable
 70
1
100
AcDbDimStyleTable
 71
0
  0
DIMSTYLE
105
27
100
AcDbSymbolTableRecord
100
AcDbDimStyleTableRecord
  2
Standard
 41
1.0
 42
1.0
 43
3.75
 44
1.0
 70
0
 73
0
 74
0
 77
1
 78
8
140
1.0
141
2.5
143
0.03937007874016
147
1.0
171
3
172
1
271
2
272
2
274
3
278
44
283
0
284
8
340
11
  0
ENDTAB
  0
TABLE
  2
BLOCK_RECORD
  5
1
100
AcDbSymbolTable
 70
1
  0
BLOCK_RECORD
  5
1F
100
AcDbSymbolTableRecord
100
AcDbBlockTableRecord
  2
*Model_Space
340
22
  0
BLOCK_RECORD
  5
1B
100
AcDbSymbolTableRecord
100
AcDbBlockTableRecord
  2
*Paper_Space
340
1E
  0
BLOCK_RECORD
  5
23
100
AcDbSymbolTableRecord
100
AcDbBlockTableRecord
  2
*Paper_Space0
340
26
  0
ENDTAB
  0
ENDSEC
  0
SECTION
  2
BLOCKS
  0
BLOCK
  5
20
100
AcDbEntity
  8
0
100
AcDbBlockBegin
  2
*Model_Space
 70
0
 10
0.0
 20
0.0
 30
0.0
  3
*Model_Space
  1

  0
ENDBLK
  5
21
100
AcDbEntity
  8
0
100
AcDbBlockEnd
  0
BLOCK
  5
1C
100
AcDbEntity
 67
1
  8
0
100
AcDbBlockBegin
  2
*Paper_Space
 70
0
 10
0.0
 20
0.0
 30
0.0
  3
*Paper_Space
  1

  0
ENDBLK
  5
1D
100
AcDbEntity
 67
1
  8
0
100
AcDbBlockEnd
  0
BLOCK
  5
24
100
AcDbEntity
  8
0
100
AcDbBlockBegin
  2
*Paper_Space0
 70
0
 10
0.0
 20
0.0
 30
0.0
  3
*Paper_Space0
  1

  0
ENDBLK
  5
25
100
AcDbEntity
  8
0
100
AcDbBlockEnd
  0
ENDSEC
  0
SECTION
  2
ENTITIES
  0
LINE
  5
49
100
AcDbEntity
100
AcDbLine
  8
color#ffffffff
 62
256
370
-1
  6
BYLAYER
 10
1.1948332124157741
 20
3.4328988848917099
 30
0.0
 11
1.2267917257564043
 21
3.4436518276795991
 31
0.0
  0
LINE
  5
4A
100
AcDbEntity
100
AcDbLine
  8
color#ffffffff
 62
256
370
-1
  6
BYLAYER
 10
1.2267917257564043
 20
3.4436518276795991
 30
0.0
 11
1.2589446211405075
 21
3.453750116945812
 31
0.0
  0
LINE
  5
4B
100
AcDbEntity
100
AcDbLine
  8
color#ffffffff
 62
256
370
-1
  6
BYLAYER
 10
1.2589446211405075
 20
3.453750116945812
 30
0.0
 11
1.2912805410675956
 21
3.4631983929644043
 31
0.0
  0
LINE
  5
4C
100
AcDbEntity
100
AcDbLine
  8
color#ffffffff
 62
256
370
-1
  6
BYLAYER
 10
1.2912805410675956
 20
3.4631983929644043
 30
0.0
 11
1.3237881280371795
 21
3.4720012960094309
 31
0.0
  0
LINE
  5
4D
100
AcDbEntity
100
AcDbLine
  8
color#ffffffff
 62
256
370
-1
  6
BYLAYER
 10
1.3237881280371795
 20
3.4720012960094309
 30
0.0
 11
1.3564560245487709
 21
3.4801634663549468
 31
0.0
  0
LINE
  5
4E
100
AcDbEntity
100
AcDbLine
  8
color#ffffffff
 62
256
370
-1
  6
BYLAYER
 10
1.3564560245487709
 20
3.4801634663549468
 30
0.0
 11
1.3892728731018811
 21
3.4876895442750069
 31
0.0
  0
LINE
  5
4F
100
AcDbEntity
100
AcDbLine
  8
color#ffffffff
 62
256
370
-1
  6
BYLAYER
 10
1.3892728731018811
 20
3.4876895442750069
 30
0.0
 11
1.4222273161960217
 21
3.4945841700436664
 31
0.0
  0
LINE
  5
50
100
AcDbEntity
100
AcDbLine
  8
color#ffffffff
 62
256
370
-1
  6
BYLAYER
 10
1.4222273161960217
 20
3.4945841700436664
 30
0.0
 11
1.4553079963307036
 21
3.5008519839349805
 31
0.0
  0
LINE
  5
51
100
AcDbEntity
100
AcDbLine
  8
color#ffffffff
 62
256
370
-1
  6
BYLAYER
 10
1.4553079963307036
 20
3.5008519839349805
 30
0.0
 11
1.4885035560054383
 21
3.5064976262230045
 31
0.0
  0
LINE
  5
52
100
AcDbEntity
100
AcDbLine
  8
color#ffffffff
 62
256
370
-1
  6
BYLAYER
 10
1.4885035560054383
 20
3.5064976262230045
 30
0.0
 11
1.5551938839731125
 21
3.5159409570854017
 31
0.0
  0
LINE
  5
53
100
AcDbEntity
100
AcDbLine
  8
color#ffffffff
 62
256
370
-1
  6
BYLAYER
 10
1.5551938839731125
 20
3.5159409570854017
 30
0.0
 11
1.6222074400951352
 21
3.5229512848232991
 31
0.0
  0
LINE
  5
54
100
AcDbEntity
100
AcDbLine
  8
color#ffffffff
 62
256
370
-1
  6
BYLAYER
 10
1.6222074400951352
 20
3.5229512848232991
 30
0.0
 11
1.6894533643675973
 21
3.5275657316291373
 31
0.0
  0
LINE
  5
55
100
AcDbEntity
100
AcDbLine
  8
color#ffffffff
 62
256
370
-1
  6
BYLAYER
 10
1.6894533643675973
 20
3.5275657316291373
 30
0.0
 11
1.75684079678659
 21
3.5298214196953572
 31
0.0
  0
LINE
  5
56
100
AcDbEntity
100
AcDbLine
  8
color#ffffffff
 62
256
370
-1
  6
BYLAYER
 10
1.75684079678659
 20
3.5298214196953572
 30
0.0
 11
1.8242788773482037
 21
3.5297554712143988
 31
0.0
  0
LINE
  5
57
100
AcDbEntity
100
AcDbLine
  8
color#ffffffff
 62
256
370
-1
  6
BYLAYER
 10
1.8242788773482037
 20
3.5297554712143988
 30
0.0
 11
1.8916767460485309
 21
3.5274050083787043
 31
0.0
  0
LINE
  5
58
100
AcDbEntity
100
AcDbLine
  8
color#ffffffff
 62
256
370
-1
  6
BYLAYER
 10
1.8916767460485309
 20
3.5274050083787043
 30
0.0
 11
1.9589435428836621
 21
3.5228071533807133
 31
0.0
  0
LINE
  5
59
100
AcDbEntity
100
AcDbLine
  8
color#ffffffff
 62
256
370
-1
  6
BYLAYER
 10
1.9589435428836621
 20
3.5228071533807133
 30
0.0
 11
2.0259884078496873
 21
3.515999028412867
 31
0.0
  0
LINE
  5
5A
100
AcDbEntity
100
AcDbLine
  8
color#ffffffff
 62
256
370
-1
  6
BYLAYER
 10
2.0259884078496873
 20
3.515999028412867
 30
0.0
 11
2.0927204809426989
 21
3.5070177556676065
 31
0.0
  0
LINE
  5
5B
100
AcDbEntity
100
AcDbLine
  8
color#ffffffff
 62
256
370
-1
  6
BYLAYER
 10
2.0927204809426989
 20
3.5070177556676065
 30
0.0
 11
2.159048902158788
 21
3.4959004573373722
 31
0.0
  0
LINE
  5
5C
100
AcDbEntity
100
AcDbLine
  8
color#ffffffff
 62
256
370
-1
  6
BYLAYER
 10
2.159048902158788
 20
3.4959004573373722
 30
0.0
 11
2.2011814659839466
 21
3.4878098010944973
 31
0.0
  0
LINE
  5
5D
100
AcDbEntity
100
AcDbLine
  8
color#ffffffff
 62
256
370
-1
  6
BYLAYER
 10
2.2011814659839466
 20
3.4878098010944973
 30
0.0
 11
2.24301177203199
 21
3.478532109443218
 31
0.0
  0
LINE
  5
5E
100
AcDbEntity
100
AcDbLine
  8
color#ffffffff
 62
256
370
-1
  6
BYLAYER
 10
2.24301177203199
 20
3.478532109443218
 30
0.0
 11
2.2845213209574862
 21
3.4680885883649508
 31
0.0
  0
LINE
  5
5F
100
AcDbEntity
100
AcDbLine
  8
color#ffffffff
 62
256
370
-1
  6
BYLAYER
 10
2.2845213209574862
 20
3.4680885883649508
 30
0.0
 11
2.3256916134150005
 21
3.4565004438411129
 31
0.0
  0
LINE
  5
60
100
AcDbEntity
100
AcDbLine
  8
color#ffffffff
 62
256
370
-1
  6
BYLAYER
 10
2.3256916134150005
 20
3.4565004438411129
 30
0.0
 11
2.3665041500591015
 21
3.4437888818531208
 31
0.0
  0
LINE
  5
61
100
AcDbEntity
100
AcDbLine
  8
color#ffffffff
 62
256
370
-1
  6
BYLAYER
 10
2.3665041500591015
 20
3.4437888818531208
 30
0.0
 11
2.406940431544355
 21
3.4299751083823917
 31
0.0
  0
LINE
  5
62
100
AcDbEntity
100
AcDbLine
  8
color#ffffffff
 62
256
370
-1
  6
BYLAYER
 10
2.406940431544355
 20
3.4299751083823917
 30
0.0
 11
2.4469819585253294
 21
3.4150803294103422
 31
0.0
  0
LINE
  5
63
100
AcDbEntity
100
AcDbLine
  8
color#ffffffff
 62
256
370
-1
  6
BYLAYER
 10
2.4469819585253294
 20
3.4150803294103422
 30
0.0
 11
2.4866102316565897
 21
3.3991257509183894
 31
0.0
  0
LINE
  5
64
100
AcDbEntity
100
AcDbLine
  8
color#ffffffff
 62
256
370
-1
  6
BYLAYER
 10
2.4866102316565897
 20
3.3991257509183894
 30
0.0
 11
2.5258067515927047
 21
3.3821325788879508
 31
0.0
  0
LINE
  5
65
100
AcDbEntity
100
AcDbLine
  8
color#ffffffff
 62
256
370
-1
  6
BYLAYER
 10
2.5258067515927047
 20
3.3821325788879508
 30
0.0
 11
2.5645530189882404
 21
3.3641220193004422
 31
0.0
  0
LINE
  5
66
100
AcDbEntity
100
AcDbLine
  8
color#ffffffff
 62
256
370
-1
  6
BYLAYER
 10
2.5645530189882404
 20
3.3641220193004422
 30
0.0
 11
2.6028305344977642
 21
3.345115278137281
 31
0.0
  0
LINE
  5
67
100
AcDbEntity
100
AcDbLine
  8
color#ffffffff
 62
256
370
-1
  6
BYLAYER
 10
2.6028305344977642
 20
3.345115278137281
 30
0.0
 11
2.6406207987758434
 21
3.325133561379884
 31
0.0
  0
LINE
  5
68
100
AcDbEntity
100
AcDbLine
  8
color#ffffffff
 62
256
370
-1
  6
BYLAYER
 10
2.6406207987758434
 20
3.325133561379884
 30
0.0
 11
2.6779053124770438
 21
3.3041980750096687
 31
0.0
  0
LINE
  5
69
100
AcDbEntity
100
AcDbLine
  8
color#ffffffff
 62
256
370
-1
  6
BYLAYER
 10
2.6779053124770438
 20
3.3041980750096687
 30
0.0
 11
2.7146655762559337
 21
3.2823300250080512
 31
0.0
  0
LINE
  5
6A
100
AcDbEntity
100
AcDbLine
  8
color#ffffffff
 62
256
370
-1
  6
BYLAYER
 10
2.7146655762559337
 20
3.2823300250080512
 30
0.0
 11
2.75088309076708
 21
3.2595506173564481
 31
0.0
  0
LINE
  5
6B
100
AcDbEntity
100
AcDbLine
  8
color#ffffffff
 62
256
370
-1
  6
BYLAYER
 10
2.75088309076708
 20
3.2595506173564481
 30
0.0
 11
2.7865393566650489
 21
3.2358810580362776
 31
0.0
  0
LINE
  5
6C
100
AcDbEntity
100
AcDbLine
  8
color#ffffffff
 62
256
370
-1
  6
BYLAYER
 10
2.7865393566650489
 20
3.2358810580362776
 30
0.0
 11
2.8216158746044084
 21
3.2113425530289552
 31
0.0
  0
LINE
  5
6D
100
AcDbEntity
100
AcDbLine
  8
color#ffffffff
 62
256
370
-1
  6
BYLAYER
 10
2.8216158746044084
 20
3.2113425530289552
 30
0.0
 11
2.8560941452397235
 21
3.1859563083158986
 31
0.0
  0
LINE
  5
6E
100
AcDbEntity
100
AcDbLine
  8
color#ffffffff
 62
256
370
-1
  6
BYLAYER
 10
2.8560941452397235
 20
3.1859563083158986
 30
0.0
 11
2.8899556692255626
 21
3.1597435298785244
 31
0.0
  0
LINE
  5
6F
100
AcDbEntity
100
AcDbLine
  8
color#ffffffff
 62
256
370
-1
  6
BYLAYER
 10
2.8899556692255626
 20
3.1597435298785244
 30
0.0
 11
2.9231819472164942
 21
3.1327254236982496
 31
0.0
  0
LINE
  5
70
100
AcDbEntity
100
AcDbLine
  8
color#ffffffff
 62
256
370
-1
  6
BYLAYER
 10
2.9231819472164942
 20
3.1327254236982496
 30
0.0
 11
2.9557544798670818
 21
3.1049231957564913
 31
0.0
  0
LINE
  5
71
100
AcDbEntity
100
AcDbLine
  8
color#ffffffff
 62
256
370
-1
  6
BYLAYER
 10
2.9557544798670818
 20
3.1049231957564913
 30
0.0
 11
2.987654767831895
 21
3.0763580520346663
 31
0.0
  0
LINE
  5
72
100
AcDbEntity
100
AcDbLine
  8
color#ffffffff
 62
256
370
-1
  6
BYLAYER
 10
2.987654767831895
 20
3.0763580520346663
 30
0.0
 11
3.0188643117655016
 21
3.047051198514191
 31
0.0
  0
LINE
  5
73
100
AcDbEntity
100
AcDbLine
  8
color#ffffffff
 62
256
370
-1
  6
BYLAYER
 10
3.0188643117655016
 20
3.047051198514191
 30
0.0
 11
3.0493646123224658
 21
3.0170238411764831
 31
0.0
  0
LINE
  5
74
100
AcDbEntity
100
AcDbLine
  8
color#ffffffff
 62
256
370
-1
  6
BYLAYER
 10
3.0493646123224658
 20
3.0170238411764831
 30
0.0
 11
3.0791371701573556
 21
2.9862971860029583
 31
0.0
  0
LINE
  5
75
100
AcDbEntity
100
AcDbLine
  8
color#ffffffff
 62
256
370
-1
  6
BYLAYER
 10
3.0791371701573556
 20
2.9862971860029583
 30
0.0
 11
3.1081634859247398
 21
2.9548924389750346
 31
0.0
  0
LINE
  5
76
100
AcDbEntity
100
AcDbLine
  8
color#ffffffff
 62
256
370
-1
  6
BYLAYER
 10
3.1081634859247398
 20
2.9548924389750346
 30
0.0
 11
3.1364250602791821
 21
2.9228308060741286
 31
0.0
  0
LINE
  5
77
100
AcDbEntity
100
AcDbLine
  8
color#ffffffff
 62
256
370
-1
  6
BYLAYER
 10
3.1364250602791821
 20
2.9228308060741286
 30
0.0
 11
3.1639033938752537
 21
2.8901334932816569
 31
0.0
  0
LINE
  5
78
100
AcDbEntity
100
AcDbLine
  8
color#ffffffff
 62
256
370
-1
  6
BYLAYER
 10
3.1639033938752537
 20
2.8901334932816569
 30
0.0
 11
3.1905799873675167
 21
2.8568217065790367
 31
0.0
  0
LINE
  5
79
100
AcDbEntity
100
AcDbLine
  8
color#ffffffff
 62
256
370
-1
  6
BYLAYER
 10
3.1905799873675167
 20
2.8568217065790367
 30
0.0
 11
3.2144415690320884
 21
2.8256648507002859
 31
0.0
  0
LINE
  5
7A
100
AcDbEntity
100
AcDbLine
  8
color#ffffffff
 62
256
370
-1
  6
BYLAYER
 10
3.2144415690320884
 20
2.8256648507002859
 30
0.0
 11
3.2375323199360175
 21
2.793964054287104
 31
0.0
  0
LINE
  5
7B
100
AcDbEntity
100
AcDbLine
  8
color#ffffffff
 62
256
370
-1
  6
BYLAYER
 10
3.2375323199360175
 20
2.793964054287104
 30
0.0
 11
3.2598483941539462
 21
2.7617383906241044
 31
0.0
  0
LINE
  5
7C
100
AcDbEntity
100
AcDbLine
  8
color#ffffffff
 62
256
370
-1
  6
BYLAYER
 10
3.2598483941539462
 20
2.7617383906241044
 30
0.0
 11
3.2813859457605123
 21
2.7290069329958966
 31
0.0
  0
LINE
  5
7D
100
AcDbEntity
100
AcDbLine
  8
color#ffffffff
 62
256
370
-1
  6
BYLAYER
 10
3.2813859457605123
 20
2.7290069329958966
 30
0.0
 11
3.3021411288303586
 21
2.6957887546870927
 31
0.0
  0
LINE
  5
7E
100
AcDbEntity
100
AcDbLine
  8
color#ffffffff
 62
256
370
-1
  6
BYLAYER
 10
3.3021411288303586
 20
2.6957887546870927
 30
0.0
 11
3.3221100974381241
 21
2.6621029289823048
 31
0.0
  0
LINE
  5
7F
100
AcDbEntity
100
AcDbLine
  8
color#ffffffff
 62
256
370
-1
  6
BYLAYER
 10
3.3221100974381241
 20
2.6621029289823048
 30
0.0
 11
3.3412890056584499
 21
2.6279685291661434
 31
0.0
  0
LINE
  5
80
100
AcDbEntity
100
AcDbLine
  8
color#ffffffff
 62
256
370
-1
  6
BYLAYER
 10
3.3412890056584499
 20
2.6279685291661434
 30
0.0
 11
3.3596740075659763
 21
2.5934046285232202
 31
0.0
  0
LINE
  5
81
100
AcDbEntity
100
AcDbLine
  8
color#ffffffff
 62
256
370
-1
  6
BYLAYER
 10
3.3596740075659763
 20
2.5934046285232202
 30
0.0
 11
3.3772612572353435
 21
2.5584303003381468
 31
0.0
  0
LINE
  5
82
100
AcDbEntity
100
AcDbLine
  8
color#ffffffff
 62
256
370
-1
  6
BYLAYER
 10
3.3772612572353435
 20
2.5584303003381468
 30
0.0
 11
3.3940469087411924
 21
2.5230646178955336
 31
0.0
  0
LINE
  5
83
100
AcDbEntity
100
AcDbLine
  8
color#ffffffff
 62
256
370
-1
  6
BYLAYER
 10
3.3940469087411924
 20
2.5230646178955336
 30
0.0
 11
3.4100271161581626
 21
2.4873266544799932
 31
0.0
  0
LINE
  5
84
100
AcDbEntity
100
AcDbLine
  8
color#ffffffff
 62
256
370
-1
  6
BYLAYER
 10
3.4100271161581626
 20
2.4873266544799932
 30
0.0
 11
3.4251980335608954
 21
2.4512354833761369
 31
0.0
  0
LINE
  5
85
100
AcDbEntity
100
AcDbLine
  8
color#ffffffff
 62
256
370
-1
  6
BYLAYER
 10
3.4251980335608954
 20
2.4512354833761369
 30
0.0
 11
3.4395558150240308
 21
2.414810177868576
 31
0.0
  0
LINE
  5
86
100
AcDbEntity
100
AcDbLine
  8
color#ffffffff
 62
256
370
-1
  6
BYLAYER
 10
3.4395558150240308
 20
2.414810177868576
 30
0.0
 11
3.4530966146222095
 21
2.3780698112419207
 31
0.0
  0
LINE
  5
87
100
AcDbEntity
100
AcDbLine
  8
color#ffffffff
 62
256
370
-1
  6
BYLAYER
 10
3.4530966146222095
 20
2.3780698112419207
 30
0.0
 11
3.4658165864300723
 21
2.3410334567807847
 31
0.0
  0
LINE
  5
88
100
AcDbEntity
100
AcDbLine
  8
color#ffffffff
 62
256
370
-1
  6
BYLAYER
 10
3.4658165864300723
 20
2.3410334567807847
 30
0.0
 11
3.4777118845222579
 21
2.3037201877697777
 31
0.0
  0
LINE
  5
89
100
AcDbEntity
100
AcDbLine
  8
color#ffffffff
 62
256
370
-1
  6
BYLAYER
 10
3.4777118845222579
 20
2.3037201877697777
 30
0.0
 11
3.4887786629734086
 21
2.2661490774935111
 31
0.0
  0
LINE
  5
8A
100
AcDbEntity
100
AcDbLine
  8
color#ffffffff
 62
256
370
-1
  6
BYLAYER
 10
3.4887786629734086
 20
2.2661490774935111
 30
0.0
 11
3.4990130758581639
 21
2.2283391992365975
 31
0.0
  0
LINE
  5
8B
100
AcDbEntity
100
AcDbLine
  8
color#ffffffff
 62
256
370
-1
  6
BYLAYER
 10
3.4990130758581639
 20
2.2283391992365975
 30
0.0
 11
3.508411277251164
 21
2.1903096262836472
 31
0.0
  0
LINE
  5
8C
100
AcDbEntity
100
AcDbLine
  8
color#ffffffff
 62
256
370
-1
  6
BYLAYER
 10
3.508411277251164
 20
2.1903096262836472
 30
0.0
 11
3.5169694212270519
 21
2.152079431919272
 31
0.0
  0
LINE
  5
8D
100
AcDbEntity
100
AcDbLine
  8
color#ffffffff
 62
256
370
-1
  6
BYLAYER
 10
3.5169694212270519
 20
2.152079431919272
 30
0.0
 11
3.5246836618604638
 21
2.113667689428083
 31
0.0
  0
LINE
  5
8E
100
AcDbEntity
100
AcDbLine
  8
color#ffffffff
 62
256
370
-1
  6
BYLAYER
 10
3.5246836618604638
 20
2.113667689428083
 30
0.0
 11
3.5315501532260414
 21
2.0750934720946925
 31
0.0
  0
LINE
  5
8F
100
AcDbEntity
100
AcDbLine
  8
color#ffffffff
 62
256
370
-1
  6
BYLAYER
 10
3.5315501532260414
 20
2.0750934720946925
 30
0.0
 11
3.5375650493984292
 21
2.0363758532037104
 31
0.0
  0
LINE
  5
90
100
AcDbEntity
100
AcDbLine
  8
color#ffffffff
 62
256
370
-1
  6
BYLAYER
 10
3.5375650493984292
 20
2.0363758532037104
 30
0.0
 11
3.5427245044522619
 21
1.9975339060397499
 31
0.0
  0
LINE
  5
91
100
AcDbEntity
100
AcDbLine
  8
color#ffffffff
 62
256
370
-1
  6
BYLAYER
 10
3.5427245044522619
 20
1.9975339060397499
 30
0.0
 11
3.5470246724621828
 21
1.9585867038874214
 31
0.0
  0
LINE
  5
92
100
AcDbEntity
100
AcDbLine
  8
color#ffffffff
 62
256
370
-1
  6
BYLAYER
 10
3.5470246724621828
 20
1.9585867038874214
 30
0.0
 11
3.5504617075028331
 21
1.9195533200313359
 31
0.0
  0
LINE
  5
93
100
AcDbEntity
100
AcDbLine
  8
color#ffffffff
 62
256
370
-1
  6
BYLAYER
 10
3.5504617075028331
 20
1.9195533200313359
 30
0.0
 11
3.5530317636488511
 21
1.8804528277561059
 31
0.0
  0
LINE
  5
94
100
AcDbEntity
100
AcDbLine
  8
color#ffffffff
 62
256
370
-1
  6
BYLAYER
 10
3.5530317636488511
 20
1.8804528277561059
 30
0.0
 11
3.5547309949748791
 21
1.8413043003463412
 31
0.0
  0
LINE
  5
95
100
AcDbEntity
100
AcDbLine
  8
color#ffffffff
 62
256
370
-1
  6
BYLAYER
 10
3.5547309949748791
 20
1.8413043003463412
 30
0.0
 11
3.5555555555555554
 21
1.8021268110866555
 31
0.0
  0
LINE
  5
96
100
AcDbEntity
100
AcDbLine
  8
color#ffffffff
 62
256
370
-1
  6
BYLAYER
 10
3.5555555555555554
 20
1.8021268110866555
 30
0.0
 11
3.5555555555555554
 21
1.7273429967438869
 31
0.0
  0
LINE
  5
97
100
AcDbEntity
100
AcDbLine
  8
color#ffffffff
 62
256
370
-1
  6
BYLAYER
 10
3.5555555555555554
 20
1.7273429967438869
 30
0.0
 11
3.5529880378349623
 21
1.6639258569550799
 31
0.0
  0
LINE
  5
98
100
AcDbEntity
100
AcDbLine
  8
color#ffffffff
 62
256
370
-1
  6
BYLAYER
 10
3.5529880378349623
 20
1.6639258569550799
 30
0.0
 11
3.5482318967286988
 21
1.6005900576876724
 31
0.0
  0
LINE
  5
99
100
AcDbEntity
100
AcDbLine
  8
color#ffffffff
 62
256
370
-1
  6
BYLAYER
 10
3.5482318967286988
 20
1.6005900576876724
 30
0.0
 11
3.541274424205282
 21
1.5374308627212625
 31
0.0
  0
LINE
  5
9A
100
AcDbEntity
100
AcDbLine
  8
color#ffffffff
 62
256
370
-1
  6
BYLAYER
 10
3.541274424205282
 20
1.5374308627212625
 30
0.0
 11
3.5321029122332295
 21
1.4745435358354473
 31
0.0
  0
LINE
  5
9B
100
AcDbEntity
100
AcDbLine
  8
color#ffffffff
 62
256
370
-1
  6
BYLAYER
 10
3.5321029122332295
 20
1.4745435358354473
 30
0.0
 11
3.5207046527810544
 21
1.4120233408098253
 31
0.0
  0
LINE
  5
9C
100
AcDbEntity
100
AcDbLine
  8
color#ffffffff
 62
256
370
-1
  6
BYLAYER
 10
3.5207046527810544
 20
1.4120233408098253
 30
0.0
 11
3.5070669378172767
 21
1.3499655414239926
 31
0.0
  0
LINE
  5
9D
100
AcDbEntity
100
AcDbLine
  8
color#ffffffff
 62
256
370
-1
  6
BYLAYER
 10
3.5070669378172767
 20
1.3499655414239926
 30
0.0
 11
3.4911770593104112
 21
1.2884654014575472
 31
0.0
  0
LINE
  5
9E
100
AcDbEntity
100
AcDbLine
  8
color#ffffffff
 62
256
370
-1
  6
BYLAYER
 10
3.4911770593104112
 20
1.2884654014575472
 30
0.0
 11
3.4730223092289738
 21
1.2276181846900873
 31
0.0
  0
LINE
  5
9F
100
AcDbEntity
100
AcDbLine
  8
color#ffffffff
 62
256
370
-1
  6
BYLAYER
 10
3.4730223092289738
 20
1.2276181846900873
 30
0.0
 11
3.4525899795414814
 21
1.1675191549012096
 31
0.0
  0
LINE
  5
A0
100
AcDbEntity
100
AcDbLine
  8
color#ffffffff
 62
256
370
-1
  6
BYLAYER
 10
3.4525899795414814
 20
1.1675191549012096
 30
0.0
 11
3.4298673622164522
 21
1.1082635758705115
 31
0.0
  0
LINE
  5
A1
100
AcDbEntity
100
AcDbLine
  8
color#ffffffff
 62
256
370
-1
  6
BYLAYER
 10
3.4298673622164522
 20
1.1082635758705115
 30
0.0
 11
3.4176432244300208
 21
1.0789818503206048
 31
0.0
  0
LINE
  5
A2
100
AcDbEntity
100
AcDbLine
  8
color#ffffffff
 62
256
370
-1
  6
BYLAYER
 10
3.4176432244300208
 20
1.0789818503206048
 30
0.0
 11
3.4048417492223981
 21
1.0499467113775931
 31
0.0
  0
LINE
  5
A3
100
AcDbEntity
100
AcDbLine
  8
color#ffffffff
 62
256
370
-1
  6
BYLAYER
 10
3.4048417492223981
 20
1.0499467113775931
 30
0.0
 11
3.3914613480896514
 21
1.021170067013923
 31
0.0
  0
LINE
  5
A4
100
AcDbEntity
100
AcDbLine
  8
color#ffffffff
 62
256
370
-1
  6
BYLAYER
 10
3.3914613480896514
 20
1.021170067013923
 30
0.0
 11
3.377500432527841
 21
0.9926638252020474
 31
0.0
  0
LINE
  5
A5
100
AcDbEntity
100
AcDbLine
  8
color#ffffffff
 62
256
370
-1
  6
BYLAYER
 10
3.377500432527841
 20
0.9926638252020474
 30
0.0
 11
3.3629574140330334
 21
0.9644398939144155
 31
0.0
  0
LINE
  5
A6
100
AcDbEntity
100
AcDbLine
  8
color#ffffffff
 62
256
370
-1
  6
BYLAYER
 10
3.3629574140330334
 20
0.9644398939144155
 30
0.0
 11
3.3478307041012938
 21
0.9365101811234753
 31
0.0
  0
LINE
  5
A7
100
AcDbEntity
100
AcDbLine
  8
color#ffffffff
 62
256
370
-1
  6
BYLAYER
 10
3.3478307041012938
 20
0.9365101811234753
 30
0.0
 11
3.332118714228685
 21
0.9088865948016784
 31
0.0
  0
LINE
  5
A8
100
AcDbEntity
100
AcDbLine
  8
color#ffffffff
 62
256
370
-1
  6
BYLAYER
 10
3.332118714228685
 20
0.9088865948016784
 30
0.0
 11
3.3158198559112741
 21
0.8815810429214734
 31
0.0
  0
LINE
  5
A9
100
AcDbEntity
100
AcDbLine
  8
color#ffffffff
 62
256
370
-1
  6
BYLAYER
 10
3.3158198559112741
 20
0.8815810429214734
 30
0.0
 11
3.2989325406451222
 21
0.8546054334553107
 31
0.0
  0
LINE
  5
AA
100
AcDbEntity
100
AcDbLine
  8
color#ffffffff
 62
256
370
-1
  6
BYLAYER
 10
3.2989325406451222
 20
0.8546054334553107
 30
0.0
 11
3.2685595741163884
 21
0.8078885703768184
 31
0.0
  0
LINE
  5
AB
100
AcDbEntity
100
AcDbLine
  8
color#ffffffff
 62
256
370
-1
  6
BYLAYER
 10
3.2685595741163884
 20
0.8078885703768184
 30
0.0
 11
3.2366584598012378
 21
0.7622983188088249
 31
0.0
  0
LINE
  5
AC
100
AcDbEntity
100
AcDbLine
  8
color#ffffffff
 62
256
370
-1
  6
BYLAYER
 10
3.2366584598012378
 20
0.7622983188088249
 30
0.0
 11
3.2032770921112514
 21
0.717856233900402
 31
0.0
  0
LINE
  5
AD
100
AcDbEntity
100
AcDbLine
  8
color#ffffffff
 62
256
370
-1
  6
BYLAYER
 10
3.2032770921112514
 20
0.717856233900402
 30
0.0
 11
3.1684633654580079
 21
0.6745838708006207
 31
0.0
  0
LINE
  5
AE
100
AcDbEntity
100
AcDbLine
  8
color#ffffffff
 62
256
370
-1
  6
BYLAYER
 10
3.1684633654580079
 20
0.6745838708006207
 30
0.0
 11
3.1322651742530874
 21
0.6325027846585533
 31
0.0
  0
LINE
  5
AF
100
AcDbEntity
100
AcDbLine
  8
color#ffffffff
 62
256
370
-1
  6
BYLAYER
 10
3.1322651742530874
 20
0.6325027846585533
 30
0.0
 11
3.0947304129080706
 21
0.5916345306232711
 31
0.0
  0
LINE
  5
B0
100
AcDbEntity
100
AcDbLine
  8
color#ffffffff
 62
256
370
-1
  6
BYLAYER
 10
3.0947304129080706
 20
0.5916345306232711
 30
0.0
 11
3.055906975834537
 21
0.5520006638438457
 31
0.0
  0
LINE
  5
B1
100
AcDbEntity
100
AcDbLine
  8
color#ffffffff
 62
256
370
-1
  6
BYLAYER
 10
3.055906975834537
 20
0.5520006638438457
 30
0.0
 11
3.0158427574440663
 21
0.513622739469349
 31
0.0
  0
LINE
  5
B2
100
AcDbEntity
100
AcDbLine
  8
color#ffffffff
 62
256
370
-1
  6
BYLAYER
 10
3.0158427574440663
 20
0.513622739469349
 30
0.0
 11
2.9745856521482379
 21
0.476522312648852
 31
0.0
  0
LINE
  5
B3
100
AcDbEntity
100
AcDbLine
  8
color#ffffffff
 62
256
370
-1
  6
BYLAYER
 10
2.9745856521482379
 20
0.476522312648852
 30
0.0
 11
2.9321835543586325
 21
0.4407209385314267
 31
0.0
  0
LINE
  5
B4
100
AcDbEntity
100
AcDbLine
  8
color#ffffffff
 62
256
370
-1
  6
BYLAYER
 10
2.9321835543586325
 20
0.4407209385314267
 30
0.0
 11
2.8886843584868296
 21
0.4062401722661441
 31
0.0
  0
LINE
  5
B5
100
AcDbEntity
100
AcDbLine
  8
color#ffffffff
 62
256
370
-1
  6
BYLAYER
 10
2.8886843584868296
 20
0.4062401722661441
 30
0.0
 11
2.8441359589444102
 21
0.3731015690020764
 31
0.0
  0
LINE
  5
B6
100
AcDbEntity
100
AcDbLine
  8
color#ffffffff
 62
256
370
-1
  6
BYLAYER
 10
2.8441359589444102
 20
0.3731015690020764
 30
0.0
 11
2.7985862501429528
 21
0.3413266838882952
 31
0.0
  0
LINE
  5
B7
100
AcDbEntity
100
AcDbLine
  8
color#ffffffff
 62
256
370
-1
  6
BYLAYER
 10
2.7985862501429528
 20
0.3413266838882952
 30
0.0
 11
2.7520831264940377
 21
0.3109370720738716
 31
0.0
  0
LINE
  5
B8
100
AcDbEntity
100
AcDbLine
  8
color#ffffffff
 62
256
370
-1
  6
BYLAYER
 10
2.7520831264940377
 20
0.3109370720738716
 30
0.0
 11
2.7046744824092452
 21
0.2819542887078773
 31
0.0
  0
LINE
  5
B9
100
AcDbEntity
100
AcDbLine
  8
color#ffffffff
 62
256
370
-1
  6
BYLAYER
 10
2.7046744824092452
 20
0.2819542887078773
 30
0.0
 11
2.6564082123001542
 21
0.2543998889393839
 31
0.0
  0
LINE
  5
BA
100
AcDbEntity
100
AcDbLine
  8
color#ffffffff
 62
256
370
-1
  6
BYLAYER
 10
2.6564082123001542
 20
0.2543998889393839
 30
0.0
 11
2.6073322105783459
 21
0.2282954279174629
 31
0.0
  0
LINE
  5
BB
100
AcDbEntity
100
AcDbLine
  8
color#ffffffff
 62
256
370
-1
  6
BYLAYER
 10
2.6073322105783459
 20
0.2282954279174629
 30
0.0
 11
2.5574943716553986
 21
0.2036624607911877
 31
0.0
  0
LINE
  5
BC
100
AcDbEntity
100
AcDbLine
  8
color#ffffffff
 62
256
370
-1
  6
BYLAYER
 10
2.5574943716553986
 20
0.2036624607911877
 30
0.0
 11
2.5069425899428932
 21
0.1805225427096274
 31
0.0
  0
LINE
  5
BD
100
AcDbEntity
100
AcDbLine
  8
color#ffffffff
 62
256
370
-1
  6
BYLAYER
 10
2.5069425899428932
 20
0.1805225427096274
 30
0.0
 11
2.4557247598524103
 21
0.1588972288218531
 31
0.0
  0
LINE
  5
BE
100
AcDbEntity
100
AcDbLine
  8
color#ffffffff
 62
256
370
-1
  6
BYLAYER
 10
2.4557247598524103
 20
0.1588972288218531
 30
0.0
 11
2.4038887757955285
 21
0.1388080742769399
 31
0.0
  0
LINE
  5
BF
100
AcDbEntity
100
AcDbLine
  8
color#ffffffff
 62
256
370
-1
  6
BYLAYER
 10
2.4038887757955285
 20
0.1388080742769399
 30
0.0
 11
2.3514825321838275
 21
0.1202766342239568
 31
0.0
  0
LINE
  5
C0
100
AcDbEntity
100
AcDbLine
  8
color#ffffffff
 62
256
370
-1
  6
BYLAYER
 10
2.3514825321838275
 20
0.1202766342239568
 30
0.0
 11
2.298553923428889
 21
0.1033244638119746
 31
0.0
  0
LINE
  5
C1
100
AcDbEntity
100
AcDbLine
  8
color#ffffffff
 62
256
370
-1
  6
BYLAYER
 10
2.298553923428889
 20
0.1033244638119746
 30
0.0
 11
2.2451508439422918
 21
0.0879731181900662
 31
0.0
  0
LINE
  5
C2
100
AcDbEntity
100
AcDbLine
  8
color#ffffffff
 62
256
370
-1
  6
BYLAYER
 10
2.2451508439422918
 20
0.0879731181900662
 30
0.0
 11
2.1913211881356145
 21
0.0742441525073044
 31
0.0
  0
LINE
  5
C3
100
AcDbEntity
100
AcDbLine
  8
color#ffffffff
 62
256
370
-1
  6
BYLAYER
 10
2.1913211881356145
 20
0.0742441525073044
 30
0.0
 11
2.1371128504204404
 21
0.0621591219127578
 31
0.0
  0
LINE
  5
C4
100
AcDbEntity
100
AcDbLine
  8
color#ffffffff
 62
256
370
-1
  6
BYLAYER
 10
2.1371128504204404
 20
0.0621591219127578
 30
0.0
 11
2.0825737252083454
 21
0.0517395815555012
 31
0.0
  0
LINE
  5
C5
100
AcDbEntity
100
AcDbLine
  8
color#ffffffff
 62
256
370
-1
  6
BYLAYER
 10
2.0825737252083454
 20
0.0517395815555012
 30
0.0
 11
2.0277517069109123
 21
0.0430070865846027
 31
0.0
  0
LINE
  5
C6
100
AcDbEntity
100
AcDbLine
  8
color#ffffffff
 62
256
370
-1
  6
BYLAYER
 10
2.0277517069109123
 20
0.0430070865846027
 30
0.0
 11
1.9726946899397193
 21
0.0359831921491376
 31
0.0
  0
LINE
  5
C7
100
AcDbEntity
100
AcDbLine
  8
color#ffffffff
 62
256
370
-1
  6
BYLAYER
 10
1.9726946899397193
 20
0.0359831921491376
 30
0.0
 11
1.948679151006856
 21
0.0334443209011148
 31
0.0
  0
LINE
  5
C8
100
AcDbEntity
100
AcDbLine
  8
color#ffffffff
 62
256
370
-1
  6
BYLAYER
 10
1.948679151006856
 20
0.0334443209011148
 30
0.0
 11
1.852345080475359
 21
0.026558844141414
 31
0.0
  0
LINE
  5
C9
100
AcDbEntity
100
AcDbLine
  8
color#ffffffff
 62
256
370
-1
  6
BYLAYER
 10
1.852345080475359
 20
0.026558844141414
 30
0.0
 11
1.7557776626946131
 21
0.0248618909799987
 31
0.0
  0
LINE
  5
CA
100
AcDbEntity
100
AcDbLine
  8
color#ffffffff
 62
256
370
-1
  6
BYLAYER
 10
1.7557776626946131
 20
0.0248618909799987
 30
0.0
 11
1.6592458529057099
 21
0.0282954753188183
 31
0.0
  0
LINE
  5
CB
100
AcDbEntity
100
AcDbLine
  8
color#ffffffff
 62
256
370
-1
  6
BYLAYER
 10
1.6592458529057099
 20
0.0282954753188183
 30
0.0
 11
1.5630186063497422
 21
0.03680161105982
 31
0.0
  0
LINE
  5
CC
100
AcDbEntity
100
AcDbLine
  8
color#ffffffff
 62
256
370
-1
  6
BYLAYER
 10
1.5630186063497422
 20
0.03680161105982
 30
0.0
 11
1.4673648782678006
 21
0.0503223121049538
 31
0.0
  0
LINE
  5
CD
100
AcDbEntity
100
AcDbLine
  8
color#ffffffff
 62
256
370
-1
  6
BYLAYER
 10
1.4673648782678006
 20
0.0503223121049538
 30
0.0
 11
1.3725536239009786
 21
0.0687995923561683
 31
0.0
  0
LINE
  5
CE
100
AcDbEntity
100
AcDbLine
  8
color#ffffffff
 62
256
370
-1
  6
BYLAYER
 10
1.3725536239009786
 20
0.0687995923561683
 30
0.0
 11
1.2788537984903685
 21
0.09217546571541
 31
0.0
  0
LINE
  5
CF
100
AcDbEntity
100
AcDbLine
  8
color#ffffffff
 62
256
370
-1
  6
BYLAYER
 10
1.2788537984903685
 20
0.09217546571541
 30
0.0
 11
1.2379252235248261
 21
0.1038898794990995
 31
0.0
  0
LINE
  5
D0
100
AcDbEntity
100
AcDbLine
  8
color#ffffffff
 62
256
370
-1
  6
BYLAYER
 10
1.2379252235248261
 20
0.1038898794990995
 30
0.0
 11
1.1973002615336419
 21
0.1166137120021007
 31
0.0
  0
LINE
  5
D1
100
AcDbEntity
100
AcDbLine
  8
color#ffffffff
 62
256
370
-1
  6
BYLAYER
 10
1.1973002615336419
 20
0.1166137120021007
 30
0.0
 11
1.1570006860347077
 21
0.1303340597675778
 31
0.0
  0
LINE
  5
D2
100
AcDbEntity
100
AcDbLine
  8
color#ffffffff
 62
256
370
-1
  6
BYLAYER
 10
1.1570006860347077
 20
0.1303340597675778
 30
0.0
 11
1.1170482705459157
 21
0.1450380193386952
 31
0.0
  0
LINE
  5
D3
100
AcDbEntity
100
AcDbLine
  8
color#ffffffff
 62
256
370
-1
  6
BYLAYER
 10
1.1170482705459157
 20
0.1450380193386952
 30
0.0
 11
1.077464788585158
 21
0.1607126872586172
 31
0.0
  0
LINE
  5
D4
100
AcDbEntity
100
AcDbLine
  8
color#ffffffff
 62
256
370
-1
  6
BYLAYER
 10
1.077464788585158
 20
0.1607126872586172
 30
0.0
 11
1.0382720136703256
 21
0.1773451600705075
 31
0.0
  0
LINE
  5
D5
100
AcDbEntity
100
AcDbLine
  8
color#ffffffff
 62
256
370
-1
  6
BYLAYER
 10
1.0382720136703256
 20
0.1773451600705075
 30
0.0
 11
0.9994917193193112
 21
0.1949225343175311
 31
0.0
  0
LINE
  5
D6
100
AcDbEntity
100
AcDbLine
  8
color#ffffffff
 62
256
370
-1
  6
BYLAYER
 10
0.9994917193193112
 20
0.1949225343175311
 30
0.0
 11
0.9611456790500065
 21
0.2134319065428518
 31
0.0
  0
LINE
  5
D7
100
AcDbEntity
100
AcDbLine
  8
color#ffffffff
 62
256
370
-1
  6
BYLAYER
 10
0.9611456790500065
 20
0.2134319065428518
 30
0.0
 11
0.9232556663803035
 21
0.2328603732896346
 31
0.0
  0
LINE
  5
D8
100
AcDbEntity
100
AcDbLine
  8
color#ffffffff
 62
256
370
-1
  6
BYLAYER
 10
0.9232556663803035
 20
0.2328603732896346
 30
0.0
 11
0.8858434548280937
 21
0.2531950311010434
 31
0.0
  0
LINE
  5
D9
100
AcDbEntity
100
AcDbLine
  8
color#ffffffff
 62
256
370
-1
  6
BYLAYER
 10
0.8858434548280937
 20
0.2531950311010434
 30
0.0
 11
0.8489308179112695
 21
0.2744229765202423
 31
0.0
  0
LINE
  5
DA
100
AcDbEntity
100
AcDbLine
  8
color#ffffffff
 62
256
370
-1
  6
BYLAYER
 10
0.8489308179112695
 20
0.2744229765202423
 30
0.0
 11
0.8125395291477227
 21
0.2965313060903954
 31
0.0
  0
LINE
  5
DB
100
AcDbEntity
100
AcDbLine
  8
color#ffffffff
 62
256
370
-1
  6
BYLAYER
 10
0.8125395291477227
 20
0.2965313060903954
 30
0.0
 11
0.7766913620553448
 21
0.3195071163546675
 31
0.0
  0
LINE
  5
DC
100
AcDbEntity
100
AcDbLine
  8
color#ffffffff
 62
256
370
-1
  6
BYLAYER
 10
0.7766913620553448
 20
0.3195071163546675
 30
0.0
 11
0.7414080901520282
 21
0.3433375038562229
 31
0.0
  0
LINE
  5
DD
100
AcDbEntity
100
AcDbLine
  8
color#ffffffff
 62
256
370
-1
  6
BYLAYER
 10
0.7414080901520282
 20
0.3433375038562229
 30
0.0
 11
0.7067114869556647
 21
0.3680095651382255
 31
0.0
  0
LINE
  5
DE
100
AcDbEntity
100
AcDbLine
  8
color#ffffffff
 62
256
370
-1
  6
BYLAYER
 10
0.7067114869556647
 20
0.3680095651382255
 30
0.0
 11
0.6726233259841459
 21
0.3935103967438407
 31
0.0
  0
LINE
  5
DF
100
AcDbEntity
100
AcDbLine
  8
color#ffffffff
 62
256
370
-1
  6
BYLAYER
 10
0.6726233259841459
 20
0.3935103967438407
 30
0.0
 11
0.639165380755364
 21
0.4198270952162307
 31
0.0
  0
LINE
  5
E0
100
AcDbEntity
100
AcDbLine
  8
color#ffffffff
 62
256
370
-1
  6
BYLAYER
 10
0.639165380755364
 20
0.4198270952162307
 30
0.0
 11
0.6063594247872107
 21
0.4469467570985625
 31
0.0
  0
LINE
  5
E1
100
AcDbEntity
100
AcDbLine
  8
color#ffffffff
 62
256
370
-1
  6
BYLAYER
 10
0.6063594247872107
 20
0.4469467570985625
 30
0.0
 11
0.5742272315975783
 21
0.4748564789339985
 31
0.0
  0
LINE
  5
E2
100
AcDbEntity
100
AcDbLine
  8
color#ffffffff
 62
256
370
-1
  6
BYLAYER
 10
0.5742272315975783
 20
0.4748564789339985
 30
0.0
 11
0.5427905747043583
 21
0.5035433572657024
 31
0.0
  0
LINE
  5
E3
100
AcDbEntity
100
AcDbLine
  8
color#ffffffff
 62
256
370
-1
  6
BYLAYER
 10
0.5427905747043583
 20
0.5035433572657024
 30
0.0
 11
0.5120712276254427
 21
0.5329944886368412
 31
0.0
  0
LINE
  5
E4
100
AcDbEntity
100
AcDbLine
  8
color#ffffffff
 62
256
370
-1
  6
BYLAYER
 10
0.5120712276254427
 20
0.5329944886368412
 30
0.0
 11
0.4820909638787234
 21
0.5631969695905776
 31
0.0
  0
LINE
  5
E5
100
AcDbEntity
100
AcDbLine
  8
color#ffffffff
 62
256
370
-1
  6
BYLAYER
 10
0.4820909638787234
 20
0.5631969695905776
 30
0.0
 11
0.4528715569820926
 21
0.5941378966700744
 31
0.0
  0
LINE
  5
E6
100
AcDbEntity
100
AcDbLine
  8
color#ffffffff
 62
256
370
-1
  6
BYLAYER
 10
0.4528715569820926
 20
0.5941378966700744
 30
0.0
 11
0.4244347804534417
 21
0.625804366418498
 31
0.0
  0
LINE
  5
E7
100
AcDbEntity
100
AcDbLine
  8
color#ffffffff
 62
256
370
-1
  6
BYLAYER
 10
0.4244347804534417
 20
0.625804366418498
 30
0.0
 11
0.3968024078106628
 21
0.6581834753790135
 31
0.0
  0
LINE
  5
E8
100
AcDbEntity
100
AcDbLine
  8
color#ffffffff
 62
256
370
-1
  6
BYLAYER
 10
0.3968024078106628
 20
0.6581834753790135
 30
0.0
 11
0.3699962125716482
 21
0.691262320094782
 31
0.0
  0
LINE
  5
E9
100
AcDbEntity
100
AcDbLine
  8
color#ffffffff
 62
256
370
-1
  6
BYLAYER
 10
0.3699962125716482
 20
0.691262320094782
 30
0.0
 11
0.3440379682542891
 21
0.7250279971089704
 31
0.0
  0
LINE
  5
EA
100
AcDbEntity
100
AcDbLine
  8
color#ffffffff
 62
256
370
-1
  6
BYLAYER
 10
0.3440379682542891
 20
0.7250279971089704
 30
0.0
 11
0.3189494483764781
 21
0.759467602964741
 31
0.0
  0
LINE
  5
EB
100
AcDbEntity
100
AcDbLine
  8
color#ffffffff
 62
256
370
-1
  6
BYLAYER
 10
0.3189494483764781
 20
0.759467602964741
 30
0.0
 11
0.2947524264561066
 21
0.7945682342052614
 31
0.0
  0
LINE
  5
EC
100
AcDbEntity
100
AcDbLine
  8
color#ffffffff
 62
256
370
-1
  6
BYLAYER
 10
0.2947524264561066
 20
0.7945682342052614
 30
0.0
 11
0.263430783981311
 21
0.8423522183232907
 31
0.0
  0
LINE
  5
ED
100
AcDbEntity
100
AcDbLine
  8
color#ffffffff
 62
256
370
-1
  6
BYLAYER
 10
0.263430783981311
 20
0.8423522183232907
 30
0.0
 11
0.2338820982848694
 21
0.8911485607699849
 31
0.0
  0
LINE
  5
EE
100
AcDbEntity
100
AcDbLine
  8
color#ffffffff
 62
256
370
-1
  6
BYLAYER
 10
0.2338820982848694
 20
0.8911485607699849
 30
0.0
 11
0.2061060120150003
 21
0.9408984813486714
 31
0.0
  0
LINE
  5
EF
100
AcDbEntity
100
AcDbLine
  8
color#ffffffff
 62
256
370
-1
  6
BYLAYER
 10
0.2061060120150003
 20
0.9408984813486714
 30
0.0
 11
0.1801021678199226
 21
0.9915431998626774
 31
0.0
  0
LINE
  5
F0
100
AcDbEntity
100
AcDbLine
  8
color#ffffffff
 62
256
370
-1
  6
BYLAYER
 10
0.1801021678199226
 20
0.9915431998626774
 30
0.0
 11
0.1558702083478552
 21
1.0430239361153302
 31
0.0
  0
LINE
  5
F1
100
AcDbEntity
100
AcDbLine
  8
color#ffffffff
 62
256
370
-1
  6
BYLAYER
 10
0.1558702083478552
 20
1.0430239361153302
 30
0.0
 11
0.1334097762470168
 21
1.0952819099099582
 31
0.0
  0
LINE
  5
F2
100
AcDbEntity
100
AcDbLine
  8
color#ffffffff
 62
256
370
-1
  6
BYLAYER
 10
0.1334097762470168
 20
1.0952819099099582
 30
0.0
 11
0.1127205141656262
 21
1.148258341049889
 31
0.0
  0
LINE
  5
F3
100
AcDbEntity
100
AcDbLine
  8
color#ffffffff
 62
256
370
-1
  6
BYLAYER
 10
0.1127205141656262
 20
1.148258341049889
 30
0.0
 11
0.0938020647519023
 21
1.2018944493384487
 31
0.0
  0
LINE
  5
F4
100
AcDbEntity
100
AcDbLine
  8
color#ffffffff
 62
256
370
-1
  6
BYLAYER
 10
0.0938020647519023
 20
1.2018944493384487
 30
0.0
 11
0.0766540706540638
 21
1.2561314545789659
 31
0.0
  0
LINE
  5
F5
100
AcDbEntity
100
AcDbLine
  8
color#ffffffff
 62
256
370
-1
  6
BYLAYER
 10
0.0766540706540638
 20
1.2561314545789659
 30
0.0
 11
0.0612761745203295
 21
1.3109105765747684
 31
0.0
  0
LINE
  5
F6
100
AcDbEntity
100
AcDbLine
  8
color#ffffffff
 62
256
370
-1
  6
BYLAYER
 10
0.0612761745203295
 20
1.3109105765747684
 30
0.0
 11
0.0476680189989182
 21
1.3661730351291825
 31
0.0
  0
LINE
  5
F7
100
AcDbEntity
100
AcDbLine
  8
color#ffffffff
 62
256
370
-1
  6
BYLAYER
 10
0.0476680189989182
 20
1.3661730351291825
 30
0.0
 11
0.0358292467380488
 21
1.4218600500455372
 31
0.0
  0
LINE
  5
F8
100
AcDbEntity
100
AcDbLine
  8
color#ffffffff
 62
256
370
-1
  6
BYLAYER
 10
0.0358292467380488
 20
1.4218600500455372
 30
0.0
 11
0.02575950038594
 21
1.4779128411271591
 31
0.0
  0
LINE
  5
F9
100
AcDbEntity
100
AcDbLine
  8
color#ffffffff
 62
256
370
-1
  6
BYLAYER
 10
0.02575950038594
 20
1.4779128411271591
 30
0.0
 11
0.0174584225908107
 21
1.5342726281773755
 31
0.0
  0
LINE
  5
FA
100
AcDbEntity
100
AcDbLine
  8
color#ffffffff
 62
256
370
-1
  6
BYLAYER
 10
0.0174584225908107
 20
1.5342726281773755
 30
0.0
 11
0.0109256560008796
 21
1.5908806309995152
 31
0.0
  0
LINE
  5
FB
100
AcDbEntity
100
AcDbLine
  8
color#ffffffff
 62
256
370
-1
  6
BYLAYER
 10
0.0109256560008796
 20
1.5908806309995152
 30
0.0
 11
0.0061608432643656
 21
1.6476780693969044
 31
0.0
  0
LINE
  5
FC
100
AcDbEntity
100
AcDbLine
  8
color#ffffffff
 62
256
370
-1
  6
BYLAYER
 10
0.0061608432643656
 20
1.6476780693969044
 30
0.0
 11
0.0031636270294874
 21
1.7046061631728711
 31
0.0
  0
LINE
  5
FD
100
AcDbEntity
100
AcDbLine
  8
color#ffffffff
 62
256
370
-1
  6
BYLAYER
 10
0.0031636270294874
 20
1.7046061631728711
 30
0.0
 11
0.0019336499444639
 21
1.7616061321307437
 31
0.0
  0
LINE
  5
FE
100
AcDbEntity
100
AcDbLine
  8
color#ffffffff
 62
256
370
-1
  6
BYLAYER
 10
0.0019336499444639
 20
1.7616061321307437
 30
0.0
 11
0.0024705546575138
 21
1.8186191960738485
 31
0.0
  0
LINE
  5
FF
100
AcDbEntity
100
AcDbLine
  8
color#ffffffff
 62
256
370
-1
  6
BYLAYER
 10
0.0024705546575138
 20
1.8186191960738485
 30
0.0
 11
0.004773983816856
 21
1.8755865748055125
 31
0.0
  0
LINE
  5
100
100
AcDbEntity
100
AcDbLine
  8
color#ffffffff
 62
256
370
-1
  6
BYLAYER
 10
0.004773983816856
 20
1.8755865748055125
 30
0.0
 11
0.0088435800707093
 21
1.9324494881290653
 31
0.0
  0
LINE
  5
101
100
AcDbEntity
100
AcDbLine
  8
color#ffffffff
 62
256
370
-1
  6
BYLAYER
 10
0.0088435800707093
 20
1.9324494881290653
 30
0.0
 11
0.0146789860672924
 21
1.9891491558478336
 31
0.0
  0
LINE
  5
102
100
AcDbEntity
100
AcDbLine
  8
color#ffffffff
 62
256
370
-1
  6
BYLAYER
 10
0.0146789860672924
 20
1.9891491558478336
 30
0.0
 11
0.0222798444548242
 21
2.0456267977651432
 31
0.0
  0
LINE
  5
103
100
AcDbEntity
100
AcDbLine
  8
color#ffffffff
 62
256
370
-1
  6
BYLAYER
 10
0.0222798444548242
 20
2.0456267977651432
 30
0.0
 11
0.0316457978815234
 21
2.1018236336843241
 31
0.0
  0
LINE
  5
104
100
AcDbEntity
100
AcDbLine
  8
color#ffffffff
 62
256
370
-1
  6
BYLAYER
 10
0.0316457978815234
 20
2.1018236336843241
 30
0.0
 11
0.042776488995609
 21
2.1576808834087031
 31
0.0
  0
LINE
  5
105
100
AcDbEntity
100
AcDbLine
  8
color#ffffffff
 62
256
370
-1
  6
BYLAYER
 10
0.042776488995609
 20
2.1576808834087031
 30
0.0
 11
0.0556715604452996
 21
2.2131397667416071
 31
0.0
  0
LINE
  5
106
100
AcDbEntity
100
AcDbLine
  8
color#ffffffff
 62
256
370
-1
  6
BYLAYER
 10
0.0556715604452996
 20
2.2131397667416071
 30
0.0
 11
0.070330654878814
 21
2.2681415034863637
 31
0.0
  0
LINE
  5
107
100
AcDbEntity
100
AcDbLine
  8
color#ffffffff
 62
256
370
-1
  6
BYLAYER
 10
0.070330654878814
 20
2.2681415034863637
 30
0.0
 11
0.0867534149443712
 21
2.3226273134463002
 31
0.0
  0
LINE
  5
108
100
AcDbEntity
100
AcDbLine
  8
color#ffffffff
 62
256
370
-1
  6
BYLAYER
 10
0.0867534149443712
 20
2.3226273134463002
 30
0.0
 11
0.1049394832901898
 21
2.3765384164247458
 31
0.0
  0
LINE
  5
109
100
AcDbEntity
100
AcDbLine
  8
color#ffffffff
 62
256
370
-1
  6
BYLAYER
 10
0.1049394832901898
 20
2.3765384164247458
 30
0.0
 11
0.1255274046875798
 21
2.4299801879471121
 31
0.0
  0
LINE
  5
10A
100
AcDbEntity
100
AcDbLine
  8
color#ffffffff
 62
256
370
-1
  6
BYLAYER
 10
0.1255274046875798
 20
2.4299801879471121
 30
0.0
 11
0.1593902904011493
 21
2.5091213794433158
 31
0.0
  0
LINE
  5
10B
100
AcDbEntity
100
AcDbLine
  8
color#ffffffff
 62
256
370
-1
  6
BYLAYER
 10
0.1593902904011493
 20
2.5091213794433158
 30
0.0
 11
0.1839729144617098
 21
2.5610577192043973
 31
0.0
  0
LINE
  5
10C
100
AcDbEntity
100
AcDbLine
  8
color#ffffffff
 62
256
370
-1
  6
BYLAYER
 10
0.1839729144617098
 20
2.5610577192043973
 30
0.0
 11
0.2101774569953679
 21
2.6122197134071761
 31
0.0
  0
LINE
  5
10D
100
AcDbEntity
100
AcDbLine
  8
color#ffffffff
 62
256
370
-1
  6
BYLAYER
 10
0.2101774569953679
 20
2.6122197134071761
 30
0.0
 11
0.2380176536637404
 21
2.6625089775637738
 31
0.0
  0
LINE
  5
10E
100
AcDbEntity
100
AcDbLine
  8
color#ffffffff
 62
256
370
-1
  6
BYLAYER
 10
0.2380176536637404
 20
2.6625089775637738
 30
0.0
 11
0.2675072401284441
 21
2.7118271271863117
 31
0.0
  0
LINE
  5
10F
100
AcDbEntity
100
AcDbLine
  8
color#ffffffff
 62
256
370
-1
  6
BYLAYER
 10
0.2675072401284441
 20
2.7118271271863117
 30
0.0
 11
0.2986599520510956
 21
2.7600757777869109
 31
0.0
  0
LINE
  5
110
100
AcDbEntity
100
AcDbLine
  8
color#ffffffff
 62
256
370
-1
  6
BYLAYER
 10
0.2986599520510956
 20
2.7600757777869109
 30
0.0
 11
0.3314895250933118
 21
2.8071565448776914
 31
0.0
  0
LINE
  5
111
100
AcDbEntity
100
AcDbLine
  8
color#ffffffff
 62
256
370
-1
  6
BYLAYER
 10
0.3314895250933118
 20
2.8071565448776914
 30
0.0
 11
0.3660096949167093
 21
2.8529710439707761
 31
0.0
  0
LINE
  5
112
100
AcDbEntity
100
AcDbLine
  8
color#ffffffff
 62
256
370
-1
  6
BYLAYER
 10
0.3660096949167093
 20
2.8529710439707761
 30
0.0
 11
0.4022341971829052
 21
2.8974208905782848
 31
0.0
  0
LINE
  5
113
100
AcDbEntity
100
AcDbLine
  8
color#ffffffff
 62
256
370
-1
  6
BYLAYER
 10
0.4022341971829052
 20
2.8974208905782848
 30
0.0
 11
0.4401767675535162
 21
2.9404077002123388
 31
0.0
  0
LINE
  5
114
100
AcDbEntity
100
AcDbLine
  8
color#ffffffff
 62
256
370
-1
  6
BYLAYER
 10
0.4401767675535162
 20
2.9404077002123388
 30
0.0
 11
0.4798511416901586
 21
2.9818330883850601
 31
0.0
  0
LINE
  5
115
100
AcDbEntity
100
AcDbLine
  8
color#ffffffff
 62
256
370
-1
  6
BYLAYER
 10
0.4798511416901586
 20
2.9818330883850601
 30
0.0
 11
0.5212710552544498
 21
3.0215986706085687
 31
0.0
  0
LINE
  5
116
100
AcDbEntity
100
AcDbLine
  8
color#ffffffff
 62
256
370
-1
  6
BYLAYER
 10
0.5212710552544498
 20
3.0215986706085687
 30
0.0
 11
0.542639881716219
 21
3.0408282893369059
 31
0.0
  0
LINE
  5
117
100
AcDbEntity
100
AcDbLine
  8
color#ffffffff
 62
256
370
-1
  6
BYLAYER
 10
0.542639881716219
 20
3.0408282893369059
 30
0.0
 11
0.5644502439080062
 21
3.0596060623949861
 31
0.0
  0
LINE
  5
118
100
AcDbEntity
100
AcDbLine
  8
color#ffffffff
 62
256
370
-1
  6
BYLAYER
 10
0.5644502439080062
 20
3.0596060623949861
 30
0.0
 11
0.6027371250275877
 21
3.0931040233123843
 31
0.0
  0
LINE
  5
119
100
AcDbEntity
100
AcDbLine
  8
color#ffffffff
 62
256
370
-1
  6
BYLAYER
 10
0.6027371250275877
 20
3.0931040233123843
 30
0.0
 11
0.6619263180629449
 21
3.141169238839276
 31
0.0
  0
LINE
  5
11A
100
AcDbEntity
100
AcDbLine
  8
color#ffffffff
 62
256
370
-1
  6
BYLAYER
 10
0.6619263180629449
 20
3.141169238839276
 30
0.0
 11
0.7230990311123914
 21
3.1866275594277562
 31
0.0
  0
LINE
  5
11B
100
AcDbEntity
100
AcDbLine
  8
color#ffffffff
 62
256
370
-1
  6
BYLAYER
 10
0.7230990311123914
 20
3.1866275594277562
 30
0.0
 11
0.8075009353970013
 21
3.2432052149094384
 31
0.0
  0
LINE
  5
11C
100
AcDbEntity
100
AcDbLine
  8
color#ffffffff
 62
256
370
-1
  6
BYLAYER
 10
0.8075009353970013
 20
3.2432052149094384
 30
0.0
 11
0.8948358446233381
 21
3.2952005455435796
 31
0.0
  0
LINE
  5
11D
100
AcDbEntity
100
AcDbLine
  8
color#ffffffff
 62
256
370
-1
  6
BYLAYER
 10
0.8948358446233381
 20
3.2952005455435796
 30
0.0
 11
0.9847647571564888
 21
3.3426433542118761
 31
0.0
  0
LINE
  5
11E
100
AcDbEntity
100
AcDbLine
  8
color#ffffffff
 62
256
370
-1
  6
BYLAYER
 10
0.9847647571564888
 20
3.3426433542118761
 30
0.0
 11
1.0769486713615395
 21
3.3855634437960247
 31
0.0
  0
LINE
  5
11F
100
AcDbEntity
100
AcDbLine
  8
color#ffffffff
 62
256
370
-1
  6
BYLAYER
 10
1.0769486713615395
 20
3.3855634437960247
 30
0.0
 11
1.1948332124157741
 21
3.4328988848917099
 31
0.0
  0
LINE
  5
120
100
AcDbEntity
100
AcDbLine
  8
color#ffffffff
 62
256
370
-1
  6
BYLAYER
 10
2.1638087741210903
 20
2.9928820641553622
 30
0.0
 11
2.2819933388177467
 21
2.9650148297612287
 31
0.0
  0
LINE
  5
121
100
AcDbEntity
100
AcDbLine
  8
color#ffffffff
 62
256
370
-1
  6
BYLAYER
 10
2.2819933388177467
 20
2.9650148297612287
 30
0.0
 11
2.3391870677062432
 21
2.9438856523691945
 31
0.0
  0
LINE
  5
122
100
AcDbEntity
100
AcDbLine
  8
color#ffffffff
 62
256
370
-1
  6
BYLAYER
 10
2.3391870677062432
 20
2.9438856523691945
 30
0.0
 11
2.3713048280540363
 21
2.9275213257431036
 31
0.0
  0
LINE
  5
123
100
AcDbEntity
100
AcDbLine
  8
color#ffffffff
 62
256
370
-1
  6
BYLAYER
 10
2.3713048280540363
 20
2.9275213257431036
 30
0.0
 11
2.3914323630887466
 21
2.9147551734386621
 31
0.0
  0
LINE
  5
124
100
AcDbEntity
100
AcDbLine
  8
color#ffffffff
 62
256
370
-1
  6
BYLAYER
 10
2.3914323630887466
 20
2.9147551734386621
 30
0.0
 11
2.410326221018563
 21
2.9003243015190381
 31
0.0
  0
LINE
  5
125
100
AcDbEntity
100
AcDbLine
  8
color#ffffffff
 62
256
370
-1
  6
BYLAYER
 10
2.410326221018563
 20
2.9003243015190381
 30
0.0
 11
2.4278096307459176
 21
2.8840749054366226
 31
0.0
  0
LINE
  5
126
100
AcDbEntity
100
AcDbLine
  8
color#ffffffff
 62
256
370
-1
  6
BYLAYER
 10
2.4278096307459176
 20
2.8840749054366226
 30
0.0
 11
2.4359671765656778
 21
2.8752201969132409
 31
0.0
  0
LINE
  5
127
100
AcDbEntity
100
AcDbLine
  8
color#ffffffff
 62
256
370
-1
  6
BYLAYER
 10
2.4359671765656778
 20
2.8752201969132409
 30
0.0
 11
2.4437058211732339
 21
2.8658531806438075
 31
0.0
  0
LINE
  5
128
100
AcDbEntity
100
AcDbLine
  8
color#ffffffff
 62
256
370
-1
  6
BYLAYER
 10
2.4437058211732339
 20
2.8658531806438075
 30
0.0
 11
2.4510034681813857
 21
2.855954631059872
 31
0.0
  0
LINE
  5
129
100
AcDbEntity
100
AcDbLine
  8
color#ffffffff
 62
256
370
-1
  6
BYLAYER
 10
2.4510034681813857
 20
2.855954631059872
 30
0.0
 11
2.45783802120294
 21
2.8455053225929827
 31
0.0
  0
LINE
  5
12A
100
AcDbEntity
100
AcDbLine
  8
color#ffffffff
 62
256
370
-1
  6
BYLAYER
 10
2.45783802120294
 20
2.8455053225929827
 30
0.0
 11
2.4641873838506974
 21
2.8344860296746899
 31
0.0
  0
LINE
  5
12B
100
AcDbEntity
100
AcDbLine
  8
color#ffffffff
 62
256
370
-1
  6
BYLAYER
 10
2.4641873838506974
 20
2.8344860296746899
 30
0.0
 11
2.332478080879564
 21
2.823834965604159
 31
0.0
  0
LINE
  5
12C
100
AcDbEntity
100
AcDbLine
  8
color#ffffffff
 62
256
370
-1
  6
BYLAYER
 10
2.332478080879564
 20
2.823834965604159
 30
0.0
 11
2.3039469786223852
 21
2.8114887830773441
 31
0.0
  0
LINE
  5
12D
100
AcDbEntity
100
AcDbLine
  8
color#ffffffff
 62
256
370
-1
  6
BYLAYER
 10
2.3039469786223852
 20
2.8114887830773441
 30
0.0
 11
2.2881081985937195
 21
2.8002916683607544
 31
0.0
  0
LINE
  5
12E
100
AcDbEntity
100
AcDbLine
  8
color#ffffffff
 62
256
370
-1
  6
BYLAYER
 10
2.2881081985937195
 20
2.8002916683607544
 30
0.0
 11
2.3183488176864984
 21
2.7853271000644551
 31
0.0
  0
LINE
  5
12F
100
AcDbEntity
100
AcDbLine
  8
color#ffffffff
 62
256
370
-1
  6
BYLAYER
 10
2.3183488176864984
 20
2.7853271000644551
 30
0.0
 11
2.6205499578308196
 21
2.6328395841725385
 31
0.0
  0
LINE
  5
130
100
AcDbEntity
100
AcDbLine
  8
color#ffffffff
 62
256
370
-1
  6
BYLAYER
 10
2.6205499578308196
 20
2.6328395841725385
 30
0.0
 11
2.6764220579306528
 21
2.5948727349261977
 31
0.0
  0
LINE
  5
131
100
AcDbEntity
100
AcDbLine
  8
color#ffffffff
 62
256
370
-1
  6
BYLAYER
 10
2.6764220579306528
 20
2.5948727349261977
 30
0.0
 11
2.7162993061870164
 21
2.5632077656174519
 31
0.0
  0
LINE
  5
132
100
AcDbEntity
100
AcDbLine
  8
color#ffffffff
 62
256
370
-1
  6
BYLAYER
 10
2.7162993061870164
 20
2.5632077656174519
 30
0.0
 11
2.7260258201245531
 21
2.5547909401318663
 31
0.0
  0
LINE
  5
133
100
AcDbEntity
100
AcDbLine
  8
color#ffffffff
 62
256
370
-1
  6
BYLAYER
 10
2.7260258201245531
 20
2.5547909401318663
 30
0.0
 11
2.7536335153981382
 21
2.52798224997083
 31
0.0
  0
LINE
  5
134
100
AcDbEntity
100
AcDbLine
  8
color#ffffffff
 62
256
370
-1
  6
BYLAYER
 10
2.7536335153981382
 20
2.52798224997083
 30
0.0
 11
2.7788002425737535
 21
2.4990026450596088
 31
0.0
  0
LINE
  5
135
100
AcDbEntity
100
AcDbLine
  8
color#ffffffff
 62
256
370
-1
  6
BYLAYER
 10
2.7788002425737535
 20
2.4990026450596088
 30
0.0
 11
2.8083739322345416
 21
2.4573559840248751
 31
0.0
  0
LINE
  5
136
100
AcDbEntity
100
AcDbLine
  8
color#ffffffff
 62
256
370
-1
  6
BYLAYER
 10
2.8083739322345416
 20
2.4573559840248751
 30
0.0
 11
2.8331643988441746
 21
2.4127374166230506
 31
0.0
  0
LINE
  5
137
100
AcDbEntity
100
AcDbLine
  8
color#ffffffff
 62
256
370
-1
  6
BYLAYER
 10
2.8331643988441746
 20
2.4127374166230506
 30
0.0
 11
2.8529180857110408
 21
2.3656540843588449
 31
0.0
  0
LINE
  5
138
100
AcDbEntity
100
AcDbLine
  8
color#ffffffff
 62
256
370
-1
  6
BYLAYER
 10
2.8529180857110408
 20
2.3656540843588449
 30
0.0
 11
2.867381436143531
 21
2.3166131287369649
 31
0.0
  0
LINE
  5
139
100
AcDbEntity
100
AcDbLine
  8
color#ffffffff
 62
256
370
-1
  6
BYLAYER
 10
2.867381436143531
 20
2.3166131287369649
 30
0.0
 11
2.8746046354855412
 21
2.2788527990035083
 31
0.0
  0
LINE
  5
13A
100
AcDbEntity
100
AcDbLine
  8
color#ffffffff
 62
256
370
-1
  6
BYLAYER
 10
2.8746046354855412
 20
2.2788527990035083
 30
0.0
 11
2.8786024257149108
 21
2.240490523550057
 31
0.0
  0
LINE
  5
13B
100
AcDbEntity
100
AcDbLine
  8
color#ffffffff
 62
256
370
-1
  6
BYLAYER
 10
2.8786024257149108
 20
2.240490523550057
 30
0.0
 11
2.7675684479792655
 21
2.307717064735181
 31
0.0
  0
LINE
  5
13C
100
AcDbEntity
100
AcDbLine
  8
color#ffffffff
 62
256
370
-1
  6
BYLAYER
 10
2.7675684479792655
 20
2.307717064735181
 30
0.0
 11
2.7732695233662485
 21
2.2672460823957183
 31
0.0
  0
LINE
  5
13D
100
AcDbEntity
100
AcDbLine
  8
color#ffffffff
 62
256
370
-1
  6
BYLAYER
 10
2.7732695233662485
 20
2.2672460823957183
 30
0.0
 11
2.8119863763724613
 21
2.0003844904040315
 31
0.0
  0
LINE
  5
13E
100
AcDbEntity
100
AcDbLine
  8
color#ffffffff
 62
256
370
-1
  6
BYLAYER
 10
2.8119863763724613
 20
2.0003844904040315
 30
0.0
 11
2.8154929333814551
 21
1.9386447653353447
 31
0.0
  0
LINE
  5
13F
100
AcDbEntity
100
AcDbLine
  8
color#ffffffff
 62
256
370
-1
  6
BYLAYER
 10
2.8154929333814551
 20
1.9386447653353447
 30
0.0
 11
2.8154838079679951
 21
1.8976147140375792
 31
0.0
  0
LINE
  5
140
100
AcDbEntity
100
AcDbLine
  8
color#ffffffff
 62
256
370
-1
  6
BYLAYER
 10
2.8154838079679951
 20
1.8976147140375792
 30
0.0
 11
2.813218914955502
 21
1.8567389758426256
 31
0.0
  0
LINE
  5
141
100
AcDbEntity
100
AcDbLine
  8
color#ffffffff
 62
256
370
-1
  6
BYLAYER
 10
2.813218914955502
 20
1.8567389758426256
 30
0.0
 11
2.8111392242969062
 21
1.8363725011509489
 31
0.0
  0
LINE
  5
142
100
AcDbEntity
100
AcDbLine
  8
color#ffffffff
 62
256
370
-1
  6
BYLAYER
 10
2.8111392242969062
 20
1.8363725011509489
 30
0.0
 11
2.808373994175295
 21
1.8160608371256726
 31
0.0
  0
LINE
  5
143
100
AcDbEntity
100
AcDbLine
  8
color#ffffffff
 62
256
370
-1
  6
BYLAYER
 10
2.808373994175295
 20
1.8160608371256726
 30
0.0
 11
2.8048826920695817
 21
1.7958093945636944
 31
0.0
  0
LINE
  5
144
100
AcDbEntity
100
AcDbLine
  8
color#ffffffff
 62
256
370
-1
  6
BYLAYER
 10
2.8048826920695817
 20
1.7958093945636944
 30
0.0
 11
2.8006247854586848
 21
1.7756235842619124
 31
0.0
  0
LINE
  5
145
100
AcDbEntity
100
AcDbLine
  8
color#ffffffff
 62
256
370
-1
  6
BYLAYER
 10
2.8006247854586848
 20
1.7756235842619124
 30
0.0
 11
2.7955597418215148
 21
1.7555088170172271
 31
0.0
  0
LINE
  5
146
100
AcDbEntity
100
AcDbLine
  8
color#ffffffff
 62
256
370
-1
  6
BYLAYER
 10
2.7955597418215148
 20
1.7555088170172271
 30
0.0
 11
2.7896470286369879
 21
1.7354705036265361
 31
0.0
  0
LINE
  5
147
100
AcDbEntity
100
AcDbLine
  8
color#ffffffff
 62
256
370
-1
  6
BYLAYER
 10
2.7896470286369879
 20
1.7354705036265361
 30
0.0
 11
2.782846113384017
 21
1.7155140548867394
 31
0.0
  0
LINE
  5
148
100
AcDbEntity
100
AcDbLine
  8
color#ffffffff
 62
256
370
-1
  6
BYLAYER
 10
2.782846113384017
 20
1.7155140548867394
 30
0.0
 11
2.7109299517587013
 21
1.8534765855797914
 31
0.0
  0
LINE
  5
149
100
AcDbEntity
100
AcDbLine
  8
color#ffffffff
 62
256
370
-1
  6
BYLAYER
 10
2.7109299517587013
 20
1.8534765855797914
 30
0.0
 11
2.6882171905643877
 21
1.8772456155886417
 31
0.0
  0
LINE
  5
14A
100
AcDbEntity
100
AcDbLine
  8
color#ffffffff
 62
256
370
-1
  6
BYLAYER
 10
2.6882171905643877
 20
1.8772456155886417
 30
0.0
 11
2.6799816377501049
 21
1.5217754677433553
 31
0.0
  0
LINE
  5
14B
100
AcDbEntity
100
AcDbLine
  8
color#ffffffff
 62
256
370
-1
  6
BYLAYER
 10
2.6799816377501049
 20
1.5217754677433553
 30
0.0
 11
2.6650880629310647
 21
1.4300652935948766
 31
0.0
  0
LINE
  5
14C
100
AcDbEntity
100
AcDbLine
  8
color#ffffffff
 62
256
370
-1
  6
BYLAYER
 10
2.6650880629310647
 20
1.4300652935948766
 30
0.0
 11
2.6609399032689685
 21
1.4108450075220438
 31
0.0
  0
LINE
  5
14D
100
AcDbEntity
100
AcDbLine
  8
color#ffffffff
 62
256
370
-1
  6
BYLAYER
 10
2.6609399032689685
 20
1.4108450075220438
 30
0.0
 11
2.6126687072121095
 21
1.2709583547004526
 31
0.0
  0
LINE
  5
14E
100
AcDbEntity
100
AcDbLine
  8
color#ffffffff
 62
256
370
-1
  6
BYLAYER
 10
2.6126687072121095
 20
1.2709583547004526
 30
0.0
 11
2.5765404919758357
 21
1.2124038953756948
 31
0.0
  0
LINE
  5
14F
100
AcDbEntity
100
AcDbLine
  8
color#ffffffff
 62
256
370
-1
  6
BYLAYER
 10
2.5765404919758357
 20
1.2124038953756948
 30
0.0
 11
2.5440158643282871
 21
1.1750187667840761
 31
0.0
  0
LINE
  5
150
100
AcDbEntity
100
AcDbLine
  8
color#ffffffff
 62
256
370
-1
  6
BYLAYER
 10
2.5440158643282871
 20
1.1750187667840761
 30
0.0
 11
2.544822765808382
 21
1.1892182512916614
 31
0.0
  0
LINE
  5
151
100
AcDbEntity
100
AcDbLine
  8
color#ffffffff
 62
256
370
-1
  6
BYLAYER
 10
2.544822765808382
 20
1.1892182512916614
 30
0.0
 11
2.5612426332100848
 21
1.3314253156342712
 31
0.0
  0
LINE
  5
152
100
AcDbEntity
100
AcDbLine
  8
color#ffffffff
 62
256
370
-1
  6
BYLAYER
 10
2.5612426332100848
 20
1.3314253156342712
 30
0.0
 11
2.5566725985316667
 21
1.359450480045999
 31
0.0
  0
LINE
  5
153
100
AcDbEntity
100
AcDbLine
  8
color#ffffffff
 62
256
370
-1
  6
BYLAYER
 10
2.5566725985316667
 20
1.359450480045999
 30
0.0
 11
2.5493289717759549
 21
1.3802732243544058
 31
0.0
  0
LINE
  5
154
100
AcDbEntity
100
AcDbLine
  8
color#ffffffff
 62
256
370
-1
  6
BYLAYER
 10
2.5493289717759549
 20
1.3802732243544058
 30
0.0
 11
2.4922022935128472
 21
1.2735668016878516
 31
0.0
  0
LINE
  5
155
100
AcDbEntity
100
AcDbLine
  8
color#ffffffff
 62
256
370
-1
  6
BYLAYER
 10
2.4922022935128472
 20
1.2735668016878516
 30
0.0
 11
2.4097285859784554
 21
1.173922350582298
 31
0.0
  0
LINE
  5
156
100
AcDbEntity
100
AcDbLine
  8
color#ffffffff
 62
256
370
-1
  6
BYLAYER
 10
2.4097285859784554
 20
1.173922350582298
 30
0.0
 11
2.3918732747221965
 21
1.1585861431340605
 31
0.0
  0
LINE
  5
157
100
AcDbEntity
100
AcDbLine
  8
color#ffffffff
 62
256
370
-1
  6
BYLAYER
 10
2.3918732747221965
 20
1.1585861431340605
 30
0.0
 11
2.3735557816756767
 21
1.1438650482271493
 31
0.0
  0
LINE
  5
158
100
AcDbEntity
100
AcDbLine
  8
color#ffffffff
 62
256
370
-1
  6
BYLAYER
 10
2.3735557816756767
 20
1.1438650482271493
 30
0.0
 11
2.3547959738648347
 21
1.1297592667383083
 31
0.0
  0
LINE
  5
159
100
AcDbEntity
100
AcDbLine
  8
color#ffffffff
 62
256
370
-1
  6
BYLAYER
 10
2.3547959738648347
 20
1.1297592667383083
 30
0.0
 11
2.3356137183156074
 21
1.1162689995442838
 31
0.0
  0
LINE
  5
15A
100
AcDbEntity
100
AcDbLine
  8
color#ffffffff
 62
256
370
-1
  6
BYLAYER
 10
2.3356137183156074
 20
1.1162689995442838
 30
0.0
 11
2.3160288820539341
 21
1.10339444752182
 31
0.0
  0
LINE
  5
15B
100
AcDbEntity
100
AcDbLine
  8
color#ffffffff
 62
256
370
-1
  6
BYLAYER
 10
2.3160288820539341
 20
1.10339444752182
 30
0.0
 11
2.2960613321057526
 21
1.0911358115476628
 31
0.0
  0
LINE
  5
15C
100
AcDbEntity
100
AcDbLine
  8
color#ffffffff
 62
256
370
-1
  6
BYLAYER
 10
2.2960613321057526
 20
1.0911358115476628
 30
0.0
 11
2.2757309354970001
 21
1.079493292498557
 31
0.0
  0
LINE
  5
15D
100
AcDbEntity
100
AcDbLine
  8
color#ffffffff
 62
256
370
-1
  6
BYLAYER
 10
2.2757309354970001
 20
1.079493292498557
 30
0.0
 11
2.2550575592536166
 21
1.0684670912512471
 31
0.0
  0
LINE
  5
15E
100
AcDbEntity
100
AcDbLine
  8
color#ffffffff
 62
256
370
-1
  6
BYLAYER
 10
2.2550575592536166
 20
1.0684670912512471
 30
0.0
 11
2.2340610704015393
 21
1.0580574086824792
 31
0.0
  0
LINE
  5
15F
100
AcDbEntity
100
AcDbLine
  8
color#ffffffff
 62
256
370
-1
  6
BYLAYER
 10
2.2340610704015393
 20
1.0580574086824792
 30
0.0
 11
2.2127613359667055
 21
1.0482644456689982
 31
0.0
  0
LINE
  5
160
100
AcDbEntity
100
AcDbLine
  8
color#ffffffff
 62
256
370
-1
  6
BYLAYER
 10
2.2127613359667055
 20
1.0482644456689982
 30
0.0
 11
2.1911782229750552
 21
1.0390884030875489
 31
0.0
  0
LINE
  5
161
100
AcDbEntity
100
AcDbLine
  8
color#ffffffff
 62
256
370
-1
  6
BYLAYER
 10
2.1911782229750552
 20
1.0390884030875489
 30
0.0
 11
2.169331598452525
 21
1.0305294818148762
 31
0.0
  0
LINE
  5
162
100
AcDbEntity
100
AcDbLine
  8
color#ffffffff
 62
256
370
-1
  6
BYLAYER
 10
2.169331598452525
 20
1.0305294818148762
 30
0.0
 11
2.1472413294250541
 21
1.0225878827277255
 31
0.0
  0
LINE
  5
163
100
AcDbEntity
100
AcDbLine
  8
color#ffffffff
 62
256
370
-1
  6
BYLAYER
 10
2.1472413294250541
 20
1.0225878827277255
 30
0.0
 11
2.1249272829185801
 21
1.0152638067028421
 31
0.0
  0
LINE
  5
164
100
AcDbEntity
100
AcDbLine
  8
color#ffffffff
 62
256
370
-1
  6
BYLAYER
 10
2.1249272829185801
 20
1.0152638067028421
 30
0.0
 11
2.1024093259590408
 21
1.0085574546169707
 31
0.0
  0
LINE
  5
165
100
AcDbEntity
100
AcDbLine
  8
color#ffffffff
 62
256
370
-1
  6
BYLAYER
 10
2.1024093259590408
 20
1.0085574546169707
 30
0.0
 11
2.0797073255723753
 21
1.0024690273468575
 31
0.0
  0
LINE
  5
166
100
AcDbEntity
100
AcDbLine
  8
color#ffffffff
 62
256
370
-1
  6
BYLAYER
 10
2.0797073255723753
 20
1.0024690273468575
 30
0.0
 11
2.056841148784522
 21
0.996998725769246
 31
0.0
  0
LINE
  5
167
100
AcDbEntity
100
AcDbLine
  8
color#ffffffff
 62
256
370
-1
  6
BYLAYER
 10
2.056841148784522
 20
0.996998725769246
 30
0.0
 11
2.0338306626214169
 21
0.992146750760883
 31
0.0
  0
LINE
  5
168
100
AcDbEntity
100
AcDbLine
  8
color#ffffffff
 62
256
370
-1
  6
BYLAYER
 10
2.0338306626214169
 20
0.992146750760883
 30
0.0
 11
2.0106957341090004
 21
0.9879133031985121
 31
0.0
  0
LINE
  5
169
100
AcDbEntity
100
AcDbLine
  8
color#ffffffff
 62
256
370
-1
  6
BYLAYER
 10
2.0106957341090004
 20
0.9879133031985121
 30
0.0
 11
1.9874562302732102
 21
0.9842985839588789
 31
0.0
  0
LINE
  5
16A
100
AcDbEntity
100
AcDbLine
  8
color#ffffffff
 62
256
370
-1
  6
BYLAYER
 10
1.9874562302732102
 20
0.9842985839588789
 30
0.0
 11
1.9641320181399833
 21
0.9813027939187293
 31
0.0
  0
LINE
  5
16B
100
AcDbEntity
100
AcDbLine
  8
color#ffffffff
 62
256
370
-1
  6
BYLAYER
 10
1.9641320181399833
 20
0.9813027939187293
 30
0.0
 11
1.9173089370849752
 21
0.9771688049438593
 31
0.0
  0
LINE
  5
16C
100
AcDbEntity
100
AcDbLine
  8
color#ffffffff
 62
256
370
-1
  6
BYLAYER
 10
1.9173089370849752
 20
0.9771688049438593
 30
0.0
 11
1.8703854271514808
 21
0.9755129432878624
 31
0.0
  0
LINE
  5
16D
100
AcDbEntity
100
AcDbLine
  8
color#ffffffff
 62
256
370
-1
  6
BYLAYER
 10
1.8703854271514808
 20
0.9755129432878624
 30
0.0
 11
1.8235204245470074
 21
0.9763368159646993
 31
0.0
  0
LINE
  5
16E
100
AcDbEntity
100
AcDbLine
  8
color#ffffffff
 62
256
370
-1
  6
BYLAYER
 10
1.8235204245470074
 20
0.9763368159646993
 30
0.0
 11
1.8001595310579985
 21
0.9776791548697932
 31
0.0
  0
LINE
  5
16F
100
AcDbEntity
100
AcDbLine
  8
color#ffffffff
 62
256
370
-1
  6
BYLAYER
 10
1.8001595310579985
 20
0.9776791548697932
 30
0.0
 11
1.7768728654790582
 21
0.9796420299883317
 31
0.0
  0
LINE
  5
170
100
AcDbEntity
100
AcDbLine
  8
color#ffffffff
 62
256
370
-1
  6
BYLAYER
 10
1.7768728654790582
 20
0.9796420299883317
 30
0.0
 11
1.7621444532234742
 21
0.9813464396060082
 31
0.0
  0
LINE
  5
171
100
AcDbEntity
100
AcDbLine
  8
color#ffffffff
 62
256
370
-1
  6
BYLAYER
 10
1.7621444532234742
 20
0.9813464396060082
 30
0.0
 11
1.7179005001376426
 21
0.9886182969960515
 31
0.0
  0
LINE
  5
172
100
AcDbEntity
100
AcDbLine
  8
color#ffffffff
 62
256
370
-1
  6
BYLAYER
 10
1.7179005001376426
 20
0.9886182969960515
 30
0.0
 11
1.67398405635379
 21
0.9992038550773204
 31
0.0
  0
LINE
  5
173
100
AcDbEntity
100
AcDbLine
  8
color#ffffffff
 62
256
370
-1
  6
BYLAYER
 10
1.67398405635379
 20
0.9992038550773204
 30
0.0
 11
1.6309294438755404
 21
1.0132005168457243
 31
0.0
  0
LINE
  5
174
100
AcDbEntity
100
AcDbLine
  8
color#ffffffff
 62
256
370
-1
  6
BYLAYER
 10
1.6309294438755404
 20
1.0132005168457243
 30
0.0
 11
1.5892709847065203
 21
1.0307056852971703
 31
0.0
  0
LINE
  5
175
100
AcDbEntity
100
AcDbLine
  8
color#ffffffff
 62
256
370
-1
  6
BYLAYER
 10
1.5892709847065203
 20
1.0307056852971703
 30
0.0
 11
1.5625381820390292
 21
1.0443730682224965
 31
0.0
  0
LINE
  5
176
100
AcDbEntity
100
AcDbLine
  8
color#ffffffff
 62
256
370
-1
  6
BYLAYER
 10
1.5625381820390292
 20
1.0443730682224965
 30
0.0
 11
1.5368216860301771
 21
1.0596719378187356
 31
0.0
  0
LINE
  5
177
100
AcDbEntity
100
AcDbLine
  8
color#ffffffff
 62
256
370
-1
  6
BYLAYER
 10
1.5368216860301771
 20
1.0596719378187356
 30
0.0
 11
1.5122798143106668
 21
1.0766311542328255
 31
0.0
  0
LINE
  5
178
100
AcDbEntity
100
AcDbLine
  8
color#ffffffff
 62
256
370
-1
  6
BYLAYER
 10
1.5122798143106668
 20
1.0766311542328255
 30
0.0
 11
1.4890708845112035
 21
1.0952795776117001
 31
0.0
  0
LINE
  5
179
100
AcDbEntity
100
AcDbLine
  8
color#ffffffff
 62
256
370
-1
  6
BYLAYER
 10
1.4890708845112035
 20
1.0952795776117001
 30
0.0
 11
1.4673532142624903
 21
1.1156460681022955
 31
0.0
  0
LINE
  5
17A
100
AcDbEntity
100
AcDbLine
  8
color#ffffffff
 62
256
370
-1
  6
BYLAYER
 10
1.4673532142624903
 20
1.1156460681022955
 30
0.0
 11
1.4472851211952307
 21
1.137759485851549
 31
0.0
  0
LINE
  5
17B
100
AcDbEntity
100
AcDbLine
  8
color#ffffffff
 62
256
370
-1
  6
BYLAYER
 10
1.4472851211952307
 20
1.137759485851549
 30
0.0
 11
1.4379191403642413
 21
1.1494803112440881
 31
0.0
  0
LINE
  5
17C
100
AcDbEntity
100
AcDbLine
  8
color#ffffffff
 62
256
370
-1
  6
BYLAYER
 10
1.4379191403642413
 20
1.1494803112440881
 30
0.0
 11
1.4290249229401291
 21
1.1616486910063943
 31
0.0
  0
LINE
  5
17D
100
AcDbEntity
100
AcDbLine
  8
color#ffffffff
 62
256
370
-1
  6
BYLAYER
 10
1.4290249229401291
 20
1.1616486910063943
 30
0.0
 11
1.4206222586267325
 21
1.174268232656831
 31
0.0
  0
LINE
  5
17E
100
AcDbEntity
100
AcDbLine
  8
color#ffffffff
 62
256
370
-1
  6
BYLAYER
 10
1.4206222586267325
 20
1.174268232656831
 30
0.0
 11
1.4127309371278887
 21
1.1873425437137679
 31
0.0
  0
LINE
  5
17F
100
AcDbEntity
100
AcDbLine
  8
color#ffffffff
 62
256
370
-1
  6
BYLAYER
 10
1.4127309371278887
 20
1.1873425437137679
 30
0.0
 11
1.6260275966297313
 21
1.2076191124681719
 31
0.0
  0
LINE
  5
180
100
AcDbEntity
100
AcDbLine
  8
color#ffffffff
 62
256
370
-1
  6
BYLAYER
 10
1.6260275966297313
 20
1.2076191124681719
 30
0.0
 11
1.6595265667471999
 21
1.2194918090551958
 31
0.0
  0
LINE
  5
181
100
AcDbEntity
100
AcDbLine
  8
color#ffffffff
 62
256
370
-1
  6
BYLAYER
 10
1.6595265667471999
 20
1.2194918090551958
 30
0.0
 11
1.6922133302423203
 21
1.2333100725524693
 31
0.0
  0
LINE
  5
182
100
AcDbEntity
100
AcDbLine
  8
color#ffffffff
 62
256
370
-1
  6
BYLAYER
 10
1.6922133302423203
 20
1.2333100725524693
 30
0.0
 11
1.78698351649675
 21
1.2825475034762535
 31
0.0
  0
LINE
  5
183
100
AcDbEntity
100
AcDbLine
  8
color#ffffffff
 62
256
370
-1
  6
BYLAYER
 10
1.78698351649675
 20
1.2825475034762535
 30
0.0
 11
1.9434656258366347
 21
1.3672074569452575
 31
0.0
  0
LINE
  5
184
100
AcDbEntity
100
AcDbLine
  8
color#ffffffff
 62
256
370
-1
  6
BYLAYER
 10
1.9434656258366347
 20
1.3672074569452575
 30
0.0
 11
1.9759666394948272
 21
1.381027398001887
 31
0.0
  0
LINE
  5
185
100
AcDbEntity
100
AcDbLine
  8
color#ffffffff
 62
256
370
-1
  6
BYLAYER
 10
1.9759666394948272
 20
1.381027398001887
 30
0.0
 11
2.0092385820338294
 21
1.3929021449392336
 31
0.0
  0
LINE
  5
186
100
AcDbEntity
100
AcDbLine
  8
color#ffffffff
 62
256
370
-1
  6
BYLAYER
 10
2.0092385820338294
 20
1.3929021449392336
 30
0.0
 11
2.0262131246181072
 21
1.3979884843310044
 31
0.0
  0
LINE
  5
187
100
AcDbEntity
100
AcDbLine
  8
color#ffffffff
 62
256
370
-1
  6
BYLAYER
 10
2.0262131246181072
 20
1.3979884843310044
 30
0.0
 11
2.0434397670039557
 21
1.4024426216543462
 31
0.0
  0
LINE
  5
188
100
AcDbEntity
100
AcDbLine
  8
color#ffffffff
 62
256
370
-1
  6
BYLAYER
 10
2.0434397670039557
 20
1.4024426216543462
 30
0.0
 11
2.0609382983851638
 21
1.4062159223963921
 31
0.0
  0
LINE
  5
189
100
AcDbEntity
100
AcDbLine
  8
color#ffffffff
 62
256
370
-1
  6
BYLAYER
 10
2.0609382983851638
 20
1.4062159223963921
 30
0.0
 11
2.0787285079555229
 21
1.4092597520442718
 31
0.0
  0
LINE
  5
18A
100
AcDbEntity
100
AcDbLine
  8
color#ffffffff
 62
256
370
-1
  6
BYLAYER
 10
2.0787285079555229
 20
1.4092597520442718
 30
0.0
 11
2.0968301849088191
 21
1.4115254760851168
 31
0.0
  0
LINE
  5
18B
100
AcDbEntity
100
AcDbLine
  8
color#ffffffff
 62
256
370
-1
  6
BYLAYER
 10
2.0968301849088191
 20
1.4115254760851168
 30
0.0
 11
2.0949410209969694
 21
1.4231425854326123
 31
0.0
  0
LINE
  5
18C
100
AcDbEntity
100
AcDbLine
  8
color#ffffffff
 62
256
370
-1
  6
BYLAYER
 10
2.0949410209969694
 20
1.4231425854326123
 30
0.0
 11
2.0923931565147873
 21
1.4345122100844785
 31
0.0
  0
LINE
  5
18D
100
AcDbEntity
100
AcDbLine
  8
color#ffffffff
 62
256
370
-1
  6
BYLAYER
 10
2.0923931565147873
 20
1.4345122100844785
 30
0.0
 11
2.0892099879360022
 21
1.445621980758816
 31
0.0
  0
LINE
  5
18E
100
AcDbEntity
100
AcDbLine
  8
color#ffffffff
 62
256
370
-1
  6
BYLAYER
 10
2.0892099879360022
 20
1.445621980758816
 30
0.0
 11
2.0854149117343415
 21
1.4564595281737287
 31
0.0
  0
LINE
  5
18F
100
AcDbEntity
100
AcDbLine
  8
color#ffffffff
 62
256
370
-1
  6
BYLAYER
 10
2.0854149117343415
 20
1.4564595281737287
 30
0.0
 11
2.0810313243835341
 21
1.4670124830473175
 31
0.0
  0
LINE
  5
190
100
AcDbEntity
100
AcDbLine
  8
color#ffffffff
 62
256
370
-1
  6
BYLAYER
 10
2.0810313243835341
 20
1.4670124830473175
 30
0.0
 11
2.0760826223573079
 21
1.4772684760976844
 31
0.0
  0
LINE
  5
191
100
AcDbEntity
100
AcDbLine
  8
color#ffffffff
 62
256
370
-1
  6
BYLAYER
 10
2.0760826223573079
 20
1.4772684760976844
 30
0.0
 11
2.0705922021293923
 21
1.4872151380429324
 31
0.0
  0
LINE
  5
192
100
AcDbEntity
100
AcDbLine
  8
color#ffffffff
 62
256
370
-1
  6
BYLAYER
 10
2.0705922021293923
 20
1.4872151380429324
 30
0.0
 11
2.0580797929634054
 21
1.5061309914904786
 31
0.0
  0
LINE
  5
193
100
AcDbEntity
100
AcDbLine
  8
color#ffffffff
 62
256
370
-1
  6
BYLAYER
 10
2.0580797929634054
 20
1.5061309914904786
 30
0.0
 11
2.0436812686754
 21
1.5236610891347719
 31
0.0
  0
LINE
  5
194
100
AcDbEntity
100
AcDbLine
  8
color#ffffffff
 62
256
370
-1
  6
BYLAYER
 10
2.0436812686754
 20
1.5236610891347719
 30
0.0
 11
2.0275838010552039
 21
1.5397064767206301
 31
0.0
  0
LINE
  5
195
100
AcDbEntity
100
AcDbLine
  8
color#ffffffff
 62
256
370
-1
  6
BYLAYER
 10
2.0275838010552039
 20
1.5397064767206301
 30
0.0
 11
2.0099745618926459
 21
1.5541681999928683
 31
0.0
  0
LINE
  5
196
100
AcDbEntity
100
AcDbLine
  8
color#ffffffff
 62
256
370
-1
  6
BYLAYER
 10
2.0099745618926459
 20
1.5541681999928683
 30
0.0
 11
1.991040722977552
 21
1.5669473046963038
 31
0.0
  0
LINE
  5
197
100
AcDbEntity
100
AcDbLine
  8
color#ffffffff
 62
256
370
-1
  6
BYLAYER
 10
1.991040722977552
 20
1.5669473046963038
 30
0.0
 11
1.9709694560997499
 21
1.5779448365757547
 31
0.0
  0
LINE
  5
198
100
AcDbEntity
100
AcDbLine
  8
color#ffffffff
 62
256
370
-1
  6
BYLAYER
 10
1.9709694560997499
 20
1.5779448365757547
 30
0.0
 11
1.9499479330490681
 21
1.587061841376036
 31
0.0
  0
LINE
  5
199
100
AcDbEntity
100
AcDbLine
  8
color#ffffffff
 62
256
370
-1
  6
BYLAYER
 10
1.9499479330490681
 20
1.587061841376036
 30
0.0
 11
1.9281633256153334
 21
1.594199364841965
 31
0.0
  0
LINE
  5
19A
100
AcDbEntity
100
AcDbLine
  8
color#ffffffff
 62
256
370
-1
  6
BYLAYER
 10
1.9281633256153334
 20
1.594199364841965
 30
0.0
 11
1.9058028055883736
 21
1.5992584527183586
 31
0.0
  0
LINE
  5
19B
100
AcDbEntity
100
AcDbLine
  8
color#ffffffff
 62
256
370
-1
  6
BYLAYER
 10
1.9058028055883736
 20
1.5992584527183586
 30
0.0
 11
1.8830535447580172
 21
1.6021401507500335
 31
0.0
  0
LINE
  5
19C
100
AcDbEntity
100
AcDbLine
  8
color#ffffffff
 62
256
370
-1
  6
BYLAYER
 10
1.8830535447580172
 20
1.6021401507500335
 30
0.0
 11
1.860102714914091
 21
1.6027455046818053
 31
0.0
  0
LINE
  5
19D
100
AcDbEntity
100
AcDbLine
  8
color#ffffffff
 62
256
370
-1
  6
BYLAYER
 10
1.860102714914091
 20
1.6027455046818053
 30
0.0
 11
1.8480588400099789
 21
1.6023950969618908
 31
0.0
  0
LINE
  5
19E
100
AcDbEntity
100
AcDbLine
  8
color#ffffffff
 62
256
370
-1
  6
BYLAYER
 10
1.8480588400099789
 20
1.6023950969618908
 30
0.0
 11
1.8362025458798097
 21
1.601423557237653
 31
0.0
  0
LINE
  5
19F
100
AcDbEntity
100
AcDbLine
  8
color#ffffffff
 62
256
370
-1
  6
BYLAYER
 10
1.8362025458798097
 20
1.601423557237653
 30
0.0
 11
1.8130012853337507
 21
1.5977842332538923
 31
0.0
  0
LINE
  5
1A0
100
AcDbEntity
100
AcDbLine
  8
color#ffffffff
 62
256
370
-1
  6
BYLAYER
 10
1.8130012853337507
 20
1.5977842332538923
 30
0.0
 11
1.7903961040608176
 21
1.5921618356858953
 31
0.0
  0
LINE
  5
1A1
100
AcDbEntity
100
AcDbLine
  8
color#ffffffff
 62
256
370
-1
  6
BYLAYER
 10
1.7903961040608176
 20
1.5921618356858953
 30
0.0
 11
1.7465626624739372
 21
1.5763050316186851
 31
0.0
  0
LINE
  5
1A2
100
AcDbEntity
100
AcDbLine
  8
color#ffffffff
 62
256
370
-1
  6
BYLAYER
 10
1.7465626624739372
 20
1.5763050316186851
 30
0.0
 11
1.5968062194039971
 21
1.5074819339197991
 31
0.0
  0
LINE
  5
1A3
100
AcDbEntity
100
AcDbLine
  8
color#ffffffff
 62
256
370
-1
  6
BYLAYER
 10
1.5968062194039971
 20
1.5074819339197991
 30
0.0
 11
1.5631620123870364
 21
1.4974966807846224
 31
0.0
  0
LINE
  5
1A4
100
AcDbEntity
100
AcDbLine
  8
color#ffffffff
 62
256
370
-1
  6
BYLAYER
 10
1.5631620123870364
 20
1.4974966807846224
 30
0.0
 11
1.5400208929199237
 21
1.4930969619153223
 31
0.0
  0
LINE
  5
1A5
100
AcDbEntity
100
AcDbLine
  8
color#ffffffff
 62
256
370
-1
  6
BYLAYER
 10
1.5400208929199237
 20
1.4930969619153223
 30
0.0
 11
1.5328966441136662
 21
1.4923167325509672
 31
0.0
  0
LINE
  5
1A6
100
AcDbEntity
100
AcDbLine
  8
color#ffffffff
 62
256
370
-1
  6
BYLAYER
 10
1.5328966441136662
 20
1.4923167325509672
 30
0.0
 11
1.5050239356516191
 21
1.4926610722635034
 31
0.0
  0
LINE
  5
1A7
100
AcDbEntity
100
AcDbLine
  8
color#ffffffff
 62
256
370
-1
  6
BYLAYER
 10
1.5050239356516191
 20
1.4926610722635034
 30
0.0
 11
1.471589936797657
 21
1.4998702944464053
 31
0.0
  0
LINE
  5
1A8
100
AcDbEntity
100
AcDbLine
  8
color#ffffffff
 62
256
370
-1
  6
BYLAYER
 10
1.471589936797657
 20
1.4998702944464053
 30
0.0
 11
1.3588607923070799
 21
1.5670722183709573
 31
0.0
  0
LINE
  5
1A9
100
AcDbEntity
100
AcDbLine
  8
color#ffffffff
 62
256
370
-1
  6
BYLAYER
 10
1.3588607923070799
 20
1.5670722183709573
 30
0.0
 11
1.2714332072674803
 21
1.6446842343679522
 31
0.0
  0
LINE
  5
1AA
100
AcDbEntity
100
AcDbLine
  8
color#ffffffff
 62
256
370
-1
  6
BYLAYER
 10
1.2714332072674803
 20
1.6446842343679522
 30
0.0
 11
1.2305455519009956
 21
1.7008692990736805
 31
0.0
  0
LINE
  5
1AB
100
AcDbEntity
100
AcDbLine
  8
color#ffffffff
 62
256
370
-1
  6
BYLAYER
 10
1.2305455519009956
 20
1.7008692990736805
 30
0.0
 11
1.2154009268648402
 21
1.7368433034791875
 31
0.0
  0
LINE
  5
1AC
100
AcDbEntity
100
AcDbLine
  8
color#ffffffff
 62
256
370
-1
  6
BYLAYER
 10
1.2154009268648402
 20
1.7368433034791875
 30
0.0
 11
1.2119213319138744
 21
1.7495634099571653
 31
0.0
  0
LINE
  5
1AD
100
AcDbEntity
100
AcDbLine
  8
color#ffffffff
 62
256
370
-1
  6
BYLAYER
 10
1.2119213319138744
 20
1.7495634099571653
 30
0.0
 11
1.2123179775596653
 21
1.779975771144118
 31
0.0
  0
LINE
  5
1AE
100
AcDbEntity
100
AcDbLine
  8
color#ffffffff
 62
256
370
-1
  6
BYLAYER
 10
1.2123179775596653
 20
1.779975771144118
 30
0.0
 11
1.2260377725755047
 21
1.8115493672003022
 31
0.0
  0
LINE
  5
1AF
100
AcDbEntity
100
AcDbLine
  8
color#ffffffff
 62
256
370
-1
  6
BYLAYER
 10
1.2260377725755047
 20
1.8115493672003022
 30
0.0
 11
1.2445264747481071
 21
1.8293764677032618
 31
0.0
  0
LINE
  5
1B0
100
AcDbEntity
100
AcDbLine
  8
color#ffffffff
 62
256
370
-1
  6
BYLAYER
 10
1.2445264747481071
 20
1.8293764677032618
 30
0.0
 11
1.2646576770741331
 21
1.8382527000107192
 31
0.0
  0
LINE
  5
1B1
100
AcDbEntity
100
AcDbLine
  8
color#ffffffff
 62
256
370
-1
  6
BYLAYER
 10
1.2646576770741331
 20
1.8382527000107192
 30
0.0
 11
1.2725539260332122
 21
1.8407555029949227
 31
0.0
  0
LINE
  5
1B2
100
AcDbEntity
100
AcDbLine
  8
color#ffffffff
 62
256
370
-1
  6
BYLAYER
 10
1.2725539260332122
 20
1.8407555029949227
 30
0.0
 11
1.3043299940238551
 21
1.8472172791765322
 31
0.0
  0
LINE
  5
1B3
100
AcDbEntity
100
AcDbLine
  8
color#ffffffff
 62
256
370
-1
  6
BYLAYER
 10
1.3043299940238551
 20
1.8472172791765322
 30
0.0
 11
1.3442774340291621
 21
1.8483234673314339
 31
0.0
  0
LINE
  5
1B4
100
AcDbEntity
100
AcDbLine
  8
color#ffffffff
 62
256
370
-1
  6
BYLAYER
 10
1.3442774340291621
 20
1.8483234673314339
 30
0.0
 11
1.492634343571781
 21
1.8106917526090234
 31
0.0
  0
LINE
  5
1B5
100
AcDbEntity
100
AcDbLine
  8
color#ffffffff
 62
256
370
-1
  6
BYLAYER
 10
1.492634343571781
 20
1.8106917526090234
 30
0.0
 11
1.4973047051099668
 21
1.8290404563488565
 31
0.0
  0
LINE
  5
1B6
100
AcDbEntity
100
AcDbLine
  8
color#ffffffff
 62
256
370
-1
  6
BYLAYER
 10
1.4973047051099668
 20
1.8290404563488565
 30
0.0
 11
1.5010274804079993
 21
1.8564968060535953
 31
0.0
  0
LINE
  5
1B7
100
AcDbEntity
100
AcDbLine
  8
color#ffffffff
 62
256
370
-1
  6
BYLAYER
 10
1.5010274804079993
 20
1.8564968060535953
 30
0.0
 11
1.5012203953949315
 21
1.8838218026262368
 31
0.0
  0
LINE
  5
1B8
100
AcDbEntity
100
AcDbLine
  8
color#ffffffff
 62
256
370
-1
  6
BYLAYER
 10
1.5012203953949315
 20
1.8838218026262368
 30
0.0
 11
1.4949489144317998
 21
1.928914799257383
 31
0.0
  0
LINE
  5
1B9
100
AcDbEntity
100
AcDbLine
  8
color#ffffffff
 62
256
370
-1
  6
BYLAYER
 10
1.4949489144317998
 20
1.928914799257383
 30
0.0
 11
1.4424286910421085
 21
2.0665704695809231
 31
0.0
  0
LINE
  5
1BA
100
AcDbEntity
100
AcDbLine
  8
color#ffffffff
 62
256
370
-1
  6
BYLAYER
 10
1.4424286910421085
 20
2.0665704695809231
 30
0.0
 11
1.448649392608125
 21
2.0743263191112646
 31
0.0
  0
LINE
  5
1BB
100
AcDbEntity
100
AcDbLine
  8
color#ffffffff
 62
256
370
-1
  6
BYLAYER
 10
1.448649392608125
 20
2.0743263191112646
 30
0.0
 11
1.4690605181333416
 21
2.0954071670780769
 31
0.0
  0
LINE
  5
1BC
100
AcDbEntity
100
AcDbLine
  8
color#ffffffff
 62
256
370
-1
  6
BYLAYER
 10
1.4690605181333416
 20
2.0954071670780769
 30
0.0
 11
1.5075552687877301
 21
2.1249406085910225
 31
0.0
  0
LINE
  5
1BD
100
AcDbEntity
100
AcDbLine
  8
color#ffffffff
 62
256
370
-1
  6
BYLAYER
 10
1.5075552687877301
 20
2.1249406085910225
 30
0.0
 11
1.6306620731226114
 21
2.2038786703858375
 31
0.0
  0
LINE
  5
1BE
100
AcDbEntity
100
AcDbLine
  8
color#ffffffff
 62
256
370
-1
  6
BYLAYER
 10
1.6306620731226114
 20
2.2038786703858375
 30
0.0
 11
1.6519846718917188
 21
2.2237496300398027
 31
0.0
  0
LINE
  5
1BF
100
AcDbEntity
100
AcDbLine
  8
color#ffffffff
 62
256
370
-1
  6
BYLAYER
 10
1.6519846718917188
 20
2.2237496300398027
 30
0.0
 11
1.6648367106947426
 21
2.2386907213353888
 31
0.0
  0
LINE
  5
1C0
100
AcDbEntity
100
AcDbLine
  8
color#ffffffff
 62
256
370
-1
  6
BYLAYER
 10
1.6648367106947426
 20
2.2386907213353888
 30
0.0
 11
1.6987121967204211
 21
2.3376749586514194
 31
0.0
  0
LINE
  5
1C1
100
AcDbEntity
100
AcDbLine
  8
color#ffffffff
 62
256
370
-1
  6
BYLAYER
 10
1.6987121967204211
 20
2.3376749586514194
 30
0.0
 11
1.6405523612542585
 21
2.3412128883142098
 31
0.0
  0
LINE
  5
1C2
100
AcDbEntity
100
AcDbLine
  8
color#ffffffff
 62
256
370
-1
  6
BYLAYER
 10
1.6405523612542585
 20
2.3412128883142098
 30
0.0
 11
1.5360702681636804
 21
2.3634829194681095
 31
0.0
  0
LINE
  5
1C3
100
AcDbEntity
100
AcDbLine
  8
color#ffffffff
 62
256
370
-1
  6
BYLAYER
 10
1.5360702681636804
 20
2.3634829194681095
 30
0.0
 11
1.4739730909073847
 21
2.39053171474752
 31
0.0
  0
LINE
  5
1C4
100
AcDbEntity
100
AcDbLine
  8
color#ffffffff
 62
256
370
-1
  6
BYLAYER
 10
1.4739730909073847
 20
2.39053171474752
 30
0.0
 11
1.4330538096924432
 21
2.4170072407324099
 31
0.0
  0
LINE
  5
1C5
100
AcDbEntity
100
AcDbLine
  8
color#ffffffff
 62
256
370
-1
  6
BYLAYER
 10
1.4330538096924432
 20
2.4170072407324099
 30
0.0
 11
1.3142956076709291
 21
2.5450341040396367
 31
0.0
  0
LINE
  5
1C6
100
AcDbEntity
100
AcDbLine
  8
color#ffffffff
 62
256
370
-1
  6
BYLAYER
 10
1.3142956076709291
 20
2.5450341040396367
 30
0.0
 11
1.3225223535775446
 21
2.5719243922738468
 31
0.0
  0
LINE
  5
1C7
100
AcDbEntity
100
AcDbLine
  8
color#ffffffff
 62
256
370
-1
  6
BYLAYER
 10
1.3225223535775446
 20
2.5719243922738468
 30
0.0
 11
1.3377047371529063
 21
2.610816009825915
 31
0.0
  0
LINE
  5
1C8
100
AcDbEntity
100
AcDbLine
  8
color#ffffffff
 62
256
370
-1
  6
BYLAYER
 10
1.3377047371529063
 20
2.610816009825915
 30
0.0
 11
1.3560052395483078
 21
2.6480453608987284
 31
0.0
  0
LINE
  5
1C9
100
AcDbEntity
100
AcDbLine
  8
color#ffffffff
 62
256
370
-1
  6
BYLAYER
 10
1.3560052395483078
 20
2.6480453608987284
 30
0.0
 11
1.384687374276294
 21
2.6952354641833267
 31
0.0
  0
LINE
  5
1CA
100
AcDbEntity
100
AcDbLine
  8
color#ffffffff
 62
256
370
-1
  6
BYLAYER
 10
1.384687374276294
 20
2.6952354641833267
 30
0.0
 11
1.4353002335662493
 21
2.761153547277841
 31
0.0
  0
LINE
  5
1CB
100
AcDbEntity
100
AcDbLine
  8
color#ffffffff
 62
256
370
-1
  6
BYLAYER
 10
1.4353002335662493
 20
2.761153547277841
 30
0.0
 11
1.5437654930403188
 21
2.8687517729341665
 31
0.0
  0
LINE
  5
1CC
100
AcDbEntity
100
AcDbLine
  8
color#ffffffff
 62
256
370
-1
  6
BYLAYER
 10
1.5437654930403188
 20
2.8687517729341665
 30
0.0
 11
1.5276708987669128
 21
2.8662130172368045
 31
0.0
  0
LINE
  5
1CD
100
AcDbEntity
100
AcDbLine
  8
color#ffffffff
 62
256
370
-1
  6
BYLAYER
 10
1.5276708987669128
 20
2.8662130172368045
 30
0.0
 11
1.4959286366612661
 21
2.8598367434351299
 31
0.0
  0
LINE
  5
1CE
100
AcDbEntity
100
AcDbLine
  8
color#ffffffff
 62
256
370
-1
  6
BYLAYER
 10
1.4959286366612661
 20
2.8598367434351299
 30
0.0
 11
1.4493781259199012
 21
2.847256257937369
 31
0.0
  0
LINE
  5
1CF
100
AcDbEntity
100
AcDbLine
  8
color#ffffffff
 62
256
370
-1
  6
BYLAYER
 10
1.4493781259199012
 20
2.847256257937369
 30
0.0
 11
1.4040159801817704
 21
2.8314258126407212
 31
0.0
  0
LINE
  5
1D0
100
AcDbEntity
100
AcDbLine
  8
color#ffffffff
 62
256
370
-1
  6
BYLAYER
 10
1.4040159801817704
 20
2.8314258126407212
 30
0.0
 11
1.33078709482812
 21
2.7989481124569755
 31
0.0
  0
LINE
  5
1D1
100
AcDbEntity
100
AcDbLine
  8
color#ffffffff
 62
256
370
-1
  6
BYLAYER
 10
1.33078709482812
 20
2.7989481124569755
 30
0.0
 11
1.124737371096131
 21
2.6735098870991352
 31
0.0
  0
LINE
  5
1D2
100
AcDbEntity
100
AcDbLine
  8
color#ffffffff
 62
256
370
-1
  6
BYLAYER
 10
1.124737371096131
 20
2.6735098870991352
 30
0.0
 11
1.1002231195327168
 21
2.6791057308295945
 31
0.0
  0
LINE
  5
1D3
100
AcDbEntity
100
AcDbLine
  8
color#ffffffff
 62
256
370
-1
  6
BYLAYER
 10
1.1002231195327168
 20
2.6791057308295945
 30
0.0
 11
1.0632877002438004
 21
2.6845103961453654
 31
0.0
  0
LINE
  5
1D4
100
AcDbEntity
100
AcDbLine
  8
color#ffffffff
 62
256
370
-1
  6
BYLAYER
 10
1.0632877002438004
 20
2.6845103961453654
 30
0.0
 11
1.013865040359931
 21
2.6866962073247063
 31
0.0
  0
LINE
  5
1D5
100
AcDbEntity
100
AcDbLine
  8
color#ffffffff
 62
256
370
-1
  6
BYLAYER
 10
1.013865040359931
 20
2.6866962073247063
 30
0.0
 11
0.9520850051603466
 21
2.6825583377622286
 31
0.0
  0
LINE
  5
1D6
100
AcDbEntity
100
AcDbLine
  8
color#ffffffff
 62
256
370
-1
  6
BYLAYER
 10
0.9520850051603466
 20
2.6825583377622286
 30
0.0
 11
0.7704699962090845
 21
2.6403222563778375
 31
0.0
  0
LINE
  5
1D7
100
AcDbEntity
100
AcDbLine
  8
color#ffffffff
 62
256
370
-1
  6
BYLAYER
 10
0.7704699962090845
 20
2.6403222563778375
 30
0.0
 11
0.7594553551464307
 21
2.6477424075281437
 31
0.0
  0
LINE
  5
1D8
100
AcDbEntity
100
AcDbLine
  8
color#ffffffff
 62
256
370
-1
  6
BYLAYER
 10
0.7594553551464307
 20
2.6477424075281437
 30
0.0
 11
0.7490881025667657
 21
2.6556339944716347
 31
0.0
  0
LINE
  5
1D9
100
AcDbEntity
100
AcDbLine
  8
color#ffffffff
 62
256
370
-1
  6
BYLAYER
 10
0.7490881025667657
 20
2.6556339944716347
 30
0.0
 11
0.7393378692084469
 21
2.6639731459068545
 31
0.0
  0
LINE
  5
1DA
100
AcDbEntity
100
AcDbLine
  8
color#ffffffff
 62
256
370
-1
  6
BYLAYER
 10
0.7393378692084469
 20
2.6639731459068545
 30
0.0
 11
0.7301742858098308
 21
2.6727359905323471
 31
0.0
  0
LINE
  5
1DB
100
AcDbEntity
100
AcDbLine
  8
color#ffffffff
 62
256
370
-1
  6
BYLAYER
 10
0.7301742858098308
 20
2.6727359905323471
 30
0.0
 11
0.7215669831092748
 21
2.6818986570466561
 31
0.0
  0
LINE
  5
1DC
100
AcDbEntity
100
AcDbLine
  8
color#ffffffff
 62
256
370
-1
  6
BYLAYER
 10
0.7215669831092748
 20
2.6818986570466561
 30
0.0
 11
0.7058997427557707
 21
2.7013279705359032
 31
0.0
  0
LINE
  5
1DD
100
AcDbEntity
100
AcDbLine
  8
color#ffffffff
 62
256
370
-1
  6
BYLAYER
 10
0.7058997427557707
 20
2.7013279705359032
 30
0.0
 11
0.6920931940547903
 21
2.7220701159629499
 31
0.0
  0
LINE
  5
1DE
100
AcDbEntity
100
AcDbLine
  8
color#ffffffff
 62
256
370
-1
  6
BYLAYER
 10
0.6920931940547903
 20
2.7220701159629499
 30
0.0
 11
0.6799043829131898
 21
2.7439341229161496
 31
0.0
  0
LINE
  5
1DF
100
AcDbEntity
100
AcDbLine
  8
color#ffffffff
 62
256
370
-1
  6
BYLAYER
 10
0.6799043829131898
 20
2.7439341229161496
 30
0.0
 11
0.6641229620458738
 21
2.7784158759320126
 31
0.0
  0
LINE
  5
1E0
100
AcDbEntity
100
AcDbLine
  8
color#ffffffff
 62
256
370
-1
  6
BYLAYER
 10
0.6641229620458738
 20
2.7784158759320126
 30
0.0
 11
0.602915847442127
 21
2.9596838362502798
 31
0.0
  0
LINE
  5
1E1
100
AcDbEntity
100
AcDbLine
  8
color#ffffffff
 62
256
370
-1
  6
BYLAYER
 10
0.602915847442127
 20
2.9596838362502798
 30
0.0
 11
0.6002870330432651
 21
2.9673730496732733
 31
0.0
  0
LINE
  5
1E2
100
AcDbEntity
100
AcDbLine
  8
color#ffffffff
 62
256
370
-1
  6
BYLAYER
 10
0.6002870330432651
 20
2.9673730496732733
 30
0.0
 11
0.5769338340338108
 21
2.9512514943339352
 31
0.0
  0
LINE
  5
1E3
100
AcDbEntity
100
AcDbLine
  8
color#ffffffff
 62
256
370
-1
  6
BYLAYER
 10
0.5769338340338108
 20
2.9512514943339352
 30
0.0
 11
0.5650765099387156
 21
2.9354854516241344
 31
0.0
  0
LINE
  5
1E4
100
AcDbEntity
100
AcDbLine
  8
color#ffffffff
 62
256
370
-1
  6
BYLAYER
 10
0.5650765099387156
 20
2.9354854516241344
 30
0.0
 11
0.5539151932063362
 21
2.9193817121304368
 31
0.0
  0
LINE
  5
1E5
100
AcDbEntity
100
AcDbLine
  8
color#ffffffff
 62
256
370
-1
  6
BYLAYER
 10
0.5539151932063362
 20
2.9193817121304368
 30
0.0
 11
0.5434286653884711
 21
2.9029563462405727
 31
0.0
  0
LINE
  5
1E6
100
AcDbEntity
100
AcDbLine
  8
color#ffffffff
 62
256
370
-1
  6
BYLAYER
 10
0.5434286653884711
 20
2.9029563462405727
 30
0.0
 11
0.5335957080369185
 21
2.8862254243422716
 31
0.0
  0
LINE
  5
1E7
100
AcDbEntity
100
AcDbLine
  8
color#ffffffff
 62
256
370
-1
  6
BYLAYER
 10
0.5335957080369185
 20
2.8862254243422716
 30
0.0
 11
0.5243951027034768
 21
2.8692050168232637
 31
0.0
  0
LINE
  5
1E8
100
AcDbEntity
100
AcDbLine
  8
color#ffffffff
 62
256
370
-1
  6
BYLAYER
 10
0.5243951027034768
 20
2.8692050168232637
 30
0.0
 11
0.5158056309399446
 21
2.8519111940712794
 31
0.0
  0
LINE
  5
1E9
100
AcDbEntity
100
AcDbLine
  8
color#ffffffff
 62
256
370
-1
  6
BYLAYER
 10
0.5158056309399446
 20
2.8519111940712794
 30
0.0
 11
0.5078060742981199
 21
2.8343600264740481
 31
0.0
  0
LINE
  5
1EA
100
AcDbEntity
100
AcDbLine
  8
color#ffffffff
 62
256
370
-1
  6
BYLAYER
 10
0.5078060742981199
 20
2.8343600264740481
 30
0.0
 11
0.493491832586787
 21
2.7985499382947672
 31
0.0
  0
LINE
  5
1EB
100
AcDbEntity
100
AcDbLine
  8
color#ffffffff
 62
256
370
-1
  6
BYLAYER
 10
0.493491832586787
 20
2.7985499382947672
 30
0.0
 11
0.4812826299838651
 21
2.7619033153872605
 31
0.0
  0
LINE
  5
1EC
100
AcDbEntity
100
AcDbLine
  8
color#ffffffff
 62
256
370
-1
  6
BYLAYER
 10
0.4812826299838651
 20
2.7619033153872605
 30
0.0
 11
0.4710087189037412
 21
2.7245487208533703
 31
0.0
  0
LINE
  5
1ED
100
AcDbEntity
100
AcDbLine
  8
color#ffffffff
 62
256
370
-1
  6
BYLAYER
 10
0.4710087189037412
 20
2.7245487208533703
 30
0.0
 11
0.4588552010452729
 21
2.6674706140383404
 31
0.0
  0
LINE
  5
1EE
100
AcDbEntity
100
AcDbLine
  8
color#ffffffff
 62
256
370
-1
  6
BYLAYER
 10
0.4588552010452729
 20
2.6674706140383404
 30
0.0
 11
0.4478397200980523
 21
2.5900884932098029
 31
0.0
  0
LINE
  5
1EF
100
AcDbEntity
100
AcDbLine
  8
color#ffffffff
 62
256
370
-1
  6
BYLAYER
 10
0.4478397200980523
 20
2.5900884932098029
 30
0.0
 11
0.4381182148099039
 21
2.4156525582533002
 31
0.0
  0
LINE
  5
1F0
100
AcDbEntity
100
AcDbLine
  8
color#ffffffff
 62
256
370
-1
  6
BYLAYER
 10
0.4381182148099039
 20
2.4156525582533002
 30
0.0
 11
0.43785669917775
 21
2.3997219851607992
 31
0.0
  0
LINE
  5
1F1
100
AcDbEntity
100
AcDbLine
  8
color#ffffffff
 62
256
370
-1
  6
BYLAYER
 10
0.43785669917775
 20
2.3997219851607992
 30
0.0
 11
0.3868237863296243
 21
2.3188950693639776
 31
0.0
  0
LINE
  5
1F2
100
AcDbEntity
100
AcDbLine
  8
color#ffffffff
 62
256
370
-1
  6
BYLAYER
 10
0.3868237863296243
 20
2.3188950693639776
 30
0.0
 11
0.3712549325462256
 21
2.2975739627804419
 31
0.0
  0
LINE
  5
1F3
100
AcDbEntity
100
AcDbLine
  8
color#ffffffff
 62
256
370
-1
  6
BYLAYER
 10
0.3712549325462256
 20
2.2975739627804419
 30
0.0
 11
0.3295812020540515
 21
2.2302452908618919
 31
0.0
  0
LINE
  5
1F4
100
AcDbEntity
100
AcDbLine
  8
color#ffffffff
 62
256
370
-1
  6
BYLAYER
 10
0.3295812020540515
 20
2.2302452908618919
 30
0.0
 11
0.3014411688457943
 21
2.1707261320267777
 31
0.0
  0
LINE
  5
1F5
100
AcDbEntity
100
AcDbLine
  8
color#ffffffff
 62
256
370
-1
  6
BYLAYER
 10
0.3014411688457943
 20
2.1707261320267777
 30
0.0
 11
0.2802092212872591
 21
2.1086022241165292
 31
0.0
  0
LINE
  5
1F6
100
AcDbEntity
100
AcDbLine
  8
color#ffffffff
 62
256
370
-1
  6
BYLAYER
 10
0.2802092212872591
 20
2.1086022241165292
 30
0.0
 11
0.2687764083337465
 21
2.0573407931813374
 31
0.0
  0
LINE
  5
1F7
100
AcDbEntity
100
AcDbLine
  8
color#ffffffff
 62
256
370
-1
  6
BYLAYER
 10
0.2687764083337465
 20
2.0573407931813374
 30
0.0
 11
0.2627572103540837
 21
2.004949090941667
 31
0.0
  0
LINE
  5
1F8
100
AcDbEntity
100
AcDbLine
  8
color#ffffffff
 62
256
370
-1
  6
BYLAYER
 10
0.2627572103540837
 20
2.004949090941667
 30
0.0
 11
0.2620608365992868
 21
1.9650570846349393
 31
0.0
  0
LINE
  5
1F9
100
AcDbEntity
100
AcDbLine
  8
color#ffffffff
 62
256
370
-1
  6
BYLAYER
 10
0.2620608365992868
 20
1.9650570846349393
 30
0.0
 11
0.3372499258713178
 21
2.0200631568431064
 31
0.0
  0
LINE
  5
1FA
100
AcDbEntity
100
AcDbLine
  8
color#ffffffff
 62
256
370
-1
  6
BYLAYER
 10
0.3372499258713178
 20
2.0200631568431064
 30
0.0
 11
0.3081818834785484
 21
1.8407802177316037
 31
0.0
  0
LINE
  5
1FB
100
AcDbEntity
100
AcDbLine
  8
color#ffffffff
 62
256
370
-1
  6
BYLAYER
 10
0.3081818834785484
 20
1.8407802177316037
 30
0.0
 11
0.303063153207055
 21
1.8041022900231098
 31
0.0
  0
LINE
  5
1FC
100
AcDbEntity
100
AcDbLine
  8
color#ffffffff
 62
256
370
-1
  6
BYLAYER
 10
0.303063153207055
 20
1.8041022900231098
 30
0.0
 11
0.2991340775009085
 21
1.7673472099344809
 31
0.0
  0
LINE
  5
1FD
100
AcDbEntity
100
AcDbLine
  8
color#ffffffff
 62
256
370
-1
  6
BYLAYER
 10
0.2991340775009085
 20
1.7673472099344809
 30
0.0
 11
0.2963799237526112
 21
1.7305409454122378
 31
0.0
  0
LINE
  5
1FE
100
AcDbEntity
100
AcDbLine
  8
color#ffffffff
 62
256
370
-1
  6
BYLAYER
 10
0.2963799237526112
 20
1.7305409454122378
 30
0.0
 11
0.2947859593546658
 21
1.6937094644029012
 31
0.0
  0
LINE
  5
1FF
100
AcDbEntity
100
AcDbLine
  8
color#ffffffff
 62
256
370
-1
  6
BYLAYER
 10
0.2947859593546658
 20
1.6937094644029012
 30
0.0
 11
0.2943374516995745
 21
1.6568787348529921
 31
0.0
  0
LINE
  5
200
100
AcDbEntity
100
AcDbLine
  8
color#ffffffff
 62
256
370
-1
  6
BYLAYER
 10
0.2943374516995745
 20
1.6568787348529921
 30
0.0
 11
0.2950196681798399
 21
1.6200747247090317
 31
0.0
  0
LINE
  5
201
100
AcDbEntity
100
AcDbLine
  8
color#ffffffff
 62
256
370
-1
  6
BYLAYER
 10
0.2950196681798399
 20
1.6200747247090317
 30
0.0
 11
0.2968178761879644
 21
1.5833234019175402
 31
0.0
  0
LINE
  5
202
100
AcDbEntity
100
AcDbLine
  8
color#ffffffff
 62
256
370
-1
  6
BYLAYER
 10
0.2968178761879644
 20
1.5833234019175402
 30
0.0
 11
0.2997173431164504
 21
1.5466507344250395
 31
0.0
  0
LINE
  5
203
100
AcDbEntity
100
AcDbLine
  8
color#ffffffff
 62
256
370
-1
  6
BYLAYER
 10
0.2997173431164504
 20
1.5466507344250395
 30
0.0
 11
0.3037033363578004
 21
1.5100826901780497
 31
0.0
  0
LINE
  5
204
100
AcDbEntity
100
AcDbLine
  8
color#ffffffff
 62
256
370
-1
  6
BYLAYER
 10
0.3037033363578004
 20
1.5100826901780497
 30
0.0
 11
0.3087611233045168
 21
1.4736452371230924
 31
0.0
  0
LINE
  5
205
100
AcDbEntity
100
AcDbLine
  8
color#ffffffff
 62
256
370
-1
  6
BYLAYER
 10
0.3087611233045168
 20
1.4736452371230924
 30
0.0
 11
0.3148759713491021
 21
1.4373643432066876
 31
0.0
  0
LINE
  5
206
100
AcDbEntity
100
AcDbLine
  8
color#ffffffff
 62
256
370
-1
  6
BYLAYER
 10
0.3148759713491021
 20
1.4373643432066876
 30
0.0
 11
0.3220331478840587
 21
1.401265976375357
 31
0.0
  0
LINE
  5
207
100
AcDbEntity
100
AcDbLine
  8
color#ffffffff
 62
256
370
-1
  6
BYLAYER
 10
0.3220331478840587
 20
1.401265976375357
 30
0.0
 11
0.3302179203018891
 21
1.3653761045756216
 31
0.0
  0
LINE
  5
208
100
AcDbEntity
100
AcDbLine
  8
color#ffffffff
 62
256
370
-1
  6
BYLAYER
 10
0.3302179203018891
 20
1.3653761045756216
 30
0.0
 11
0.3394155559950957
 21
1.329720695754002
 31
0.0
  0
LINE
  5
209
100
AcDbEntity
100
AcDbLine
  8
color#ffffffff
 62
256
370
-1
  6
BYLAYER
 10
0.3394155559950957
 20
1.329720695754002
 30
0.0
 11
0.3496113223561809
 21
1.2943257178570187
 31
0.0
  0
LINE
  5
20A
100
AcDbEntity
100
AcDbLine
  8
color#ffffffff
 62
256
370
-1
  6
BYLAYER
 10
0.3496113223561809
 20
1.2943257178570187
 30
0.0
 11
0.3607904867776472
 21
1.2592171388311937
 31
0.0
  0
LINE
  5
20B
100
AcDbEntity
100
AcDbLine
  8
color#ffffffff
 62
256
370
-1
  6
BYLAYER
 10
0.3607904867776472
 20
1.2592171388311937
 30
0.0
 11
0.3729383166519971
 21
1.2244209266230461
 31
0.0
  0
LINE
  5
20C
100
AcDbEntity
100
AcDbLine
  8
color#ffffffff
 62
256
370
-1
  6
BYLAYER
 10
0.3729383166519971
 20
1.2244209266230461
 30
0.0
 11
0.3860400793717329
 21
1.1899630491790991
 31
0.0
  0
LINE
  5
20D
100
AcDbEntity
100
AcDbLine
  8
color#ffffffff
 62
256
370
-1
  6
BYLAYER
 10
0.3860400793717329
 20
1.1899630491790991
 30
0.0
 11
0.4000810423293569
 21
1.155869474445872
 31
0.0
  0
LINE
  5
20E
100
AcDbEntity
100
AcDbLine
  8
color#ffffffff
 62
256
370
-1
  6
BYLAYER
 10
0.4000810423293569
 20
1.155869474445872
 30
0.0
 11
0.4150464729173722
 21
1.1221661703698855
 31
0.0
  0
LINE
  5
20F
100
AcDbEntity
100
AcDbLine
  8
color#ffffffff
 62
256
370
-1
  6
BYLAYER
 10
0.4150464729173722
 20
1.1221661703698855
 30
0.0
 11
0.4309216385282805
 21
1.0888791048976627
 31
0.0
  0
LINE
  5
210
100
AcDbEntity
100
AcDbLine
  8
color#ffffffff
 62
256
370
-1
  6
BYLAYER
 10
0.4309216385282805
 20
1.0888791048976627
 30
0.0
 11
0.4476918065545845
 21
1.0560342459757226
 31
0.0
  0
LINE
  5
211
100
AcDbEntity
100
AcDbLine
  8
color#ffffffff
 62
256
370
-1
  6
BYLAYER
 10
0.4476918065545845
 20
1.0560342459757226
 30
0.0
 11
0.4653422443887869
 21
1.0236575615505847
 31
0.0
  0
LINE
  5
212
100
AcDbEntity
100
AcDbLine
  8
color#ffffffff
 62
256
370
-1
  6
BYLAYER
 10
0.4653422443887869
 20
1.0236575615505847
 30
0.0
 11
0.48385821942339
 21
0.9917750195687742
 31
0.0
  0
LINE
  5
213
100
AcDbEntity
100
AcDbLine
  8
color#ffffffff
 62
256
370
-1
  6
BYLAYER
 10
0.48385821942339
 20
0.9917750195687742
 30
0.0
 11
0.5032249990508959
 21
0.9604125879768088
 31
0.0
  0
LINE
  5
214
100
AcDbEntity
100
AcDbLine
  8
color#ffffffff
 62
256
370
-1
  6
BYLAYER
 10
0.5032249990508959
 20
0.9604125879768088
 30
0.0
 11
0.5234278506638077
 21
0.9295962347212092
 31
0.0
  0
LINE
  5
215
100
AcDbEntity
100
AcDbLine
  8
color#ffffffff
 62
256
370
-1
  6
BYLAYER
 10
0.5234278506638077
 20
0.9295962347212092
 30
0.0
 11
0.5444520416546271
 21
0.8993519277484986
 31
0.0
  0
LINE
  5
216
100
AcDbEntity
100
AcDbLine
  8
color#ffffffff
 62
256
370
-1
  6
BYLAYER
 10
0.5444520416546271
 20
0.8993519277484986
 30
0.0
 11
0.5662828394158572
 21
0.8697056350051954
 31
0.0
  0
LINE
  5
217
100
AcDbEntity
100
AcDbLine
  8
color#ffffffff
 62
256
370
-1
  6
BYLAYER
 10
0.5662828394158572
 20
0.8697056350051954
 30
0.0
 11
0.5889055113399999
 21
0.8406833244378231
 31
0.0
  0
LINE
  5
218
100
AcDbEntity
100
AcDbLine
  8
color#ffffffff
 62
256
370
-1
  6
BYLAYER
 10
0.5889055113399999
 20
0.8406833244378231
 30
0.0
 11
0.6083535026221154
 21
0.8164060684688899
 31
0.0
  0
LINE
  5
219
100
AcDbEntity
100
AcDbLine
  8
color#ffffffff
 62
256
370
-1
  6
BYLAYER
 10
0.6083535026221154
 20
0.8164060684688899
 30
0.0
 11
0.6283098022399782
 21
0.7925639066073416
 31
0.0
  0
LINE
  5
21A
100
AcDbEntity
100
AcDbLine
  8
color#ffffffff
 62
256
370
-1
  6
BYLAYER
 10
0.6283098022399782
 20
0.7925639066073416
 30
0.0
 11
0.6487626902289577
 21
0.7691613235979702
 31
0.0
  0
LINE
  5
21B
100
AcDbEntity
100
AcDbLine
  8
color#ffffffff
 62
256
370
-1
  6
BYLAYER
 10
0.6487626902289577
 20
0.7691613235979702
 30
0.0
 11
0.6697004466244232
 21
0.7462028041855677
 31
0.0
  0
LINE
  5
21C
100
AcDbEntity
100
AcDbLine
  8
color#ffffffff
 62
256
370
-1
  6
BYLAYER
 10
0.6697004466244232
 20
0.7462028041855677
 30
0.0
 11
0.6911113514617439
 21
0.7236928331149252
 31
0.0
  0
LINE
  5
21D
100
AcDbEntity
100
AcDbLine
  8
color#ffffffff
 62
256
370
-1
  6
BYLAYER
 10
0.6911113514617439
 20
0.7236928331149252
 30
0.0
 11
0.7129836847762888
 21
0.7016358951308352
 31
0.0
  0
LINE
  5
21E
100
AcDbEntity
100
AcDbLine
  8
color#ffffffff
 62
256
370
-1
  6
BYLAYER
 10
0.7129836847762888
 20
0.7016358951308352
 30
0.0
 11
0.7353057266034276
 21
0.6800364749780891
 31
0.0
  0
LINE
  5
21F
100
AcDbEntity
100
AcDbLine
  8
color#ffffffff
 62
256
370
-1
  6
BYLAYER
 10
0.7353057266034276
 20
0.6800364749780891
 30
0.0
 11
0.7580657569785293
 21
0.6588990574014793
 31
0.0
  0
LINE
  5
220
100
AcDbEntity
100
AcDbLine
  8
color#ffffffff
 62
256
370
-1
  6
BYLAYER
 10
0.7580657569785293
 20
0.6588990574014793
 30
0.0
 11
0.7812520559369631
 21
0.6382281271457972
 31
0.0
  0
LINE
  5
221
100
AcDbEntity
100
AcDbLine
  8
color#ffffffff
 62
256
370
-1
  6
BYLAYER
 10
0.7812520559369631
 20
0.6382281271457972
 30
0.0
 11
0.8048529035140984
 21
0.6180281689558345
 31
0.0
  0
LINE
  5
222
100
AcDbEntity
100
AcDbLine
  8
color#ffffffff
 62
256
370
-1
  6
BYLAYER
 10
0.8048529035140984
 20
0.6180281689558345
 30
0.0
 11
0.8288565797453045
 21
0.5983036675763837
 31
0.0
  0
LINE
  5
223
100
AcDbEntity
100
AcDbLine
  8
color#ffffffff
 62
256
370
-1
  6
BYLAYER
 10
0.8288565797453045
 20
0.5983036675763837
 30
0.0
 11
0.8780255383114058
 21
0.5602989742281821
 31
0.0
  0
LINE
  5
224
100
AcDbEntity
100
AcDbLine
  8
color#ffffffff
 62
256
370
-1
  6
BYLAYER
 10
0.8780255383114058
 20
0.5602989742281821
 30
0.0
 11
0.9286651719182211
 21
0.5242499250595287
 31
0.0
  0
LINE
  5
225
100
AcDbEntity
100
AcDbLine
  8
color#ffffffff
 62
256
370
-1
  6
BYLAYER
 10
0.9286651719182211
 20
0.5242499250595287
 30
0.0
 11
0.9806817208487042
 21
0.4901923980287563
 31
0.0
  0
LINE
  5
226
100
AcDbEntity
100
AcDbLine
  8
color#ffffffff
 62
256
370
-1
  6
BYLAYER
 10
0.9806817208487042
 20
0.4901923980287563
 30
0.0
 11
1.0339814253858088
 21
0.4581622710942024
 31
0.0
  0
LINE
  5
227
100
AcDbEntity
100
AcDbLine
  8
color#ffffffff
 62
256
370
-1
  6
BYLAYER
 10
1.0339814253858088
 20
0.4581622710942024
 30
0.0
 11
1.0884705258124898
 21
0.4281954222141992
 31
0.0
  0
LINE
  5
228
100
AcDbEntity
100
AcDbLine
  8
color#ffffffff
 62
256
370
-1
  6
BYLAYER
 10
1.0884705258124898
 20
0.4281954222141992
 30
0.0
 11
1.1440552624117009
 21
0.4003277293470819
 31
0.0
  0
LINE
  5
229
100
AcDbEntity
100
AcDbLine
  8
color#ffffffff
 62
256
370
-1
  6
BYLAYER
 10
1.1440552624117009
 20
0.4003277293470819
 30
0.0
 11
1.2006418754663959
 21
0.3745950704511863
 31
0.0
  0
LINE
  5
22A
100
AcDbEntity
100
AcDbLine
  8
color#ffffffff
 62
256
370
-1
  6
BYLAYER
 10
1.2006418754663959
 20
0.3745950704511863
 30
0.0
 11
1.2581366052595291
 21
0.3510333234848449
 31
0.0
  0
LINE
  5
22B
100
AcDbEntity
100
AcDbLine
  8
color#ffffffff
 62
256
370
-1
  6
BYLAYER
 10
1.2581366052595291
 20
0.3510333234848449
 30
0.0
 11
1.3164456920740544
 21
0.3296783664063933
 31
0.0
  0
LINE
  5
22C
100
AcDbEntity
100
AcDbLine
  8
color#ffffffff
 62
256
370
-1
  6
BYLAYER
 10
1.3164456920740544
 20
0.3296783664063933
 30
0.0
 11
1.3577832914966201
 21
0.3159261007875117
 31
0.0
  0
LINE
  5
22D
100
AcDbEntity
100
AcDbLine
  8
color#ffffffff
 62
256
370
-1
  6
BYLAYER
 10
1.3577832914966201
 20
0.3159261007875117
 30
0.0
 11
1.3995354399926709
 21
0.3034203844498633
 31
0.0
  0
LINE
  5
22E
100
AcDbEntity
100
AcDbLine
  8
color#ffffffff
 62
256
370
-1
  6
BYLAYER
 10
1.3995354399926709
 20
0.3034203844498633
 30
0.0
 11
1.4416616722040598
 21
0.2921644324553547
 31
0.0
  0
LINE
  5
22F
100
AcDbEntity
100
AcDbLine
  8
color#ffffffff
 62
256
370
-1
  6
BYLAYER
 10
1.4416616722040598
 20
0.2921644324553547
 30
0.0
 11
1.484121522772639
 21
0.2821614598658936
 31
0.0
  0
LINE
  5
230
100
AcDbEntity
100
AcDbLine
  8
color#ffffffff
 62
256
370
-1
  6
BYLAYER
 10
1.484121522772639
 20
0.2821614598658936
 30
0.0
 11
1.5268745263402619
 21
0.2734146817433872
 31
0.0
  0
LINE
  5
231
100
AcDbEntity
100
AcDbLine
  8
color#ffffffff
 62
256
370
-1
  6
BYLAYER
 10
1.5268745263402619
 20
0.2734146817433872
 30
0.0
 11
1.5698802175487805
 21
0.2659273131497418
 31
0.0
  0
LINE
  5
232
100
AcDbEntity
100
AcDbLine
  8
color#ffffffff
 62
256
370
-1
  6
BYLAYER
 10
1.5698802175487805
 20
0.2659273131497418
 30
0.0
 11
1.6130981310400476
 21
0.2597025691468653
 31
0.0
  0
LINE
  5
233
100
AcDbEntity
100
AcDbLine
  8
color#ffffffff
 62
256
370
-1
  6
BYLAYER
 10
1.6130981310400476
 20
0.2597025691468653
 30
0.0
 11
1.6564878014559159
 21
0.254743664796665
 31
0.0
  0
LINE
  5
234
100
AcDbEntity
100
AcDbLine
  8
color#ffffffff
 62
256
370
-1
  6
BYLAYER
 10
1.6564878014559159
 20
0.254743664796665
 30
0.0
 11
1.7000087634382379
 21
0.2510538151610472
 31
0.0
  0
LINE
  5
235
100
AcDbEntity
100
AcDbLine
  8
color#ffffffff
 62
256
370
-1
  6
BYLAYER
 10
1.7000087634382379
 20
0.2510538151610472
 30
0.0
 11
1.7436205516288663
 21
0.24863623530192
 31
0.0
  0
LINE
  5
236
100
AcDbEntity
100
AcDbLine
  8
color#ffffffff
 62
256
370
-1
  6
BYLAYER
 10
1.7436205516288663
 20
0.24863623530192
 30
0.0
 11
1.7872827006696543
 21
0.2474941402811892
 31
0.0
  0
LINE
  5
237
100
AcDbEntity
100
AcDbLine
  8
color#ffffffff
 62
256
370
-1
  6
BYLAYER
 10
1.7872827006696543
 20
0.2474941402811892
 30
0.0
 11
1.8309547452024542
 21
0.2476307451607632
 31
0.0
  0
LINE
  5
238
100
AcDbEntity
100
AcDbLine
  8
color#ffffffff
 62
256
370
-1
  6
BYLAYER
 10
1.8309547452024542
 20
0.2476307451607632
 30
0.0
 11
1.8745962198691184
 21
0.2490492650025481
 31
0.0
  0
LINE
  5
239
100
AcDbEntity
100
AcDbLine
  8
color#ffffffff
 62
256
370
-1
  6
BYLAYER
 10
1.8745962198691184
 20
0.2490492650025481
 30
0.0
 11
1.9181666593114999
 21
0.2517529148684518
 31
0.0
  0
LINE
  5
23A
100
AcDbEntity
100
AcDbLine
  8
color#ffffffff
 62
256
370
-1
  6
BYLAYER
 10
1.9181666593114999
 20
0.2517529148684518
 30
0.0
 11
1.9616255981714508
 21
0.255744909820381
 31
0.0
  0
LINE
  5
23B
100
AcDbEntity
100
AcDbLine
  8
color#ffffffff
 62
256
370
-1
  6
BYLAYER
 10
1.9616255981714508
 20
0.255744909820381
 30
0.0
 11
2.0049325710908246
 21
0.2610284649202426
 31
0.0
  0
LINE
  5
23C
100
AcDbEntity
100
AcDbLine
  8
color#ffffffff
 62
256
370
-1
  6
BYLAYER
 10
2.0049325710908246
 20
0.2610284649202426
 30
0.0
 11
2.0480471127114734
 21
0.2676067952299444
 31
0.0
  0
LINE
  5
23D
100
AcDbEntity
100
AcDbLine
  8
color#ffffffff
 62
256
370
-1
  6
BYLAYER
 10
2.0480471127114734
 20
0.2676067952299444
 30
0.0
 11
2.0909287576752495
 21
0.2754831158113937
 31
0.0
  0
LINE
  5
23E
100
AcDbEntity
100
AcDbLine
  8
color#ffffffff
 62
256
370
-1
  6
BYLAYER
 10
2.0909287576752495
 20
0.2754831158113937
 30
0.0
 11
2.1335370406240064
 21
0.2846606417264973
 31
0.0
  0
LINE
  5
23F
100
AcDbEntity
100
AcDbLine
  8
color#ffffffff
 62
256
370
-1
  6
BYLAYER
 10
2.1335370406240064
 20
0.2846606417264973
 30
0.0
 11
2.1758314961995975
 21
0.2951425880371603
 31
0.0
  0
LINE
  5
240
100
AcDbEntity
100
AcDbLine
  8
color#ffffffff
 62
256
370
-1
  6
BYLAYER
 10
2.1758314961995975
 20
0.2951425880371603
 30
0.0
 11
2.2177716590438723
 21
0.3069321698052935
 31
0.0
  0
LINE
  5
241
100
AcDbEntity
100
AcDbLine
  8
color#ffffffff
 62
256
370
-1
  6
BYLAYER
 10
2.2177716590438723
 20
0.3069321698052935
 30
0.0
 11
2.2593170637986857
 21
0.3200326020928025
 31
0.0
  0
LINE
  5
242
100
AcDbEntity
100
AcDbLine
  8
color#ffffffff
 62
256
370
-1
  6
BYLAYER
 10
2.2593170637986857
 20
0.3200326020928025
 30
0.0
 11
2.300427245105892
 21
0.3344470999615924
 31
0.0
  0
LINE
  5
243
100
AcDbEntity
100
AcDbLine
  8
color#ffffffff
 62
256
370
-1
  6
BYLAYER
 10
2.300427245105892
 20
0.3344470999615924
 30
0.0
 11
2.3410617376073408
 21
0.3501788784735733
 31
0.0
  0
LINE
  5
244
100
AcDbEntity
100
AcDbLine
  8
color#ffffffff
 62
256
370
-1
  6
BYLAYER
 10
2.3410617376073408
 20
0.3501788784735733
 30
0.0
 11
2.3811800759448856
 21
0.3672311526906509
 31
0.0
  0
LINE
  5
245
100
AcDbEntity
100
AcDbLine
  8
color#ffffffff
 62
256
370
-1
  6
BYLAYER
 10
2.3811800759448856
 20
0.3672311526906509
 30
0.0
 11
2.4207417947603811
 21
0.3856071376747312
 31
0.0
  0
LINE
  5
246
100
AcDbEntity
100
AcDbLine
  8
color#ffffffff
 62
256
370
-1
  6
BYLAYER
 10
2.4207417947603811
 20
0.3856071376747312
 30
0.0
 11
2.4597064286956765
 21
0.4053100484877237
 31
0.0
  0
LINE
  5
247
100
AcDbEntity
100
AcDbLine
  8
color#ffffffff
 62
256
370
-1
  6
BYLAYER
 10
2.4597064286956765
 20
0.4053100484877237
 30
0.0
 11
2.4980335123926274
 21
0.4263431001915335
 31
0.0
  0
LINE
  5
248
100
AcDbEntity
100
AcDbLine
  8
color#ffffffff
 62
256
370
-1
  6
BYLAYER
 10
2.4980335123926274
 20
0.4263431001915335
 30
0.0
 11
2.5356825804930843
 21
0.4487095078480701
 31
0.0
  0
LINE
  5
249
100
AcDbEntity
100
AcDbLine
  8
color#ffffffff
 62
256
370
-1
  6
BYLAYER
 10
2.5356825804930843
 20
0.4487095078480701
 30
0.0
 11
2.5684646491015943
 21
0.4687687409786913
 31
0.0
  0
LINE
  5
24A
100
AcDbEntity
100
AcDbLine
  8
color#ffffffff
 62
256
370
-1
  6
BYLAYER
 10
2.5684646491015943
 20
0.4687687409786913
 30
0.0
 11
2.6475087010755387
 21
0.5230841652928449
 31
0.0
  0
LINE
  5
24B
100
AcDbEntity
100
AcDbLine
  8
color#ffffffff
 62
256
370
-1
  6
BYLAYER
 10
2.6475087010755387
 20
0.5230841652928449
 30
0.0
 11
2.7369035509069666
 21
0.5954417331665844
 31
0.0
  0
LINE
  5
24C
100
AcDbEntity
100
AcDbLine
  8
color#ffffffff
 62
256
370
-1
  6
BYLAYER
 10
2.7369035509069666
 20
0.5954417331665844
 30
0.0
 11
2.8337322891019743
 21
0.6884603411365871
 31
0.0
  0
LINE
  5
24D
100
AcDbEntity
100
AcDbLine
  8
color#ffffffff
 62
256
370
-1
  6
BYLAYER
 10
2.8337322891019743
 20
0.6884603411365871
 30
0.0
 11
2.9465296410785768
 21
0.8191583788613043
 31
0.0
  0
LINE
  5
24E
100
AcDbEntity
100
AcDbLine
  8
color#ffffffff
 62
256
370
-1
  6
BYLAYER
 10
2.9465296410785768
 20
0.8191583788613043
 30
0.0
 11
2.9751760343947131
 21
0.8581316740443126
 31
0.0
  0
LINE
  5
24F
100
AcDbEntity
100
AcDbLine
  8
color#ffffffff
 62
256
370
-1
  6
BYLAYER
 10
2.9751760343947131
 20
0.8581316740443126
 30
0.0
 11
3.0026720972040888
 21
0.8978349127479888
 31
0.0
  0
LINE
  5
250
100
AcDbEntity
100
AcDbLine
  8
color#ffffffff
 62
256
370
-1
  6
BYLAYER
 10
3.0026720972040888
 20
0.8978349127479888
 30
0.0
 11
3.0290218339709067
 21
0.9382379484876459
 31
0.0
  0
LINE
  5
251
100
AcDbEntity
100
AcDbLine
  8
color#ffffffff
 62
256
370
-1
  6
BYLAYER
 10
3.0290218339709067
 20
0.9382379484876459
 30
0.0
 11
3.054229249159373
 21
0.9793106347785981
 31
0.0
  0
LINE
  5
252
100
AcDbEntity
100
AcDbLine
  8
color#ffffffff
 62
256
370
-1
  6
BYLAYER
 10
3.054229249159373
 20
0.9793106347785981
 30
0.0
 11
3.0782983472336927
 21
1.0210228251361579
 31
0.0
  0
LINE
  5
253
100
AcDbEntity
100
AcDbLine
  8
color#ffffffff
 62
256
370
-1
  6
BYLAYER
 10
3.0782983472336927
 20
1.0210228251361579
 30
0.0
 11
3.1012331326580695
 21
1.0633443730756384
 31
0.0
  0
LINE
  5
254
100
AcDbEntity
100
AcDbLine
  8
color#ffffffff
 62
256
370
-1
  6
BYLAYER
 10
3.1012331326580695
 20
1.0633443730756384
 30
0.0
 11
3.1230376098967083
 21
1.106245132112353
 31
0.0
  0
LINE
  5
255
100
AcDbEntity
100
AcDbLine
  8
color#ffffffff
 62
256
370
-1
  6
BYLAYER
 10
3.1230376098967083
 20
1.106245132112353
 30
0.0
 11
3.1437157834138145
 21
1.1496949557616145
 31
0.0
  0
LINE
  5
256
100
AcDbEntity
100
AcDbLine
  8
color#ffffffff
 62
256
370
-1
  6
BYLAYER
 10
3.1437157834138145
 20
1.1496949557616145
 30
0.0
 11
3.1632716576735911
 21
1.1936636975387362
 31
0.0
  0
LINE
  5
257
100
AcDbEntity
100
AcDbLine
  8
color#ffffffff
 62
256
370
-1
  6
BYLAYER
 10
3.1632716576735911
 20
1.1936636975387362
 30
0.0
 11
3.1817092371402449
 21
1.238121210959032
 31
0.0
  0
LINE
  5
258
100
AcDbEntity
100
AcDbLine
  8
color#ffffffff
 62
256
370
-1
  6
BYLAYER
 10
3.1817092371402449
 20
1.238121210959032
 30
0.0
 11
3.1990325262779788
 21
1.2830373495378136
 31
0.0
  0
LINE
  5
259
100
AcDbEntity
100
AcDbLine
  8
color#ffffffff
 62
256
370
-1
  6
BYLAYER
 10
3.1990325262779788
 20
1.2830373495378136
 30
0.0
 11
3.215245529550999
 21
1.3283819667903947
 31
0.0
  0
LINE
  5
25A
100
AcDbEntity
100
AcDbLine
  8
color#ffffffff
 62
256
370
-1
  6
BYLAYER
 10
3.215245529550999
 20
1.3283819667903947
 30
0.0
 11
3.2303522514235095
 21
1.3741249162320888
 31
0.0
  0
LINE
  5
25B
100
AcDbEntity
100
AcDbLine
  8
color#ffffffff
 62
256
370
-1
  6
BYLAYER
 10
3.2303522514235095
 20
1.3741249162320888
 30
0.0
 11
3.2443566963597141
 21
1.4202360513782091
 31
0.0
  0
LINE
  5
25C
100
AcDbEntity
100
AcDbLine
  8
color#ffffffff
 62
256
370
-1
  6
BYLAYER
 10
3.2443566963597141
 20
1.4202360513782091
 30
0.0
 11
3.2572628688238199
 21
1.4666852257440679
 31
0.0
  0
LINE
  5
25D
100
AcDbEntity
100
AcDbLine
  8
color#ffffffff
 62
256
370
-1
  6
BYLAYER
 10
3.2572628688238199
 20
1.4666852257440679
 30
0.0
 11
3.2690747732800287
 21
1.5134422928449796
 31
0.0
  0
LINE
  5
25E
100
AcDbEntity
100
AcDbLine
  8
color#ffffffff
 62
256
370
-1
  6
BYLAYER
 10
3.2690747732800287
 20
1.5134422928449796
 30
0.0
 11
3.2797964141925475
 21
1.5604771061962559
 31
0.0
  0
LINE
  5
25F
100
AcDbEntity
100
AcDbLine
  8
color#ffffffff
 62
256
370
-1
  6
BYLAYER
 10
3.2797964141925475
 20
1.5604771061962559
 30
0.0
 11
3.2894317960255788
 21
1.6077595193132115
 31
0.0
  0
LINE
  5
260
100
AcDbEntity
100
AcDbLine
  8
color#ffffffff
 62
256
370
-1
  6
BYLAYER
 10
3.2894317960255788
 20
1.6077595193132115
 30
0.0
 11
3.2979849232433285
 21
1.6552593857111582
 31
0.0
  0
LINE
  5
261
100
AcDbEntity
100
AcDbLine
  8
color#ffffffff
 62
256
370
-1
  6
BYLAYER
 10
3.2979849232433285
 20
1.6552593857111582
 30
0.0
 11
3.3054598003100031
 21
1.7029465589054094
 31
0.0
  0
LINE
  5
262
100
AcDbEntity
100
AcDbLine
  8
color#ffffffff
 62
256
370
-1
  6
BYLAYER
 10
3.3054598003100031
 20
1.7029465589054094
 30
0.0
 11
3.3118604316898037
 21
1.7507908924112787
 31
0.0
  0
LINE
  5
263
100
AcDbEntity
100
AcDbLine
  8
color#ffffffff
 62
256
370
-1
  6
BYLAYER
 10
3.3118604316898037
 20
1.7507908924112787
 30
0.0
 11
3.3171908218469368
 21
1.7987622397440797
 31
0.0
  0
LINE
  5
264
100
AcDbEntity
100
AcDbLine
  8
color#ffffffff
 62
256
370
-1
  6
BYLAYER
 10
3.3171908218469368
 20
1.7987622397440797
 30
0.0
 11
3.3214549752456084
 21
1.8468304544191239
 31
0.0
  0
LINE
  5
265
100
AcDbEntity
100
AcDbLine
  8
color#ffffffff
 62
256
370
-1
  6
BYLAYER
 10
3.3214549752456084
 20
1.8468304544191239
 30
0.0
 11
3.3246568963500209
 21
1.894965389951726
 31
0.0
  0
LINE
  5
266
100
AcDbEntity
100
AcDbLine
  8
color#ffffffff
 62
256
370
-1
  6
BYLAYER
 10
3.3246568963500209
 20
1.894965389951726
 30
0.0
 11
3.3268005896243786
 21
1.9431368998571987
 31
0.0
  0
LINE
  5
267
100
AcDbEntity
100
AcDbLine
  8
color#ffffffff
 62
256
370
-1
  6
BYLAYER
 10
3.3268005896243786
 20
1.9431368998571987
 30
0.0
 11
3.3278900595328902
 21
1.9913148376508545
 31
0.0
  0
LINE
  5
268
100
AcDbEntity
100
AcDbLine
  8
color#ffffffff
 62
256
370
-1
  6
BYLAYER
 10
3.3278900595328902
 20
1.9913148376508545
 30
0.0
 11
3.3279293105397558
 21
2.0394690568480076
 31
0.0
  0
LINE
  5
269
100
AcDbEntity
100
AcDbLine
  8
color#ffffffff
 62
256
370
-1
  6
BYLAYER
 10
3.3279293105397558
 20
2.0394690568480076
 30
0.0
 11
3.3269223471091838
 21
2.0875694109639698
 31
0.0
  0
LINE
  5
26A
100
AcDbEntity
100
AcDbLine
  8
color#ffffffff
 62
256
370
-1
  6
BYLAYER
 10
3.3269223471091838
 20
2.0875694109639698
 30
0.0
 11
3.3248731737053752
 21
2.1355857535140554
 31
0.0
  0
LINE
  5
26B
100
AcDbEntity
100
AcDbLine
  8
color#ffffffff
 62
256
370
-1
  6
BYLAYER
 10
3.3248731737053752
 20
2.1355857535140554
 30
0.0
 11
3.3188418584807695
 21
2.1337807692867981
 31
0.0
  0
LINE
  5
26C
100
AcDbEntity
100
AcDbLine
  8
color#ffffffff
 62
256
370
-1
  6
BYLAYER
 10
3.3188418584807695
 20
2.1337807692867981
 30
0.0
 11
3.3135844697168912
 21
2.1315448166429221
 31
0.0
  0
LINE
  5
26D
100
AcDbEntity
100
AcDbLine
  8
color#ffffffff
 62
256
370
-1
  6
BYLAYER
 10
3.3135844697168912
 20
2.1315448166429221
 30
0.0
 11
3.3090475789072036
 21
2.1289058900369269
 31
0.0
  0
LINE
  5
26E
100
AcDbEntity
100
AcDbLine
  8
color#ffffffff
 62
256
370
-1
  6
BYLAYER
 10
3.3090475789072036
 20
2.1289058900369269
 30
0.0
 11
3.3051777575451675
 21
2.1258919839233124
 31
0.0
  0
LINE
  5
26F
100
AcDbEntity
100
AcDbLine
  8
color#ffffffff
 62
256
370
-1
  6
BYLAYER
 10
3.3051777575451675
 20
2.1258919839233124
 30
0.0
 11
3.3019215771242463
 21
2.1225310927565784
 31
0.0
  0
LINE
  5
270
100
AcDbEntity
100
AcDbLine
  8
color#ffffffff
 62
256
370
-1
  6
BYLAYER
 10
3.3019215771242463
 20
2.1225310927565784
 30
0.0
 11
3.2970364250795985
 21
2.1148803330817465
 31
0.0
  0
LINE
  5
271
100
AcDbEntity
100
AcDbLine
  8
color#ffffffff
 62
256
370
-1
  6
BYLAYER
 10
3.2970364250795985
 20
2.1148803330817465
 30
0.0
 11
3.2929752914075459
 21
2.1015016670335838
 31
0.0
  0
LINE
  5
272
100
AcDbEntity
100
AcDbLine
  8
color#ffffffff
 62
256
370
-1
  6
BYLAYER
 10
3.2929752914075459
 20
2.1015016670335838
 30
0.0
 11
3.2896801970464269
 21
2.044410341736004
 31
0.0
  0
LINE
  5
273
100
AcDbEntity
100
AcDbLine
  8
color#ffffffff
 62
256
370
-1
  6
BYLAYER
 10
3.2896801970464269
 20
2.044410341736004
 30
0.0
 11
3.2855860142435298
 21
2.0299796249800059
 31
0.0
  0
LINE
  5
274
100
AcDbEntity
100
AcDbLine
  8
color#ffffffff
 62
256
370
-1
  6
BYLAYER
 10
3.2855860142435298
 20
2.0299796249800059
 30
0.0
 11
3.2806709606043079
 21
2.0213770099028463
 31
0.0
  0
LINE
  5
275
100
AcDbEntity
100
AcDbLine
  8
color#ffffffff
 62
256
370
-1
  6
BYLAYER
 10
3.2806709606043079
 20
2.0213770099028463
 30
0.0
 11
3.2773974687338963
 21
2.0174650445558178
 31
0.0
  0
LINE
  5
276
100
AcDbEntity
100
AcDbLine
  8
color#ffffffff
 62
256
370
-1
  6
BYLAYER
 10
3.2773974687338963
 20
2.0174650445558178
 30
0.0
 11
3.2735087621542354
 21
2.0138499666091541
 31
0.0
  0
LINE
  5
277
100
AcDbEntity
100
AcDbLine
  8
color#ffffffff
 62
256
370
-1
  6
BYLAYER
 10
3.2735087621542354
 20
2.0138499666091541
 30
0.0
 11
3.2689514123587853
 21
2.0105597705173568
 31
0.0
  0
LINE
  5
278
100
AcDbEntity
100
AcDbLine
  8
color#ffffffff
 62
256
370
-1
  6
BYLAYER
 10
3.2689514123587853
 20
2.0105597705173568
 30
0.0
 11
3.2445842806167677
 21
2.2518851587156288
 31
0.0
  0
LINE
  5
279
100
AcDbEntity
100
AcDbLine
  8
color#ffffffff
 62
256
370
-1
  6
BYLAYER
 10
3.2445842806167677
 20
2.2518851587156288
 30
0.0
 11
3.2236042596646031
 21
2.3561740013708903
 31
0.0
  0
LINE
  5
27A
100
AcDbEntity
100
AcDbLine
  8
color#ffffffff
 62
256
370
-1
  6
BYLAYER
 10
3.2236042596646031
 20
2.3561740013708903
 30
0.0
 11
3.1993924150252742
 21
2.4424132488934167
 31
0.0
  0
LINE
  5
27B
100
AcDbEntity
100
AcDbLine
  8
color#ffffffff
 62
256
370
-1
  6
BYLAYER
 10
3.1993924150252742
 20
2.4424132488934167
 30
0.0
 11
3.1811543901797688
 21
2.4928664535979856
 31
0.0
  0
LINE
  5
27C
100
AcDbEntity
100
AcDbLine
  8
color#ffffffff
 62
256
370
-1
  6
BYLAYER
 10
3.1811543901797688
 20
2.4928664535979856
 30
0.0
 11
3.1596765699188594
 21
2.5417633219073372
 31
0.0
  0
LINE
  5
27D
100
AcDbEntity
100
AcDbLine
  8
color#ffffffff
 62
256
370
-1
  6
BYLAYER
 10
3.1596765699188594
 20
2.5417633219073372
 30
0.0
 11
3.1433736491125313
 21
2.5732587932723865
 31
0.0
  0
LINE
  5
27E
100
AcDbEntity
100
AcDbLine
  8
color#ffffffff
 62
256
370
-1
  6
BYLAYER
 10
3.1433736491125313
 20
2.5732587932723865
 30
0.0
 11
3.125354087796949
 21
2.6037058453071311
 31
0.0
  0
LINE
  5
27F
100
AcDbEntity
100
AcDbLine
  8
color#ffffffff
 62
256
370
-1
  6
BYLAYER
 10
3.125354087796949
 20
2.6037058453071311
 30
0.0
 11
3.1055071933978144
 21
2.6329617923052671
 31
0.0
  0
LINE
  5
280
100
AcDbEntity
100
AcDbLine
  8
color#ffffffff
 62
256
370
-1
  6
BYLAYER
 10
3.1055071933978144
 20
2.6329617923052671
 30
0.0
 11
3.0837222733408307
 21
2.6608839485604885
 31
0.0
  0
LINE
  5
281
100
AcDbEntity
100
AcDbLine
  8
color#ffffffff
 62
256
370
-1
  6
BYLAYER
 10
3.0837222733408307
 20
2.6608839485604885
 30
0.0
 11
3.0720684622611776
 21
2.6743002658762856
 31
0.0
  0
LINE
  5
282
100
AcDbEntity
100
AcDbLine
  8
color#ffffffff
 62
256
370
-1
  6
BYLAYER
 10
3.0720684622611776
 20
2.6743002658762856
 30
0.0
 11
3.0598886350517005
 21
2.6873296283664905
 31
0.0
  0
LINE
  5
283
100
AcDbEntity
100
AcDbLine
  8
color#ffffffff
 62
256
370
-1
  6
BYLAYER
 10
3.0598886350517005
 20
2.6873296283664905
 30
0.0
 11
3.0471689551406138
 21
2.6999542003178139
 31
0.0
  0
LINE
  5
284
100
AcDbEntity
100
AcDbLine
  8
color#ffffffff
 62
256
370
-1
  6
BYLAYER
 10
3.0471689551406138
 20
2.6999542003178139
 30
0.0
 11
3.0338955859561274
 21
2.7121561460169676
 31
0.0
  0
LINE
  5
285
100
AcDbEntity
100
AcDbLine
  8
color#ffffffff
 62
256
370
-1
  6
BYLAYER
 10
3.0338955859561274
 20
2.7121561460169676
 30
0.0
 11
3.0652165754902128
 21
2.5533382490174423
 31
0.0
  0
LINE
  5
286
100
AcDbEntity
100
AcDbLine
  8
color#ffffffff
 62
256
370
-1
  6
BYLAYER
 10
3.0652165754902128
 20
2.5533382490174423
 30
0.0
 11
3.0464197934528818
 21
2.5862076385067732
 31
0.0
  0
LINE
  5
287
100
AcDbEntity
100
AcDbLine
  8
color#ffffffff
 62
256
370
-1
  6
BYLAYER
 10
3.0464197934528818
 20
2.5862076385067732
 30
0.0
 11
3.0155621441221387
 21
2.6339564886808571
 31
0.0
  0
LINE
  5
288
100
AcDbEntity
100
AcDbLine
  8
color#ffffffff
 62
256
370
-1
  6
BYLAYER
 10
3.0155621441221387
 20
2.6339564886808571
 30
0.0
 11
2.9816340950717293
 21
2.6796223710105695
 31
0.0
  0
LINE
  5
289
100
AcDbEntity
100
AcDbLine
  8
color#ffffffff
 62
256
370
-1
  6
BYLAYER
 10
2.9816340950717293
 20
2.6796223710105695
 30
0.0
 11
2.9447757895879381
 21
2.722961512651874
 31
0.0
  0
LINE
  5
28A
100
AcDbEntity
100
AcDbLine
  8
color#ffffffff
 62
256
370
-1
  6
BYLAYER
 10
2.9447757895879381
 20
2.722961512651874
 30
0.0
 11
2.905127370957048
 21
2.7637301407607344
 31
0.0
  0
LINE
  5
28B
100
AcDbEntity
100
AcDbLine
  8
color#ffffffff
 62
256
370
-1
  6
BYLAYER
 10
2.905127370957048
 20
2.7637301407607344
 30
0.0
 11
2.8628289824653437
 21
2.8016844824931155
 31
0.0
  0
LINE
  5
28C
100
AcDbEntity
100
AcDbLine
  8
color#ffffffff
 62
256
370
-1
  6
BYLAYER
 10
2.8628289824653437
 20
2.8016844824931155
 30
0.0
 11
2.8332270578871044
 21
2.8253035028986155
 31
0.0
  0
LINE
  5
28D
100
AcDbEntity
100
AcDbLine
  8
color#ffffffff
 62
256
370
-1
  6
BYLAYER
 10
2.8332270578871044
 20
2.8253035028986155
 30
0.0
 11
2.8025511787679727
 21
2.8474911568819494
 31
0.0
  0
LINE
  5
28E
100
AcDbEntity
100
AcDbLine
  8
color#ffffffff
 62
256
370
-1
  6
BYLAYER
 10
2.8025511787679727
 20
2.8474911568819494
 30
0.0
 11
2.7708428690446252
 21
2.8681752154522919
 31
0.0
  0
LINE
  5
28F
100
AcDbEntity
100
AcDbLine
  8
color#ffffffff
 62
256
370
-1
  6
BYLAYER
 10
2.7708428690446252
 20
2.8681752154522919
 30
0.0
 11
2.7381436526537373
 21
2.8872834496188178
 31
0.0
  0
LINE
  5
290
100
AcDbEntity
100
AcDbLine
  8
color#ffffffff
 62
256
370
-1
  6
BYLAYER
 10
2.7381436526537373
 20
2.8872834496188178
 30
0.0
 11
2.7044950535319883
 21
2.9047436303906999
 31
0.0
  0
LINE
  5
291
100
AcDbEntity
100
AcDbLine
  8
color#ffffffff
 62
256
370
-1
  6
BYLAYER
 10
2.7044950535319883
 20
2.9047436303906999
 30
0.0
 11
2.6699385956160531
 21
2.9204835287771145
 31
0.0
  0
LINE
  5
292
100
AcDbEntity
100
AcDbLine
  8
color#ffffffff
 62
256
370
-1
  6
BYLAYER
 10
2.6699385956160531
 20
2.9204835287771145
 30
0.0
 11
2.6204212520160466
 21
2.941010965795011
 31
0.0
  0
LINE
  5
293
100
AcDbEntity
100
AcDbLine
  8
color#ffffffff
 62
256
370
-1
  6
BYLAYER
 10
2.6204212520160466
 20
2.941010965795011
 30
0.0
 11
2.5698043544396034
 21
2.9582076954953438
 31
0.0
  0
LINE
  5
294
100
AcDbEntity
100
AcDbLine
  8
color#ffffffff
 62
256
370
-1
  6
BYLAYER
 10
2.5698043544396034
 20
2.9582076954953438
 30
0.0
 11
2.5009050021516597
 21
2.9761733144626588
 31
0.0
  0
LINE
  5
295
100
AcDbEntity
100
AcDbLine
  8
color#ffffffff
 62
256
370
-1
  6
BYLAYER
 10
2.5009050021516597
 20
2.9761733144626588
 30
0.0
 11
2.4307715155045231
 21
2.9887402671092569
 31
0.0
  0
LINE
  5
296
100
AcDbEntity
100
AcDbLine
  8
color#ffffffff
 62
256
370
-1
  6
BYLAYER
 10
2.4307715155045231
 20
2.9887402671092569
 30
0.0
 11
2.359815682078525
 21
2.996207176939556
 31
0.0
  0
LINE
  5
297
100
AcDbEntity
100
AcDbLine
  8
color#ffffffff
 62
256
370
-1
  6
BYLAYER
 10
2.359815682078525
 20
2.996207176939556
 30
0.0
 11
2.2705917977801686
 21
2.9988238132620184
 31
0.0
  0
LINE
  5
298
100
AcDbEntity
100
AcDbLine
  8
color#ffffffff
 62
256
370
-1
  6
BYLAYER
 10
2.2705917977801686
 20
2.9988238132620184
 30
0.0
 11
2.1638087741210903
 21
2.9928820641553622
 31
0.0
  0
ENDSEC
  0
SECTION
  2
OBJECTS
  0
DICTIONARY
  5
C
100
AcDbDictionary
280
0
281
1
  3
ACAD_GROUP
350
D
  3
ACAD_LAYOUT
350
1A
  3
ACAD_MLINESTYLE
350
17
  3
ACAD_PLOTSETTINGS
350
19
  3
ACAD_PLOTSTYLENAME
350
E
  3
AcDbVariableDictionary
350
299
  0
DICTIONARY
  5
D
100
AcDbDictionary
280
0
281
1
  0
ACDBDICTIONARYWDFLT
  5
E
100
AcDbDictionary
281
1
  3
Normal
350
F
100
AcDbDictionaryWithDefault
340
F
  0
ACDBPLACEHOLDER
  5
F
  0
DICTIONARY
  5
17
100
AcDbDictionary
280
0
281
1
  3
Standard
350
18
  0
MLINESTYLE
  5
18
100
AcDbMlineStyle
  2
STANDARD
 70
0
  3

 62
256
 51
90.0
 52
90.0
 71
2
 49
0.5
 62
256
  6
BYLAYER
 49
-0.5
 62
256
  6
BYLAYER
  0
DICTIONARY
  5
19
100
AcDbDictionary
280
0
281
1
  0
DICTIONARY
  5
1A
100
AcDbDictionary
281
1
  3
Layout1
350
1E
  3
Layout2
350
26
  3
Model
350
22
  0
LAYOUT
  5
1E
100
AcDbPlotSettings
  1

  2
C:\Program Files\AutoCAD 2002\plotters\DWF ePlot (optimized for plotting).pc3
  4

  6

 40
0.0
 41
0.0
 42
0.0
 43
0.0
 44
0.0
 45
0.0
 46
0.0
 47
0.0
 48
0.0
 49
0.0
140
0.0
141
0.0
142
1.0
143
1.0
 70
688
 72
0
 73
0
 74
5
  7

 75
16
147
1.0
148
0.0
149
0.0
100
AcDbLayout
  1
Layout1
 70
1
 71
1
 10
0.0
 20
0.0
 11
420.0
 21
297.0
 12
0.0
 22
0.0
 32
0.0
 14
100000000000000000000.0
 24
100000000000000000000.0
 34
100000000000000000000.0
 15
-100000000000000000000.0
 25
-100000000000000000000.0
 35
-100000000000000000000.0
146
0.0
 13
0.0
 23
0.0
 33
0.0
 16
1.0
 26
0.0
 36
0.0
 17
0.0
 27
1.0
 37
0.0
 76
0
330
1B
  0
LAYOUT
  5
22
100
AcDbPlotSettings
  1

  2
C:\Program Files\AutoCAD 2002\plotters\DWF ePlot (optimized for plotting).pc3
  4

  6

 40
0.0
 41
0.0
 42
0.0
 43
0.0
 44
0.0
 45
0.0
 46
0.0
 47
0.0
 48
0.0
 49
0.0
140
0.0
141
0.0
142
1.0
143
1.0
 70
1712
 72
0
 73
0
 74
0
  7

 75
0
147
1.0
148
0.0
149
0.0
100
AcDbLayout
  1
Model
 70
1
 71
0
 10
0.0
 20
0.0
 11
12.0
 21
9.0
 12
0.0
 22
0.0
 32
0.0
 14
0.0
 24
0.0
 34
0.0
 15
0.0
 25
0.0
 35
0.0
146
0.0
 13
0.0
 23
0.0
 33
0.0
 16
1.0
 26
0.0
 36
0.0
 17
0.0
 27
1.0
 37
0.0
 76
0
330
1F
  0
LAYOUT
  5
26
100
AcDbPlotSettings
  1

  2
C:\Program Files\AutoCAD 2002\plotters\DWF ePlot (optimized for plotting).pc3
  4

  6

 40
0.0
 41
0.0
 42
0.0
 43
0.0
 44
0.0
 45
0.0
 46
0.0
 47
0.0
 48
0.0
 49
0.0
140
0.0
141
0.0
142
1.0
143
1.0
 70
688
 72
0
 73
0
 74
5
  7

 75
16
147
1.0
148
0.0
149
0.0
100
AcDbLayout
  1
Layout2
 70
1
 71
2
 10
0.0
 20
0.0
 11
12.0
 21
9.0
 12
0.0
 22
0.0
 32
0.0
 14
0.0
 24
0.0
 34
0.0
 15
0.0
 25
0.0
 35
0.0
146
0.0
 13
0.0
 23
0.0
 33
0.0
 16
1.0
 26
0.0
 36
0.0
 17
0.0
 27
1.0
 37
0.0
 76
0
330
23
  0
DICTIONARY
  5
299
100
AcDbDictionary
281
1
  3
DIMASSOC
350
29B
  3
HIDETEXT
350
29A
  0
DICTIONARYVAR
  5
29A
100
DictionaryVariables
280
0
  1
2
  0
DICTIONARYVAR
  5
29B
100
DictionaryVariables
280
0
  1
1
  0
ENDSEC
  0
EOF
