  0
SECTION
  2
HEADER
  9
$ACADVER
  1
AC1015
  9
$ACADMAINTVER
 70
     6
  9
$DWGCODEPAGE
  3
ANSI_1252
  9
$INSBASE
 10
0.0
 20
0.0
 30
0.0
  9
$EXTMIN
 10
1.000000000000000E+20
 20
1.000000000000000E+20
 30
1.000000000000000E+20
  9
$EXTMAX
 10
-1.000000000000000E+20
 20
-1.000000000000000E+20
 30
-1.000000000000000E+20
  9
$LIMMIN
 10
0.0
 20
0.0
  9
$LIMMAX
 10
12.0
 20
9.0
  9
$ORTHOMODE
 70
     0
  9
$REGENMODE
 70
     1
  9
$FILLMODE
 70
     1
  9
$QTEXTMODE
 70
     0
  9
$MIRRTEXT
 70
     1
  9
$LTSCALE
 40
1.0
  9
$ATTMODE
 70
     1
  9
$TEXTSIZE
 40
0.2
  9
$TRACEWID
 40
0.05
  9
$TEXTSTYLE
  7
Standard
  9
$CLAYER
  8
0
  9
$CELTYPE
  6
ByLayer
  9
$CECOLOR
 62
   256
  9
$CELTSCALE
 40
1.0
  9
$DISPSILH
 70
     0
  9
$DIMSCALE
 40
1.0
  9
$DIMASZ
 40
0.18
  9
$DIMEXO
 40
0.0625
  9
$DIMDLI
 40
0.38
  9
$DIMRND
 40
0.0
  9
$DIMDLE
 40
0.0
  9
$DIMEXE
 40
0.18
  9
$DIMTP
 40
0.0
  9
$DIMTM
 40
0.0
  9
$DIMTXT
 40
0.18
  9
$DIMCEN
 40
0.09
  9
$DIMTSZ
 40
0.0
  9
$DIMTOL
 70
     0
  9
$DIMLIM
 70
     0
  9
$DIMTIH
 70
     1
  9
$DIMTOH
 70
     1
  9
$DIMSE1
 70
     0
  9
$DIMSE2
 70
     0
  9
$DIMTAD
 70
     0
  9
$DIMZIN
 70
     0
  9
$DIMBLK
  1

  9
$DIMASO
 70
     1
  9
$DIMSHO
 70
     1
  9
$DIMPOST
  1

  9
$DIMAPOST
  1

  9
$DIMALT
 70
     0
  9
$DIMALTD
 70
     2
  9
$DIMALTF
 40
25.4
  9
$DIMLFAC
 40
1.0
  9
$DIMTOFL
 70
     0
  9
$DIMTVP
 40
0.0
  9
$DIMTIX
 70
     0
  9
$DIMSOXD
 70
     0
  9
$DIMSAH
 70
     0
  9
$DIMBLK1
  1

  9
$DIMBLK2
  1

  9
$DIMSTYLE
  2
Standard
  9
$DIMCLRD
 70
     0
  9
$DIMCLRE
 70
     0
  9
$DIMCLRT
 70
     0
  9
$DIMTFAC
 40
1.0
  9
$DIMGAP
 40
0.09
  9
$DIMJUST
 70
     0
  9
$DIMSD1
 70
     0
  9
$DIMSD2
 70
     0
  9
$DIMTOLJ
 70
     1
  9
$DIMTZIN
 70
     0
  9
$DIMALTZ
 70
     0
  9
$DIMALTTZ
 70
     0
  9
$DIMUPT
 70
     0
  9
$DIMDEC
 70
     4
  9
$DIMTDEC
 70
     4
  9
$DIMALTU
 70
     2
  9
$DIMALTTD
 70
     2
  9
$DIMTXSTY
  7
Standard
  9
$DIMAUNIT
 70
     0
  9
$DIMADEC
 70
     0
  9
$DIMALTRND
 40
0.0
  9
$DIMAZIN
 70
     0
  9
$DIMDSEP
 70
    46
  9
$DIMATFIT
 70
     3
  9
$DIMFRAC
 70
     0
  9
$DIMLDRBLK
  1

  9
$DIMLUNIT
 70
     2
  9
$DIMLWD
 70
    -2
  9
$DIMLWE
 70
    -2
  9
$DIMTMOVE
 70
     0
  9
$LUNITS
 70
     2
  9
$LUPREC
 70
     4
  9
$SKETCHINC
 40
0.1
  9
$FILLETRAD
 40
0.5
  9
$AUNITS
 70
     0
  9
$AUPREC
 70
     0
  9
$MENU
  1
.
  9
$ELEVATION
 40
0.0
  9
$PELEVATION
 40
0.0
  9
$THICKNESS
 40
0.0
  9
$LIMCHECK
 70
     0
  9
$CHAMFERA
 40
0.5
  9
$CHAMFERB
 40
0.5
  9
$CHAMFERC
 40
1.0
  9
$CHAMFERD
 40
0.0
  9
$SKPOLY
 70
     0
  9
$TDCREATE
 40
2458449.494055093
  9
$TDUCREATE
 40
2458449.702388426
  9
$TDUPDATE
 40
2458449.494055104
  9
$TDUUPDATE
 40
2458449.702388437
  9
$TDINDWG
 40
0.0000000116
  9
$TDUSRTIMER
 40
0.0000000116
  9
$USRTIMER
 70
     1
  9
$ANGBASE
 50
0.0
  9
$ANGDIR
 70
     0
  9
$PDMODE
 70
     0
  9
$PDSIZE
 40
0.0
  9
$PLINEWID
 40
0.0
  9
$SPLFRAME
 70
     0
  9
$SPLINETYPE
 70
     6
  9
$SPLINESEGS
 70
     8
  9
$HANDSEED
  5
6A
  9
$SURFTAB1
 70
     6
  9
$SURFTAB2
 70
     6
  9
$SURFTYPE
 70
     6
  9
$SURFU
 70
     6
  9
$SURFV
 70
     6
  9
$UCSBASE
  2

  9
$UCSNAME
  2

  9
$UCSORG
 10
0.0
 20
0.0
 30
0.0
  9
$UCSXDIR
 10
1.0
 20
0.0
 30
0.0
  9
$UCSYDIR
 10
0.0
 20
1.0
 30
0.0
  9
$UCSORTHOREF
  2

  9
$UCSORTHOVIEW
 70
     0
  9
$UCSORGTOP
 10
0.0
 20
0.0
 30
0.0
  9
$UCSORGBOTTOM
 10
0.0
 20
0.0
 30
0.0
  9
$UCSORGLEFT
 10
0.0
 20
0.0
 30
0.0
  9
$UCSORGRIGHT
 10
0.0
 20
0.0
 30
0.0
  9
$UCSORGFRONT
 10
0.0
 20
0.0
 30
0.0
  9
$UCSORGBACK
 10
0.0
 20
0.0
 30
0.0
  9
$PUCSBASE
  2

  9
$PUCSNAME
  2

  9
$PUCSORG
 10
0.0
 20
0.0
 30
0.0
  9
$PUCSXDIR
 10
1.0
 20
0.0
 30
0.0
  9
$PUCSYDIR
 10
0.0
 20
1.0
 30
0.0
  9
$PUCSORTHOREF
  2

  9
$PUCSORTHOVIEW
 70
     0
  9
$PUCSORGTOP
 10
0.0
 20
0.0
 30
0.0
  9
$PUCSORGBOTTOM
 10
0.0
 20
0.0
 30
0.0
  9
$PUCSORGLEFT
 10
0.0
 20
0.0
 30
0.0
  9
$PUCSORGRIGHT
 10
0.0
 20
0.0
 30
0.0
  9
$PUCSORGFRONT
 10
0.0
 20
0.0
 30
0.0
  9
$PUCSORGBACK
 10
0.0
 20
0.0
 30
0.0
  9
$USERI1
 70
     0
  9
$USERI2
 70
     0
  9
$USERI3
 70
     0
  9
$USERI4
 70
     0
  9
$USERI5
 70
     0
  9
$USERR1
 40
0.0
  9
$USERR2
 40
0.0
  9
$USERR3
 40
0.0
  9
$USERR4
 40
0.0
  9
$USERR5
 40
0.0
  9
$WORLDVIEW
 70
     1
  9
$SHADEDGE
 70
     3
  9
$SHADEDIF
 70
    70
  9
$TILEMODE
 70
     1
  9
$MAXACTVP
 70
    64
  9
$PINSBASE
 10
0.0
 20
0.0
 30
0.0
  9
$PLIMCHECK
 70
     0
  9
$PEXTMIN
 10
1.000000000000000E+20
 20
1.000000000000000E+20
 30
1.000000000000000E+20
  9
$PEXTMAX
 10
-1.000000000000000E+20
 20
-1.000000000000000E+20
 30
-1.000000000000000E+20
  9
$PLIMMIN
 10
0.0
 20
0.0
  9
$PLIMMAX
 10
12.0
 20
9.0
  9
$UNITMODE
 70
     0
  9
$VISRETAIN
 70
     1
  9
$PLINEGEN
 70
     0
  9
$PSLTSCALE
 70
     1
  9
$TREEDEPTH
 70
  3020
  9
$CMLSTYLE
  2
Standard
  9
$CMLJUST
 70
     0
  9
$CMLSCALE
 40
1.0
  9
$PROXYGRAPHICS
 70
     1
  9
$MEASUREMENT
 70
     0
  9
$CELWEIGHT
370
    -1
  9
$ENDCAPS
280
     0
  9
$JOINSTYLE
280
     0
  9
$LWDISPLAY
290
     1
  9
$INSUNITS
 70
     1
  9
$HYPERLINKBASE
  1

  9
$STYLESHEET
  1

  9
$XEDIT
290
     1
  9
$CEPSNTYPE
380
     0
  9
$PSTYLEMODE
290
     1
  9
$FINGERPRINTGUID
  2
{C20726BA-2079-4E76-93F2-AC6A3316BBF3}
  9
$VERSIONGUID
  2
{FAEB1C32-E019-11D5-929B-00C0DF256EC4}
  9
$EXTNAMES
290
     1
  9
$PSVPSCALE
 40
0.0
  9
$OLESTARTUP
290
     0
  0
ENDSEC
  0
SECTION
  2
CLASSES
  0
CLASS
  1
ACDBDICTIONARYWDFLT
  2
AcDbDictionaryWithDefault
  3
ObjectDBX Classes
 90
        0
280
     0
281
     0
  0
CLASS
  1
VISUALSTYLE
  2
AcDbVisualStyle
  3
ObjectDBX Classes
 90
     4095
280
     0
281
     0
  0
CLASS
  1
ACDBPLACEHOLDER
  2
AcDbPlaceHolder
  3
ObjectDBX Classes
 90
        0
280
     0
281
     0
  0
CLASS
  1
LAYOUT
  2
AcDbLayout
  3
ObjectDBX Classes
 90
        0
280
     0
281
     0
  0
ENDSEC
  0
SECTION
  2
TABLES
  0
TABLE
  2
VPORT
  5
8
330
0
100
AcDbSymbolTable
 70
     1
  0
VPORT
  5
29
330
8
100
AcDbSymbolTableRecord
100
AcDbViewportTableRecord
  2
*Active
 70
     0
 10
0.0
 20
0.0
 11
1.0
 21
1.0
 12
0.0
 22
0.0
 13
0.0
 23
0.0
 14
0.5
 24
0.5
 15
0.5
 25
0.5
 16
0.0
 26
0.0
 36
1.0
 17
500.0
 27
-500.0
 37
0.0
 40
1000.0
 41
1.0
 42
50.0
 43
0.0
 44
0.0
 50
0.0
 51
0.0
 71
     0
 72
   100
 73
     1
 74
     3
 75
     0
 76
     0
 77
     0
 78
     0
281
     0
 65
     1
110
0.0
120
0.0
130
0.0
111
1.0
121
0.0
131
0.0
112
0.0
122
1.0
132
0.0
 79
     0
146
0.0
  0
ENDTAB
  0
TABLE
  2
LTYPE
  5
5
330
0
100
AcDbSymbolTable
 70
     1
  0
LTYPE
  5
14
330
5
100
AcDbSymbolTableRecord
100
AcDbLinetypeTableRecord
  2
ByBlock
 70
     0
  3

 72
    65
 73
     0
 40
0.0
  0
LTYPE
  5
15
330
5
100
AcDbSymbolTableRecord
100
AcDbLinetypeTableRecord
  2
ByLayer
 70
     0
  3

 72
    65
 73
     0
 40
0.0
  0
LTYPE
  5
16
330
5
100
AcDbSymbolTableRecord
100
AcDbLinetypeTableRecord
  2
Continuous
 70
     0
  3
Solid line
 72
    65
 73
     0
 40
0.0
  0
ENDTAB
  0
TABLE
  2
LAYER
  5
2
330
0
100
AcDbSymbolTable
 70
     2
  0
LAYER
  5
10
330
2
100
AcDbSymbolTableRecord
100
AcDbLayerTableRecord
  2
0
 70
     0
 62
     7
  6
Continuous
370
    -3
390
F
  0
LAYER
  5
3B
330
2
100
AcDbSymbolTableRecord
100
AcDbLayerTableRecord
  2
Layer 1
 70
     0
 62
     7
  6
Continuous
370
    -3
390
F
  0
ENDTAB
  0
TABLE
  2
STYLE
  5
3
330
0
100
AcDbSymbolTable
 70
     1
  0
STYLE
  5
11
330
3
100
AcDbSymbolTableRecord
100
AcDbTextStyleTableRecord
  2
Standard
 70
     0
 40
0.0
 41
1.0
 50
0.0
 71
     0
 42
0.2
  3
txt
  4

  0
ENDTAB
  0
TABLE
  2
VIEW
  5
6
330
0
100
AcDbSymbolTable
 70
     0
  0
ENDTAB
  0
TABLE
  2
UCS
  5
7
330
0
100
AcDbSymbolTable
 70
     0
  0
ENDTAB
  0
TABLE
  2
APPID
  5
9
330
0
100
AcDbSymbolTable
 70
     1
  0
APPID
  5
12
330
9
100
AcDbSymbolTableRecord
100
AcDbRegAppTableRecord
  2
ACAD
 70
     0
  0
ENDTAB
  0
TABLE
  2
DIMSTYLE
  5
A
330
0
100
AcDbSymbolTable
 70
     1
100
AcDbDimStyleTable
  0
DIMSTYLE
105
27
330
A
100
AcDbSymbolTableRecord
100
AcDbDimStyleTableRecord
  2
Standard
 70
     0
340
11
  0
ENDTAB
  0
TABLE
  2
BLOCK_RECORD
  5
1
330
0
100
AcDbSymbolTable
 70
     2
  0
BLOCK_RECORD
  5
1F
330
1
100
AcDbSymbolTableRecord
100
AcDbBlockTableRecord
  2
*Model_Space
340
22
  0
BLOCK_RECORD
  5
1B
330
1
100
AcDbSymbolTableRecord
100
AcDbBlockTableRecord
  2
*Paper_Space
340
1E
  0
BLOCK_RECORD
  5
23
330
1
100
AcDbSymbolTableRecord
100
AcDbBlockTableRecord
  2
*Paper_Space0
340
26
  0
BLOCK_RECORD
  5
3C
330
1
100
AcDbSymbolTableRecord
100
AcDbBlockTableRecord
  2
block 2
340
0
102
{BLKREFS
331
3D
102
}
  0
ENDTAB
  0
ENDSEC
  0
SECTION
  2
BLOCKS
  0
BLOCK
  5
20
330
1F
100
AcDbEntity
  8
0
100
AcDbBlockBegin
  2
*Model_Space
 70
     0
 71
     0
 10
0.0
 20
0.0
 30
0.0
  3
*Model_Space
  1

  0
ENDBLK
  5
21
330
1F
100
AcDbEntity
  8
0
100
AcDbBlockEnd
  0
BLOCK
  5
1C
330
1B
100
AcDbEntity
 67
     1
  8
0
100
AcDbBlockBegin
  2
*Paper_Space
 70
     0
 71
     0
 10
0.0
 20
0.0
 30
0.0
  3
*Paper_Space
  1

  0
ENDBLK
  5
1D
330
1B
100
AcDbEntity
 67
     1
  8
0
100
AcDbBlockEnd
  0
BLOCK
  5
24
330
23
100
AcDbEntity
  8
0
100
AcDbBlockBegin
  2
*Paper_Space0
 70
     0
 71
     0
 10
0.0
 20
0.0
 30
0.0
  3
*Paper_Space0
  1

  0
ENDBLK
  5
25
330
23
100
AcDbEntity
  8
0
100
AcDbBlockEnd
  0
BLOCK
  5
3E
330
3C
100
AcDbEntity
  8
0
100
AcDbBlockBegin
  2
block 2
 70
     0
 71
     0
 10
0.0
 20
0.0
 30
0.0
  3
block 2
  1

  0
SPLINE
  5
40
330
3C
100
AcDbEntity
  8
Layer 1
370
     0
100
AcDbSpline
210
0.0
220
0.0
230
1.0
 70
    11
 71
     3
 72
    26
 73
    22
 74
     0
 42
0.0000000001
 43
0.0000000001
 40
0.0
 40
0.0
 40
0.0
 40
0.0
 40
1.0
 40
1.0
 40
1.0
 40
2.0
 40
2.0
 40
2.0
 40
3.0
 40
3.0
 40
3.0
 40
4.0
 40
4.0
 40
4.0
 40
5.0
 40
5.0
 40
5.0
 40
6.0
 40
6.0
 40
6.0
 40
7.0
 40
7.0
 40
7.0
 40
7.0
 10
778.3896484375
 20
-294.2255859375
 30
0.0
 10
794.9443359375
 20
-308.7001953125
 30
0.0
 10
791.525390625
 20
-334.7998046875
 30
0.0
 10
779.75390625
 20
-352.23193359375
 30
0.0
 10
779.57421875
 20
-352.4873046875
 30
0.0
 10
779.4013671875
 20
-352.74951171875
 30
0.0
 10
779.2216796875
 20
-353.00439453125
 30
0.0
 10
807.6982421875
 20
-333.2177734375
 30
0.0
 10
826.1279296875
 20
-305.603515625
 30
0.0
 10
831.046875
 20
-274.2626953125
 30
0.0
 10
834.1650390625
 20
-254.3857421875
 30
0.0
 10
830.349609375
 20
-233.4443359375
 30
0.0
 10
820.572265625
 20
-216.7021484375
 30
0.0
 10
818.150390625
 20
-214.68896484375
 30
0.0
 10
815.810546875
 20
-213.26416015625
 30
0.0
 10
813.5087890625
 20
-212.345703125
 30
0.0
 10
812.3466796875
 20
-214.92138671875
 30
0.0
 10
811.169921875
 20
-217.466796875
 30
0.0
 10
810.037109375
 20
-220.15087890625
 30
0.0
 10
810.037109375
 20
-220.15087890625
 30
0.0
 10
778.3896484375
 20
-294.2255859375
 30
0.0
 10
778.3896484375
 20
-294.2255859375
 30
0.0
  0
SPLINE
  5
41
330
3C
100
AcDbEntity
  8
Layer 1
370
     0
100
AcDbSpline
210
0.0
220
0.0
230
1.0
 70
    11
 71
     3
 72
    74
 73
    70
 74
     0
 42
0.0000000001
 43
0.0000000001
 40
0.0
 40
0.0
 40
0.0
 40
0.0
 40
1.0
 40
1.0
 40
1.0
 40
2.0
 40
2.0
 40
2.0
 40
3.0
 40
3.0
 40
3.0
 40
4.0
 40
4.0
 40
4.0
 40
5.0
 40
5.0
 40
5.0
 40
6.0
 40
6.0
 40
6.0
 40
7.0
 40
7.0
 40
7.0
 40
8.0
 40
8.0
 40
8.0
 40
9.0
 40
9.0
 40
9.0
 40
10.0
 40
10.0
 40
10.0
 40
11.0
 40
11.0
 40
11.0
 40
12.0
 40
12.0
 40
12.0
 40
13.0
 40
13.0
 40
13.0
 40
14.0
 40
14.0
 40
14.0
 40
15.0
 40
15.0
 40
15.0
 40
16.0
 40
16.0
 40
16.0
 40
17.0
 40
17.0
 40
17.0
 40
18.0
 40
18.0
 40
18.0
 40
19.0
 40
19.0
 40
19.0
 40
20.0
 40
20.0
 40
20.0
 40
21.0
 40
21.0
 40
21.0
 40
22.0
 40
22.0
 40
22.0
 40
23.0
 40
23.0
 40
23.0
 40
23.0
 10
765.04296875
 20
-554.0654296875
 30
0.0
 10
783.052734375
 20
-569.390625
 30
0.0
 10
789.62109375
 20
-595.3779296875
 30
0.0
 10
781.396484375
 20
-618.7333984375
 30
0.0
 10
773.7783203125
 20
-640.3720703125
 30
0.0
 10
753.21875
 20
-656.080078125
 30
0.0
 10
732.517578125
 20
-656.080078125
 30
0.0
 10
729.5859375
 20
-656.080078125
 30
0.0
 10
726.6318359375
 20
-655.7724609375
 30
0.0
 10
723.7451171875
 20
-655.1728515625
 30
0.0
 10
712.0185546875
 20
-652.7431640625
 30
0.0
 10
702.6015625
 20
-645.1181640625
 30
0.0
 10
697.9228515625
 20
-634.24609375
 30
0.0
 10
693.21484375
 20
-623.314453125
 30
0.0
 10
694.173828125
 20
-610.673828125
 30
0.0
 10
700.501953125
 20
-600.416015625
 30
0.0
 10
703.0888671875
 20
-596.2255859375
 30
0.0
 10
707.009765625
 20
-593.916015625
 30
0.0
 10
711.5390625
 20
-593.916015625
 30
0.0
 10
717.3349609375
 20
-593.916015625
 30
0.0
 10
723.0107421875
 20
-597.78515625
 30
0.0
 10
725.3427734375
 20
-603.3408203125
 30
0.0
 10
727.5693359375
 20
-608.6337890625
 30
0.0
 10
726.34765625
 20
-614.2275390625
 30
0.0
 10
721.9833984375
 20
-618.6884765625
 30
0.0
 10
720.8740234375
 20
-619.8203125
 30
0.0
 10
720.46875
 20
-621.03515625
 30
0.0
 10
720.7236328125
 20
-622.4970703125
 30
0.0
 10
721.2333984375
 20
-625.4443359375
 30
0.0
 10
724.1650390625
 20
-628.533203125
 30
0.0
 10
726.5947265625
 20
-629.7099609375
 30
0.0
 10
729.9013671875
 20
-631.322265625
 30
0.0
 10
734.279296875
 20
-631.0595703125
 30
0.0
 10
740.1875
 20
-628.900390625
 30
0.0
 10
748.1884765625
 20
-625.984375
 30
0.0
 10
754.388671875
 20
-619.416015625
 30
0.0
 10
757.658203125
 20
-610.41796875
 30
0.0
 10
763.73828125
 20
-593.66796875
 30
0.0
 10
757.2607421875
 20
-576.033203125
 30
0.0
 10
741.8974609375
 20
-567.5458984375
 30
0.0
 10
733.2451171875
 20
-562.7548828125
 30
0.0
 10
723.0556640625
 20
-560.3330078125
 30
0.0
 10
711.62109375
 20
-560.3330078125
 30
0.0
 10
695.25390625
 20
-560.3330078125
 30
0.0
 10
678.1962890625
 20
-565.052734375
 30
0.0
 10
661.423828125
 20
-571.490234375
 30
0.0
 10
661.423828125
 20
-571.490234375
 30
0.0
 10
632.474609375
 20
-640.3046875
 30
0.0
 10
632.474609375
 20
-640.3046875
 30
0.0
 10
651.796875
 20
-659.09765625
 30
0.0
 10
676.1875
 20
-669.3515625
 30
0.0
 10
702.15234375
 20
-669.3515625
 30
0.0
 10
732.09765625
 20
-669.25390625
 30
0.0
 10
758.5654296875
 20
-655.419921875
 30
0.0
 10
779.0341796875
 20
-629.3583984375
 30
0.0
 10
785.2578125
 20
-621.4404296875
 30
0.0
 10
791.076171875
 20
-612.884765625
 30
0.0
 10
796.70703125
 20
-604.607421875
 30
0.0
 10
808.666015625
 20
-587.033203125
 30
0.0
 10
821.037109375
 20
-568.8583984375
 30
0.0
 10
838.19921875
 20
-555.2421875
 30
0.0
 10
839.69140625
 20
-554.0654296875
 30
0.0
 10
841.2060546875
 20
-552.92578125
 30
0.0
 10
842.75
 20
-551.8310546875
 30
0.0
 10
842.75
 20
-551.8310546875
 30
0.0
 10
762.25390625
 20
-551.8310546875
 30
0.0
 10
762.25390625
 20
-551.8310546875
 30
0.0
 10
763.2138671875
 20
-552.55078125
 30
0.0
 10
764.1435546875
 20
-553.30078125
 30
0.0
 10
765.04296875
 20
-554.0654296875
 30
0.0
  0
SPLINE
  5
42
330
3C
100
AcDbEntity
  8
Layer 1
370
     0
100
AcDbSpline
210
0.0
220
0.0
230
1.0
 70
    11
 71
     3
 72
    17
 73
    13
 74
     0
 42
0.0000000001
 43
0.0000000001
 40
0.0
 40
0.0
 40
0.0
 40
0.0
 40
1.0
 40
1.0
 40
1.0
 40
2.0
 40
2.0
 40
2.0
 40
3.0
 40
3.0
 40
3.0
 40
4.0
 40
4.0
 40
4.0
 40
4.0
 10
605.115234375
 20
-597.6796875
 30
0.0
 10
607.5595703125
 20
-603.7041015625
 30
0.0
 10
610.1318359375
 20
-609.169921875
 30
0.0
 10
612.830078125
 20
-614.1708984375
 30
0.0
 10
612.830078125
 20
-614.1708984375
 30
0.0
 10
623.626953125
 20
-588.3447265625
 30
0.0
 10
623.626953125
 20
-588.3447265625
 30
0.0
 10
619.9609375
 20
-590.1748046875
 30
0.0
 10
616.2275390625
 20
-592.060546875
 30
0.0
 10
612.373046875
 20
-594.013671875
 30
0.0
 10
609.9814453125
 20
-595.220703125
 30
0.0
 10
607.5595703125
 20
-596.4423828125
 30
0.0
 10
605.115234375
 20
-597.6796875
 30
0.0
  0
SPLINE
  5
43
330
3C
100
AcDbEntity
  8
Layer 1
370
     0
100
AcDbSpline
210
0.0
220
0.0
230
1.0
 70
    11
 71
     3
 72
    20
 73
    16
 74
     0
 42
0.0000000001
 43
0.0000000001
 40
0.0
 40
0.0
 40
0.0
 40
0.0
 40
1.0
 40
1.0
 40
1.0
 40
2.0
 40
2.0
 40
2.0
 40
3.0
 40
3.0
 40
3.0
 40
4.0
 40
4.0
 40
4.0
 40
5.0
 40
5.0
 40
5.0
 40
5.0
 10
521.6279296875
 20
-601.7587890625
 30
0.0
 10
520.892578125
 20
-604.607421875
 30
0.0
 10
519.9482421875
 20
-607.419921875
 30
0.0
 10
518.8154296875
 20
-610.1640625
 30
0.0
 10
541.8037109375
 20
-606.7216796875
 30
0.0
 10
562.505859375
 20
-597.875
 30
0.0
 10
580.1552734375
 20
-589.169921875
 30
0.0
 10
575.0341796875
 20
-576.033203125
 30
0.0
 10
572.0205078125
 20
-563.5048828125
 30
0.0
 10
571.1650390625
 20
-551.8310546875
 30
0.0
 10
571.1650390625
 20
-551.8310546875
 30
0.0
 10
511.6630859375
 20
-551.8310546875
 30
0.0
 10
511.6630859375
 20
-551.8310546875
 30
0.0
 10
522.2197265625
 20
-564.958984375
 30
0.0
 10
526.2158203125
 20
-583.90625
 30
0.0
 10
521.6279296875
 20
-601.7587890625
 30
0.0
  0
SPLINE
  5
44
330
3C
100
AcDbEntity
  8
Layer 1
370
     0
100
AcDbSpline
210
0.0
220
0.0
230
1.0
 70
    11
 71
     3
 72
    23
 73
    19
 74
     0
 42
0.0000000001
 43
0.0000000001
 40
0.0
 40
0.0
 40
0.0
 40
0.0
 40
1.0
 40
1.0
 40
1.0
 40
2.0
 40
2.0
 40
2.0
 40
3.0
 40
3.0
 40
3.0
 40
4.0
 40
4.0
 40
4.0
 40
5.0
 40
5.0
 40
5.0
 40
6.0
 40
6.0
 40
6.0
 40
6.0
 10
497.57275390625
 20
-611.453125
 30
0.0
 10
502.5751953125
 20
-603.6484375
 30
0.0
 10
507.314453125
 20
-591.9814453125
 30
0.0
 10
504.3447265625
 20
-578.1103515625
 30
0.0
 10
501.3369140625
 20
-564.0673828125
 30
0.0
 10
488.61279296875
 20
-553.060546875
 30
0.0
 10
475.37158203125
 20
-553.060546875
 30
0.0
 10
470.9931640625
 20
-553.060546875
 30
0.0
 10
466.76416015625
 20
-554.2529296875
 30
0.0
 10
462.8203125
 20
-556.6064453125
 30
0.0
 10
459.37158203125
 20
-558.6572265625
 30
0.0
 10
456.80712890625
 20
-561.30078125
 30
0.0
 10
455.11279296875
 20
-564.4794921875
 30
0.0
 10
455.11279296875
 20
-564.4794921875
 30
0.0
 10
472.97265625
 20
-605.6953125
 30
0.0
 10
472.97265625
 20
-605.6953125
 30
0.0
 10
479.712890625
 20
-609.0947265625
 30
0.0
 10
487.9306640625
 20
-611.037109375
 30
0.0
 10
497.57275390625
 20
-611.453125
 30
0.0
  0
SPLINE
  5
45
330
3C
100
AcDbEntity
  8
Layer 1
370
     0
100
AcDbSpline
210
0.0
220
0.0
230
1.0
 70
    11
 71
     3
 72
    62
 73
    58
 74
     0
 42
0.0000000001
 43
0.0000000001
 40
0.0
 40
0.0
 40
0.0
 40
0.0
 40
1.0
 40
1.0
 40
1.0
 40
2.0
 40
2.0
 40
2.0
 40
3.0
 40
3.0
 40
3.0
 40
4.0
 40
4.0
 40
4.0
 40
5.0
 40
5.0
 40
5.0
 40
6.0
 40
6.0
 40
6.0
 40
7.0
 40
7.0
 40
7.0
 40
8.0
 40
8.0
 40
8.0
 40
9.0
 40
9.0
 40
9.0
 40
10.0
 40
10.0
 40
10.0
 40
11.0
 40
11.0
 40
11.0
 40
12.0
 40
12.0
 40
12.0
 40
13.0
 40
13.0
 40
13.0
 40
14.0
 40
14.0
 40
14.0
 40
15.0
 40
15.0
 40
15.0
 40
16.0
 40
16.0
 40
16.0
 40
17.0
 40
17.0
 40
17.0
 40
18.0
 40
18.0
 40
18.0
 40
19.0
 40
19.0
 40
19.0
 40
19.0
 10
492.00927734375
 20
-649.62109375
 30
0.0
 10
500.568359375
 20
-655.375
 30
0.0
 10
507.853515625
 20
-661.755859375
 30
0.0
 10
513.6201171875
 20
-668.7587890625
 30
0.0
 10
514.833984375
 20
-669.42578125
 30
0.0
 10
516.0341796875
 20
-670.130859375
 30
0.0
 10
517.2333984375
 20
-670.8427734375
 30
0.0
 10
518.9736328125
 20
-671.8701171875
 30
0.0
 10
520.615234375
 20
-672.8447265625
 30
0.0
 10
522.287109375
 20
-673.6552734375
 30
0.0
 10
526.71875
 20
-675.7841796875
 30
0.0
 10
531.322265625
 20
-676.4814453125
 30
0.0
 10
536.451171875
 20
-677.103515625
 30
0.0
 10
541.3095703125
 20
-677.7041015625
 30
0.0
 10
544.48828125
 20
-681.6845703125
 30
0.0
 10
544.173828125
 20
-686.7763671875
 30
0.0
 10
543.798828125
 20
-692.89453125
 30
0.0
 10
538.498046875
 20
-697.1005859375
 30
0.0
 10
532.986328125
 20
-695.4130859375
 30
0.0
 10
531.0595703125
 20
-694.8212890625
 30
0.0
 10
529.1181640625
 20
-694.138671875
 30
0.0
 10
527.2060546875
 20
-693.388671875
 30
0.0
 10
527.880859375
 20
-695.49609375
 30
0.0
 10
528.4580078125
 20
-697.6328125
 30
0.0
 10
528.9375
 20
-699.7919921875
 30
0.0
 10
529.373046875
 20
-701.779296875
 30
0.0
 10
529.7177734375
 20
-703.8330078125
 30
0.0
 10
529.95703125
 20
-705.91796875
 30
0.0
 10
531.1875
 20
-706.8173828125
 30
0.0
 10
532.39453125
 20
-707.76953125
 30
0.0
 10
533.6015625
 20
-708.7216796875
 30
0.0
 10
536.3759765625
 20
-710.9189453125
 30
0.0
 10
538.9921875
 20
-712.99609375
 30
0.0
 10
541.88671875
 20
-714.3603515625
 30
0.0
 10
545.4931640625
 20
-716.0546875
 30
0.0
 10
549.33984375
 20
-716.955078125
 30
0.0
 10
553.41015625
 20
-717.8994140625
 30
0.0
 10
557.1669921875
 20
-718.76953125
 30
0.0
 10
561.05078125
 20
-719.6767578125
 30
0.0
 10
564.859375
 20
-721.265625
 30
0.0
 10
565.8046875
 20
-721.6630859375
 30
0.0
 10
566.64453125
 20
-722.236328125
 30
0.0
 10
567.39453125
 20
-722.900390625
 30
0.0
 10
567.39453125
 20
-722.900390625
 30
0.0
 10
604.7626953125
 20
-633.4853515625
 30
0.0
 10
604.7626953125
 20
-633.4853515625
 30
0.0
 10
598.5400390625
 20
-625.0087890625
 30
0.0
 10
592.7744140625
 20
-615.791015625
 30
0.0
 10
587.84765625
 20
-606.1826171875
 30
0.0
 10
562.580078125
 20
-618.24609375
 30
0.0
 10
533.4814453125
 20
-630.0849609375
 30
0.0
 10
505.5
 20
-630.677734375
 30
0.0
 10
501.0595703125
 20
-635.4384765625
 30
0.0
 10
495.66064453125
 20
-639.798828125
 30
0.0
 10
489.4677734375
 20
-643.75390625
 30
0.0
 10
489.4677734375
 20
-643.75390625
 30
0.0
 10
492.00927734375
 20
-649.62109375
 30
0.0
 10
492.00927734375
 20
-649.62109375
 30
0.0
  0
SPLINE
  5
46
330
3C
100
AcDbEntity
  8
Layer 1
370
     0
100
AcDbSpline
210
0.0
220
0.0
230
1.0
 70
    11
 71
     3
 72
    23
 73
    19
 74
     0
 42
0.0000000001
 43
0.0000000001
 40
0.0
 40
0.0
 40
0.0
 40
0.0
 40
1.0
 40
1.0
 40
1.0
 40
2.0
 40
2.0
 40
2.0
 40
3.0
 40
3.0
 40
3.0
 40
4.0
 40
4.0
 40
4.0
 40
5.0
 40
5.0
 40
5.0
 40
6.0
 40
6.0
 40
6.0
 40
6.0
 10
598.591796875
 20
-579.677734375
 30
0.0
 10
601.4189453125
 20
-578.177734375
 30
0.0
 10
604.24609375
 20
-576.6630859375
 30
0.0
 10
607.064453125
 20
-575.15625
 30
0.0
 10
616.294921875
 20
-570.21875
 30
0.0
 10
625.681640625
 20
-565.255859375
 30
0.0
 10
635.2265625
 20
-560.5810546875
 30
0.0
 10
635.2265625
 20
-560.5810546875
 30
0.0
 10
638.8857421875
 20
-551.8310546875
 30
0.0
 10
638.8857421875
 20
-551.8310546875
 30
0.0
 10
638.8857421875
 20
-551.8310546875
 30
0.0
 10
590.2998046875
 20
-551.8310546875
 30
0.0
 10
590.2998046875
 20
-551.8310546875
 30
0.0
 10
590.2998046875
 20
-551.8310546875
 30
0.0
 10
590.7421875
 20
-553.3974609375
 30
0.0
 10
590.7421875
 20
-553.3974609375
 30
0.0
 10
593.208984375
 20
-562.03515625
 30
0.0
 10
595.7509765625
 20
-570.927734375
 30
0.0
 10
598.591796875
 20
-579.677734375
 30
0.0
  0
SPLINE
  5
47
330
3C
100
AcDbEntity
  8
Layer 1
370
     0
100
AcDbSpline
210
0.0
220
0.0
230
1.0
 70
    11
 71
     3
 72
    17
 73
    13
 74
     0
 42
0.0000000001
 43
0.0000000001
 40
0.0
 40
0.0
 40
0.0
 40
0.0
 40
1.0
 40
1.0
 40
1.0
 40
2.0
 40
2.0
 40
2.0
 40
3.0
 40
3.0
 40
3.0
 40
4.0
 40
4.0
 40
4.0
 40
4.0
 10
355.939453125
 20
-626.07421875
 30
0.0
 10
353.3603515625
 20
-625.7666015625
 30
0.0
 10
350.74365234375
 20
-625.458984375
 30
0.0
 10
348.119140625
 20
-625.12890625
 30
0.0
 10
353.84375
 20
-630.0556640625
 30
0.0
 10
359.69580078125
 20
-634.3369140625
 30
0.0
 10
365.4091796875
 20
-637.8681640625
 30
0.0
 10
365.4091796875
 20
-637.8681640625
 30
0.0
 10
360.5283203125
 20
-626.63671875
 30
0.0
 10
360.5283203125
 20
-626.63671875
 30
0.0
 10
358.99853515625
 20
-626.4521484375
 30
0.0
 10
357.48388671875
 20
-626.25390625
 30
0.0
 10
355.939453125
 20
-626.07421875
 30
0.0
  0
SPLINE
  5
48
330
3C
100
AcDbEntity
  8
Layer 1
370
     0
100
AcDbSpline
210
0.0
220
0.0
230
1.0
 70
    11
 71
     3
 72
    23
 73
    19
 74
     0
 42
0.0000000001
 43
0.0000000001
 40
0.0
 40
0.0
 40
0.0
 40
0.0
 40
1.0
 40
1.0
 40
1.0
 40
2.0
 40
2.0
 40
2.0
 40
3.0
 40
3.0
 40
3.0
 40
4.0
 40
4.0
 40
4.0
 40
5.0
 40
5.0
 40
5.0
 40
6.0
 40
6.0
 40
6.0
 40
6.0
 10
533.0244140625
 20
-728.763671875
 30
0.0
 10
533.0244140625
 20
-728.763671875
 30
0.0
 10
532.02734375
 20
-728.0068359375
 30
0.0
 10
532.02734375
 20
-728.0068359375
 30
0.0
 10
531.08984375
 20
-727.2939453125
 30
0.0
 10
530.107421875
 20
-726.5517578125
 30
0.0
 10
529.1025390625
 20
-725.7724609375
 30
0.0
 10
528.6904296875
 20
-727.7705078125
 30
0.0
 10
528.150390625
 20
-729.7158203125
 30
0.0
 10
527.55078125
 20
-731.6318359375
 30
0.0
 10
527.55078125
 20
-731.6318359375
 30
0.0
 10
545.97265625
 20
-774.1552734375
 30
0.0
 10
545.97265625
 20
-774.1552734375
 30
0.0
 10
545.97265625
 20
-774.1552734375
 30
0.0
 10
559.7763671875
 20
-741.138671875
 30
0.0
 10
559.7763671875
 20
-741.138671875
 30
0.0
 10
549.3095703125
 20
-740.205078125
 30
0.0
 10
540.0419921875
 20
-734.1171875
 30
0.0
 10
533.0244140625
 20
-728.763671875
 30
0.0
  0
SPLINE
  5
49
330
3C
100
AcDbEntity
  8
Layer 1
370
     0
100
AcDbSpline
210
0.0
220
0.0
230
1.0
 70
    11
 71
     3
 72
    23
 73
    19
 74
     0
 42
0.0000000001
 43
0.0000000001
 40
0.0
 40
0.0
 40
0.0
 40
0.0
 40
1.0
 40
1.0
 40
1.0
 40
2.0
 40
2.0
 40
2.0
 40
3.0
 40
3.0
 40
3.0
 40
4.0
 40
4.0
 40
4.0
 40
5.0
 40
5.0
 40
5.0
 40
6.0
 40
6.0
 40
6.0
 40
6.0
 10
526.283203125
 20
-377.9267578125
 30
0.0
 10
530.669921875
 20
-377.9267578125
 30
0.0
 10
534.890625
 20
-376.73486328125
 30
0.0
 10
538.8427734375
 20
-374.380859375
 30
0.0
 10
544.6083984375
 20
-370.93896484375
 30
0.0
 10
547.9521484375
 20
-365.89306640625
 30
0.0
 10
548.76953125
 20
-359.3623046875
 30
0.0
 10
549.89453125
 20
-350.44775390625
 30
0.0
 10
545.830078125
 20
-339.62841796875
 30
0.0
 10
538.677734375
 20
-332.43798828125
 30
0.0
 10
530.796875
 20
-324.5205078125
 30
0.0
 10
519.16796875
 20
-320.1865234375
 30
0.0
 10
504.0830078125
 20
-319.5341796875
 30
0.0
 10
499.08740234375
 20
-327.33203125
 30
0.0
 10
494.34130859375
 20
-338.99853515625
 30
0.0
 10
497.310546875
 20
-352.876953125
 30
0.0
 10
500.31689453125
 20
-366.92041015625
 30
0.0
 10
513.04296875
 20
-377.9267578125
 30
0.0
 10
526.283203125
 20
-377.9267578125
 30
0.0
  0
SPLINE
  5
4A
330
3C
100
AcDbEntity
  8
Layer 1
370
     0
100
AcDbSpline
210
0.0
220
0.0
230
1.0
 70
    11
 71
     3
 72
    35
 73
    31
 74
     0
 42
0.0000000001
 43
0.0000000001
 40
0.0
 40
0.0
 40
0.0
 40
0.0
 40
1.0
 40
1.0
 40
1.0
 40
2.0
 40
2.0
 40
2.0
 40
3.0
 40
3.0
 40
3.0
 40
4.0
 40
4.0
 40
4.0
 40
5.0
 40
5.0
 40
5.0
 40
6.0
 40
6.0
 40
6.0
 40
7.0
 40
7.0
 40
7.0
 40
8.0
 40
8.0
 40
8.0
 40
9.0
 40
9.0
 40
9.0
 40
10.0
 40
10.0
 40
10.0
 40
10.0
 10
563.884765625
 20
-373.01611328125
 30
0.0
 10
562.90234375
 20
-375.1826171875
 30
0.0
 10
561.7255859375
 20
-377.2294921875
 30
0.0
 10
560.361328125
 20
-379.1494140625
 30
0.0
 10
560.361328125
 20
-379.1494140625
 30
0.0
 10
696.033203125
 20
-379.1494140625
 30
0.0
 10
696.033203125
 20
-379.1494140625
 30
0.0
 10
696.3935546875
 20
-362.32421875
 30
0.0
 10
687.0888671875
 20
-341.8779296875
 30
0.0
 10
670.0615234375
 20
-322.2861328125
 30
0.0
 10
668.08203125
 20
-321.91845703125
 30
0.0
 10
666.1025390625
 20
-321.5810546875
 30
0.0
 10
664.115234375
 20
-321.2734375
 30
0.0
 10
654.0087890625
 20
-319.69921875
 30
0.0
 10
643.796875
 20
-318.35693359375
 30
0.0
 10
633.9140625
 20
-317.06005859375
 30
0.0
 10
604.05078125
 20
-313.138671875
 30
0.0
 10
573.1669921875
 20
-309.08203125
 30
0.0
 10
543.17578125
 20
-298.12060546875
 30
0.0
 10
539.884765625
 20
-296.9208984375
 30
0.0
 10
536.630859375
 20
-295.63134765625
 30
0.0
 10
533.4892578125
 20
-294.2744140625
 30
0.0
 10
528.48828125
 20
-296.86083984375
 30
0.0
 10
523.8916015625
 20
-299.740234375
 30
0.0
 10
519.791015625
 20
-302.8515625
 30
0.0
 10
528.705078125
 20
-305.09375
 30
0.0
 10
536.9677734375
 20
-308.81982421875
 30
0.0
 10
544.451171875
 20
-313.9560546875
 30
0.0
 10
561.78515625
 20
-325.8623046875
 30
0.0
 10
573.7900390625
 20
-351.205078125
 30
0.0
 10
563.884765625
 20
-373.01611328125
 30
0.0
  0
SPLINE
  5
4B
330
3C
100
AcDbEntity
  8
Layer 1
370
     0
100
AcDbSpline
210
0.0
220
0.0
230
1.0
 70
    11
 71
     3
 72
    20
 73
    16
 74
     0
 42
0.0000000001
 43
0.0000000001
 40
0.0
 40
0.0
 40
0.0
 40
0.0
 40
1.0
 40
1.0
 40
1.0
 40
2.0
 40
2.0
 40
2.0
 40
3.0
 40
3.0
 40
3.0
 40
4.0
 40
4.0
 40
4.0
 40
5.0
 40
5.0
 40
5.0
 40
5.0
 10
645.708984375
 20
-304.91357421875
 30
0.0
 10
648.287109375
 20
-305.220703125
 30
0.0
 10
650.904296875
 20
-305.5283203125
 30
0.0
 10
653.5439453125
 20
-305.8583984375
 30
0.0
 10
641.09765625
 20
-295.1591796875
 30
0.0
 10
628.021484375
 20
-287.30859375
 30
0.0
 10
617.1943359375
 20
-284.197265625
 30
0.0
 10
600.9990234375
 20
-279.54833984375
 30
0.0
 10
580.40234375
 20
-279.59375
 30
0.0
 10
560.9912109375
 20
-284.2119140625
 30
0.0
 10
582.5849609375
 20
-293.501953125
 30
0.0
 10
607.349609375
 20
-300.00244140625
 30
0.0
 10
634.75390625
 20
-303.5712890625
 30
0.0
 10
638.375
 20
-304.0361328125
 30
0.0
 10
642.02734375
 20
-304.47119140625
 30
0.0
 10
645.708984375
 20
-304.91357421875
 30
0.0
  0
SPLINE
  5
4C
330
3C
100
AcDbEntity
  8
Layer 1
370
     0
100
AcDbSpline
210
0.0
220
0.0
230
1.0
 70
    11
 71
     3
 72
    17
 73
    13
 74
     0
 42
0.0000000001
 43
0.0000000001
 40
0.0
 40
0.0
 40
0.0
 40
0.0
 40
1.0
 40
1.0
 40
1.0
 40
2.0
 40
2.0
 40
2.0
 40
3.0
 40
3.0
 40
3.0
 40
4.0
 40
4.0
 40
4.0
 40
4.0
 10
723.310546875
 20
-349.810546875
 30
0.0
 10
721.345703125
 20
-347.32861328125
 30
0.0
 10
719.15625
 20
-344.962890625
 30
0.0
 10
716.64453125
 20
-342.7021484375
 30
0.0
 10
710.6396484375
 20
-337.28125
 30
0.0
 10
703.5537109375
 20
-332.8876953125
 30
0.0
 10
695.171875
 20
-329.416015625
 30
0.0
 10
703.80859375
 20
-343.7744140625
 30
0.0
 10
709.6572265625
 20
-359.58740234375
 30
0.0
 10
712.408203125
 20
-375.89892578125
 30
0.0
 10
712.408203125
 20
-375.89892578125
 30
0.0
 10
723.310546875
 20
-349.810546875
 30
0.0
 10
723.310546875
 20
-349.810546875
 30
0.0
  0
SPLINE
  5
4D
330
3C
100
AcDbEntity
  8
Layer 1
370
     0
100
AcDbSpline
210
0.0
220
0.0
230
1.0
 70
    11
 71
     3
 72
    23
 73
    19
 74
     0
 42
0.0000000001
 43
0.0000000001
 40
0.0
 40
0.0
 40
0.0
 40
0.0
 40
1.0
 40
1.0
 40
1.0
 40
2.0
 40
2.0
 40
2.0
 40
3.0
 40
3.0
 40
3.0
 40
4.0
 40
4.0
 40
4.0
 40
5.0
 40
5.0
 40
5.0
 40
6.0
 40
6.0
 40
6.0
 40
6.0
 10
362.41015625
 20
-350.1328125
 30
0.0
 10
370.642578125
 20
-346.42138671875
 30
0.0
 10
379.68505859375
 20
-341.84033203125
 30
0.0
 10
389.26708984375
 20
-336.9814453125
 30
0.0
 10
391.6591796875
 20
-335.7744140625
 30
0.0
 10
394.08837890625
 20
-334.544921875
 30
0.0
 10
396.5400390625
 20
-333.3076171875
 30
0.0
 10
390.54931640625
 20
-318.54443359375
 30
0.0
 10
383.853515625
 20
-306.98291015625
 30
0.0
 10
376.12353515625
 20
-298.02294921875
 30
0.0
 10
362.03515625
 20
-281.685546875
 30
0.0
 10
344.5654296875
 20
-270.47607421875
 30
0.0
 10
325.408203125
 20
-265.16015625
 30
0.0
 10
325.408203125
 20
-265.16015625
 30
0.0
 10
362.26025390625
 20
-350.2001953125
 30
0.0
 10
362.26025390625
 20
-350.2001953125
 30
0.0
 10
362.30859375
 20
-350.177734375
 30
0.0
 10
362.357421875
 20
-350.1552734375
 30
0.0
 10
362.41015625
 20
-350.1328125
 30
0.0
  0
SPLINE
  5
4E
330
3C
100
AcDbEntity
  8
Layer 1
370
     0
100
AcDbSpline
210
0.0
220
0.0
230
1.0
 70
    11
 71
     3
 72
    20
 73
    16
 74
     0
 42
0.0000000001
 43
0.0000000001
 40
0.0
 40
0.0
 40
0.0
 40
0.0
 40
1.0
 40
1.0
 40
1.0
 40
2.0
 40
2.0
 40
2.0
 40
3.0
 40
3.0
 40
3.0
 40
4.0
 40
4.0
 40
4.0
 40
5.0
 40
5.0
 40
5.0
 40
5.0
 10
489.9921875
 20
-379.1494140625
 30
0.0
 10
479.443359375
 20
-366.0283203125
 30
0.0
 10
475.44677734375
 20
-347.0810546875
 30
0.0
 10
480.02783203125
 20
-329.22900390625
 30
0.0
 10
480.7626953125
 20
-326.38720703125
 30
0.0
 10
481.7001953125
 20
-323.57568359375
 30
0.0
 10
482.83984375
 20
-320.82373046875
 30
0.0
 10
459.8662109375
 20
-324.265625
 30
0.0
 10
439.1572265625
 20
-333.10546875
 30
0.0
 10
421.5
 20
-341.8173828125
 30
0.0
 10
426.62109375
 20
-354.9462890625
 30
0.0
 10
429.63525390625
 20
-367.47509765625
 30
0.0
 10
430.482421875
 20
-379.1494140625
 30
0.0
 10
430.482421875
 20
-379.1494140625
 30
0.0
 10
489.9921875
 20
-379.1494140625
 30
0.0
 10
489.9921875
 20
-379.1494140625
 30
0.0
  0
SPLINE
  5
4F
330
3C
100
AcDbEntity
  8
Layer 1
370
     0
100
AcDbSpline
210
0.0
220
0.0
230
1.0
 70
    11
 71
     3
 72
    23
 73
    19
 74
     0
 42
0.0000000001
 43
0.0000000001
 40
0.0
 40
0.0
 40
0.0
 40
0.0
 40
1.0
 40
1.0
 40
1.0
 40
2.0
 40
2.0
 40
2.0
 40
3.0
 40
3.0
 40
3.0
 40
4.0
 40
4.0
 40
4.0
 40
5.0
 40
5.0
 40
5.0
 40
6.0
 40
6.0
 40
6.0
 40
6.0
 10
370.21533203125
 20
-368.5625
 30
0.0
 10
370.21533203125
 20
-368.5625
 30
0.0
 10
374.8037109375
 20
-379.1494140625
 30
0.0
 10
374.8037109375
 20
-379.1494140625
 30
0.0
 10
374.8037109375
 20
-379.1494140625
 30
0.0
 10
411.36328125
 20
-379.1494140625
 30
0.0
 10
411.36328125
 20
-379.1494140625
 30
0.0
 10
411.36328125
 20
-379.1494140625
 30
0.0
 10
410.8681640625
 20
-377.439453125
 30
0.0
 10
410.8681640625
 20
-377.439453125
 30
0.0
 10
408.41650390625
 20
-368.8544921875
 30
0.0
 10
405.8896484375
 20
-360.00732421875
 30
0.0
 10
403.06298828125
 20
-351.3095703125
 30
0.0
 10
400.236328125
 20
-352.8095703125
 30
0.0
 10
397.4169921875
 20
-354.31640625
 30
0.0
 10
394.5908203125
 20
-355.8310546875
 30
0.0
 10
386.5830078125
 20
-360.1123046875
 30
0.0
 10
378.462890625
 20
-364.4345703125
 30
0.0
 10
370.21533203125
 20
-368.5625
 30
0.0
  0
SPLINE
  5
50
330
3C
100
AcDbEntity
  8
Layer 1
370
     0
100
AcDbSpline
210
0.0
220
0.0
230
1.0
 70
    11
 71
     3
 72
    17
 73
    13
 74
     0
 42
0.0000000001
 43
0.0000000001
 40
0.0
 40
0.0
 40
0.0
 40
0.0
 40
1.0
 40
1.0
 40
1.0
 40
2.0
 40
2.0
 40
2.0
 40
3.0
 40
3.0
 40
3.0
 40
4.0
 40
4.0
 40
4.0
 40
4.0
 10
755.310546875
 20
-354.916015625
 30
0.0
 10
763.236328125
 20
-345.435546875
 30
0.0
 10
765.1181640625
 20
-336.83154296875
 30
0.0
 10
764.1357421875
 20
-327.59423828125
 30
0.0
 10
764.1357421875
 20
-327.59423828125
 30
0.0
 10
756.5185546875
 20
-345.423828125
 30
0.0
 10
756.5185546875
 20
-345.423828125
 30
0.0
 10
756.5185546875
 20
-345.423828125
 30
0.0
 10
750.3623046875
 20
-360.0673828125
 30
0.0
 10
750.3623046875
 20
-360.0673828125
 30
0.0
 10
752.1767578125
 20
-358.3955078125
 30
0.0
 10
753.826171875
 20
-356.685546875
 30
0.0
 10
755.310546875
 20
-354.916015625
 30
0.0
  0
SPLINE
  5
51
330
3C
100
AcDbEntity
  8
Layer 1
370
     0
100
AcDbSpline
210
0.0
220
0.0
230
1.0
 70
    11
 71
     3
 72
   371
 73
   367
 74
     0
 42
0.0000000001
 43
0.0000000001
 40
0.0
 40
0.0
 40
0.0
 40
0.0
 40
1.0
 40
1.0
 40
1.0
 40
2.0
 40
2.0
 40
2.0
 40
3.0
 40
3.0
 40
3.0
 40
4.0
 40
4.0
 40
4.0
 40
5.0
 40
5.0
 40
5.0
 40
6.0
 40
6.0
 40
6.0
 40
7.0
 40
7.0
 40
7.0
 40
8.0
 40
8.0
 40
8.0
 40
9.0
 40
9.0
 40
9.0
 40
10.0
 40
10.0
 40
10.0
 40
11.0
 40
11.0
 40
11.0
 40
12.0
 40
12.0
 40
12.0
 40
13.0
 40
13.0
 40
13.0
 40
14.0
 40
14.0
 40
14.0
 40
15.0
 40
15.0
 40
15.0
 40
16.0
 40
16.0
 40
16.0
 40
17.0
 40
17.0
 40
17.0
 40
18.0
 40
18.0
 40
18.0
 40
19.0
 40
19.0
 40
19.0
 40
20.0
 40
20.0
 40
20.0
 40
21.0
 40
21.0
 40
21.0
 40
22.0
 40
22.0
 40
22.0
 40
23.0
 40
23.0
 40
23.0
 40
24.0
 40
24.0
 40
24.0
 40
25.0
 40
25.0
 40
25.0
 40
26.0
 40
26.0
 40
26.0
 40
27.0
 40
27.0
 40
27.0
 40
28.0
 40
28.0
 40
28.0
 40
29.0
 40
29.0
 40
29.0
 40
30.0
 40
30.0
 40
30.0
 40
31.0
 40
31.0
 40
31.0
 40
32.0
 40
32.0
 40
32.0
 40
33.0
 40
33.0
 40
33.0
 40
34.0
 40
34.0
 40
34.0
 40
35.0
 40
35.0
 40
35.0
 40
36.0
 40
36.0
 40
36.0
 40
37.0
 40
37.0
 40
37.0
 40
38.0
 40
38.0
 40
38.0
 40
39.0
 40
39.0
 40
39.0
 40
40.0
 40
40.0
 40
40.0
 40
41.0
 40
41.0
 40
41.0
 40
42.0
 40
42.0
 40
42.0
 40
43.0
 40
43.0
 40
43.0
 40
44.0
 40
44.0
 40
44.0
 40
45.0
 40
45.0
 40
45.0
 40
46.0
 40
46.0
 40
46.0
 40
47.0
 40
47.0
 40
47.0
 40
48.0
 40
48.0
 40
48.0
 40
49.0
 40
49.0
 40
49.0
 40
50.0
 40
50.0
 40
50.0
 40
51.0
 40
51.0
 40
51.0
 40
52.0
 40
52.0
 40
52.0
 40
53.0
 40
53.0
 40
53.0
 40
54.0
 40
54.0
 40
54.0
 40
55.0
 40
55.0
 40
55.0
 40
56.0
 40
56.0
 40
56.0
 40
57.0
 40
57.0
 40
57.0
 40
58.0
 40
58.0
 40
58.0
 40
59.0
 40
59.0
 40
59.0
 40
60.0
 40
60.0
 40
60.0
 40
61.0
 40
61.0
 40
61.0
 40
62.0
 40
62.0
 40
62.0
 40
63.0
 40
63.0
 40
63.0
 40
64.0
 40
64.0
 40
64.0
 40
65.0
 40
65.0
 40
65.0
 40
66.0
 40
66.0
 40
66.0
 40
67.0
 40
67.0
 40
67.0
 40
68.0
 40
68.0
 40
68.0
 40
69.0
 40
69.0
 40
69.0
 40
70.0
 40
70.0
 40
70.0
 40
71.0
 40
71.0
 40
71.0
 40
72.0
 40
72.0
 40
72.0
 40
73.0
 40
73.0
 40
73.0
 40
74.0
 40
74.0
 40
74.0
 40
75.0
 40
75.0
 40
75.0
 40
76.0
 40
76.0
 40
76.0
 40
77.0
 40
77.0
 40
77.0
 40
78.0
 40
78.0
 40
78.0
 40
79.0
 40
79.0
 40
79.0
 40
80.0
 40
80.0
 40
80.0
 40
81.0
 40
81.0
 40
81.0
 40
82.0
 40
82.0
 40
82.0
 40
83.0
 40
83.0
 40
83.0
 40
84.0
 40
84.0
 40
84.0
 40
85.0
 40
85.0
 40
85.0
 40
86.0
 40
86.0
 40
86.0
 40
87.0
 40
87.0
 40
87.0
 40
88.0
 40
88.0
 40
88.0
 40
89.0
 40
89.0
 40
89.0
 40
90.0
 40
90.0
 40
90.0
 40
91.0
 40
91.0
 40
91.0
 40
92.0
 40
92.0
 40
92.0
 40
93.0
 40
93.0
 40
93.0
 40
94.0
 40
94.0
 40
94.0
 40
95.0
 40
95.0
 40
95.0
 40
96.0
 40
96.0
 40
96.0
 40
97.0
 40
97.0
 40
97.0
 40
98.0
 40
98.0
 40
98.0
 40
99.0
 40
99.0
 40
99.0
 40
100.0
 40
100.0
 40
100.0
 40
101.0
 40
101.0
 40
101.0
 40
102.0
 40
102.0
 40
102.0
 40
103.0
 40
103.0
 40
103.0
 40
104.0
 40
104.0
 40
104.0
 40
105.0
 40
105.0
 40
105.0
 40
106.0
 40
106.0
 40
106.0
 40
107.0
 40
107.0
 40
107.0
 40
108.0
 40
108.0
 40
108.0
 40
109.0
 40
109.0
 40
109.0
 40
110.0
 40
110.0
 40
110.0
 40
111.0
 40
111.0
 40
111.0
 40
112.0
 40
112.0
 40
112.0
 40
113.0
 40
113.0
 40
113.0
 40
114.0
 40
114.0
 40
114.0
 40
115.0
 40
115.0
 40
115.0
 40
116.0
 40
116.0
 40
116.0
 40
117.0
 40
117.0
 40
117.0
 40
118.0
 40
118.0
 40
118.0
 40
119.0
 40
119.0
 40
119.0
 40
120.0
 40
120.0
 40
120.0
 40
121.0
 40
121.0
 40
121.0
 40
122.0
 40
122.0
 40
122.0
 40
122.0
 10
913.9794921875
 20
-538.8974609375
 30
0.0
 10
910.005859375
 20
-537.3896484375
 30
0.0
 10
905.8515625
 20
-536.294921875
 30
0.0
 10
901.5859375
 20
-535.6357421875
 30
0.0
 10
901.5859375
 20
-535.6357421875
 30
0.0
 10
901.5859375
 20
-534.67578125
 30
0.0
 10
901.5859375
 20
-534.67578125
 30
0.0
 10
901.5859375
 20
-534.67578125
 30
0.0
 10
97.5205078125
 20
-534.67578125
 30
0.0
 10
97.5205078125
 20
-534.67578125
 30
0.0
 10
97.5205078125
 20
-534.67578125
 30
0.0
 10
97.5205078125
 20
-551.8310546875
 30
0.0
 10
97.5205078125
 20
-551.8310546875
 30
0.0
 10
97.5205078125
 20
-551.8310546875
 30
0.0
 10
240.173828125
 20
-551.8310546875
 30
0.0
 10
240.173828125
 20
-551.8310546875
 30
0.0
 10
230.1337890625
 20
-556.8017578125
 30
0.0
 10
220.54443359375
 20
-562.77734375
 30
0.0
 10
211.51708984375
 20
-569.6904296875
 30
0.0
 10
202.9248046875
 20
-573.671875
 30
0.0
 10
195.689453125
 20
-576.693359375
 30
0.0
 10
187.9365234375
 20
-576.693359375
 30
0.0
 10
184.24755859375
 20
-576.693359375
 30
0.0
 10
180.66357421875
 20
-576.0107421875
 30
0.0
 10
176.974609375
 20
-574.59375
 30
0.0
 10
172.5283203125
 20
-572.8994140625
 30
0.0
 10
166.74755859375
 20
-570.552734375
 30
0.0
 10
161.529296875
 20
-567.470703125
 30
0.0
 10
161.529296875
 20
-567.470703125
 30
0.0
 10
159.6025390625
 20
-566.30859375
 30
0.0
 10
159.6025390625
 20
-566.30859375
 30
0.0
 10
155.7783203125
 20
-563.9775390625
 30
0.0
 10
152.16455078125
 20
-561.7724609375
 30
0.0
 10
146.1513671875
 20
-561.607421875
 30
0.0
 10
143.34716796875
 20
-561.607421875
 30
0.0
 10
140.71533203125
 20
-562.8974609375
 30
0.0
 10
138.9306640625
 20
-565.154296875
 30
0.0
 10
137.048828125
 20
-567.53125
 30
0.0
 10
136.3369140625
 20
-570.6875
 30
0.0
 10
137.0341796875
 20
-573.611328125
 30
0.0
 10
141.43505859375
 20
-592.0341796875
 30
0.0
 10
166.35791015625
 20
-593.4658203125
 30
0.0
 10
173.89306640625
 20
-593.4658203125
 30
0.0
 10
176.375
 20
-593.4658203125
 30
0.0
 10
178.78173828125
 20
-593.3388671875
 30
0.0
 10
181.0537109375
 20
-593.0908203125
 30
0.0
 10
182.9052734375
 20
-592.888671875
 30
0.0
 10
185.1396484375
 20
-592.57421875
 30
0.0
 10
187.62158203125
 20
-592.0859375
 30
0.0
 10
186.564453125
 20
-593.31640625
 30
0.0
 10
185.52978515625
 20
-594.568359375
 30
0.0
 10
184.517578125
 20
-595.8349609375
 30
0.0
 10
183.69287109375
 20
-596.134765625
 30
0.0
 10
182.97265625
 20
-596.66796875
 30
0.0
 10
182.43310546875
 20
-597.3876953125
 30
0.0
 10
179.64404296875
 20
-601.083984375
 30
0.0
 10
176.77978515625
 20
-605.080078125
 30
0.0
 10
173.810546875
 20
-609.2265625
 30
0.0
 10
155.23876953125
 20
-635.1533203125
 30
0.0
 10
134.1845703125
 20
-664.7021484375
 30
0.0
 10
102.38671875
 20
-662.326171875
 30
0.0
 10
95.36865234375
 20
-661.7783203125
 30
0.0
 10
90.3525390625
 20
-666.4794921875
 30
0.0
 10
90.0380859375
 20
-673.33984375
 30
0.0
 10
89.7529296875
 20
-679.525390625
 30
0.0
 10
93.7939453125
 20
-686.505859375
 30
0.0
 10
101.8466796875
 20
-687.248046875
 30
0.0
 10
122.67578125
 20
-689.1826171875
 30
0.0
 10
137.3037109375
 20
-676.13671875
 30
0.0
 10
148.6552734375
 20
-663.4130859375
 30
0.0
 10
151.21240234375
 20
-660.548828125
 30
0.0
 10
153.8291015625
 20
-657.6025390625
 30
0.0
 10
156.4609375
 20
-654.580078125
 30
0.0
 10
151.36962890625
 20
-679.802734375
 30
0.0
 10
154.8564453125
 20
-704.3662109375
 30
0.0
 10
166.732421875
 20
-725.1796875
 30
0.0
 10
169.8818359375
 20
-730.7060546875
 30
0.0
 10
173.712890625
 20
-735.9619140625
 30
0.0
 10
178.14453125
 20
-740.8203125
 30
0.0
 10
178.279296875
 20
-743.466796875
 30
0.0
 10
178.609375
 20
-746.068359375
 30
0.0
 10
178.923828125
 20
-748.6025390625
 30
0.0
 10
179.3212890625
 20
-751.7373046875
 30
0.0
 10
179.6962890625
 20
-754.69140625
 30
0.0
 10
179.7041015625
 20
-757.623046875
 30
0.0
 10
179.73388671875
 20
-766.7998046875
 30
0.0
 10
177.58203125
 20
-774.7626953125
 30
0.0
 10
172.7236328125
 20
-783.4453125
 30
0.0
 10
172.43115234375
 20
-783.9775390625
 30
0.0
 10
171.99609375
 20
-784.689453125
 30
0.0
 10
171.47900390625
 20
-785.5517578125
 30
0.0
 10
165.765625
 20
-795.029296875
 30
0.0
 10
159.9921875
 20
-805.7138671875
 30
0.0
 10
163.81591796875
 20
-812.4765625
 30
0.0
 10
165.03076171875
 20
-814.6279296875
 30
0.0
 10
167.7001953125
 20
-817.185546875
 30
0.0
 10
173.541015625
 20
-817.185546875
 30
0.0
 10
173.900390625
 20
-817.185546875
 30
0.0
 10
174.26806640625
 20
-817.177734375
 30
0.0
 10
174.64306640625
 20
-817.1552734375
 30
0.0
 10
192.6376953125
 20
-816.2705078125
 30
0.0
 10
195.44921875
 20
-786.826171875
 30
0.0
 10
196.513671875
 20
-775.7451171875
 30
0.0
 10
197.00146484375
 20
-770.69140625
 30
0.0
 10
197.66845703125
 20
-763.7861328125
 30
0.0
 10
197.40625
 20
-756.7451171875
 30
0.0
 10
210.947265625
 20
-765.0458984375
 30
0.0
 10
226.4150390625
 20
-769.5517578125
 30
0.0
 10
241.7255859375
 20
-769.5517578125
 30
0.0
 10
254.97412109375
 20
-769.5517578125
 30
0.0
 10
267.908203125
 20
-766.125
 30
0.0
 10
279.1845703125
 20
-759.6318359375
 30
0.0
 10
284.80029296875
 20
-759.2421875
 30
0.0
 10
290.17626953125
 20
-759.71484375
 30
0.0
 10
295.03515625
 20
-761.1318359375
 30
0.0
 10
298.13916015625
 20
-762.03125
 30
0.0
 10
301.2353515625
 20
-764.490234375
 30
0.0
 10
304.51220703125
 20
-767.099609375
 30
0.0
 10
309.39306640625
 20
-770.9833984375
 30
0.0
 10
314.44677734375
 20
-774.9951171875
 30
0.0
 10
320.9169921875
 20
-774.9951171875
 30
0.0
 10
322.2744140625
 20
-774.9951171875
 30
0.0
 10
323.63916015625
 20
-774.8076171875
 30
0.0
 10
324.98095703125
 20
-774.4404296875
 30
0.0
 10
329.12744140625
 20
-773.30078125
 30
0.0
 10
331.99169921875
 20
-769.58203125
 30
0.0
 10
332.10400390625
 20
-765.1875
 30
0.0
 10
332.56884765625
 20
-747.7783203125
 30
0.0
 10
309.07080078125
 20
-746.248046875
 30
0.0
 10
297.78662109375
 20
-745.513671875
 30
0.0
 10
297.78662109375
 20
-745.513671875
 30
0.0
 10
296.9765625
 20
-745.4541015625
 30
0.0
 10
296.9765625
 20
-745.4541015625
 30
0.0
 10
310.84765625
 20
-730.4208984375
 30
0.0
 10
320.69970703125
 20
-707.5302734375
 30
0.0
 10
314.25927734375
 20
-685.2314453125
 30
0.0
 10
309.4755859375
 20
-668.69921875
 30
0.0
 10
293.5205078125
 20
-656.2373046875
 30
0.0
 10
277.1376953125
 20
-656.2373046875
 30
0.0
 10
270.26220703125
 20
-656.2373046875
 30
0.0
 10
263.671875
 20
-658.46484375
 30
0.0
 10
258.0634765625
 20
-662.677734375
 30
0.0
 10
252.59765625
 20
-666.7939453125
 30
0.0
 10
250.4453125
 20
-673.0849609375
 30
0.0
 10
252.455078125
 20
-679.0908203125
 30
0.0
 10
254.3671875
 20
-684.796875
 30
0.0
 10
259.66015625
 20
-688.6279296875
 30
0.0
 10
265.6435546875
 20
-688.6279296875
 30
0.0
 10
267.8251953125
 20
-688.6279296875
 30
0.0
 10
270.037109375
 20
-688.140625
 30
0.0
 10
272.21923828125
 20
-687.1884765625
 30
0.0
 10
277.0625
 20
-685.07421875
 30
0.0
 10
280.744140625
 20
-685.5537109375
 30
0.0
 10
283.59326171875
 20
-688.8603515625
 30
0.0
 10
287.76953125
 20
-693.6962890625
 30
0.0
 10
289.0439453125
 20
-702.9189453125
 30
0.0
 10
288.12939453125
 20
-709.1416015625
 30
0.0
 10
286.5322265625
 20
-719.9541015625
 30
0.0
 10
279.806640625
 20
-728.396484375
 30
0.0
 10
274.44580078125
 20
-733.5693359375
 30
0.0
 10
264.5791015625
 20
-743.083984375
 30
0.0
 10
250.79052734375
 20
-748.54296875
 30
0.0
 10
236.6123046875
 20
-748.54296875
 30
0.0
 10
231.8662109375
 20
-748.54296875
 30
0.0
 10
227.1875
 20
-747.927734375
 30
0.0
 10
222.70361328125
 20
-746.720703125
 30
0.0
 10
214.90625
 20
-744.62890625
 30
0.0
 10
207.74560546875
 20
-741.2626953125
 30
0.0
 10
201.3125
 20
-736.673828125
 30
0.0
 10
217.41796875
 20
-737.2138671875
 30
0.0
 10
231.10107421875
 20
-729.970703125
 30
0.0
 10
237.20458984375
 20
-717.63671875
 30
0.0
 10
239.0712890625
 20
-713.865234375
 30
0.0
 10
238.83154296875
 20
-709.583984375
 30
0.0
 10
236.537109375
 20
-705.8955078125
 30
0.0
 10
234.2353515625
 20
-702.1767578125
 30
0.0
 10
230.31396484375
 20
-699.875
 30
0.0
 10
226.31005859375
 20
-699.875
 30
0.0
 10
223.2138671875
 20
-699.875
 30
0.0
 10
220.296875
 20
-701.2763671875
 30
0.0
 10
218.10009765625
 20
-703.826171875
 30
0.0
 10
211.5693359375
 20
-711.40625
 30
0.0
 10
205.48876953125
 20
-717.81640625
 30
0.0
 10
197.21875
 20
-719.5263671875
 30
0.0
 10
191.865234375
 20
-720.62890625
 30
0.0
 10
186.69921875
 20
-718.9560546875
 30
0.0
 10
181.08349609375
 20
-714.28515625
 30
0.0
 10
171.306640625
 20
-697.53515625
 30
0.0
 10
167.490234375
 20
-676.59375
 30
0.0
 10
170.609375
 20
-656.7177734375
 30
0.0
 10
175.52734375
 20
-625.3837890625
 30
0.0
 10
193.95703125
 20
-597.76953125
 30
0.0
 10
222.43359375
 20
-577.9755859375
 30
0.0
 10
222.26123046875
 20
-578.23828125
 30
0.0
 10
222.08154296875
 20
-578.5
 30
0.0
 10
221.9013671875
 20
-578.755859375
 30
0.0
 10
210.017578125
 20
-596.3603515625
 30
0.0
 10
206.61328125
 20
-622.8271484375
 30
0.0
 10
223.73828125
 20
-637.2080078125
 30
0.0
 10
225.9130859375
 20
-639.0302734375
 30
0.0
 10
228.73193359375
 20
-640.0419921875
 30
0.0
 10
231.6787109375
 20
-640.0419921875
 30
0.0
 10
235.7197265625
 20
-640.0419921875
 30
0.0
 10
239.46142578125
 20
-638.2275390625
 30
0.0
 10
241.6728515625
 20
-635.1982421875
 30
0.0
 10
243.705078125
 20
-632.4169921875
 30
0.0
 10
244.20751953125
 20
-628.9453125
 30
0.0
 10
243.0751953125
 20
-625.4140625
 30
0.0
 10
236.9873046875
 20
-606.3173828125
 30
0.0
 10
232.5859375
 20
-592.521484375
 30
0.0
 10
246.34423828125
 20
-576.0712890625
 30
0.0
 10
249.0361328125
 20
-572.8544921875
 30
0.0
 10
252.2451171875
 20
-569.8251953125
 30
0.0
 10
256.076171875
 20
-566.8935546875
 30
0.0
 10
259.802734375
 20
-581.5595703125
 30
0.0
 10
270.734375
 20
-594.5830078125
 30
0.0
 10
280.5869140625
 20
-602.42578125
 30
0.0
 10
291.1435546875
 20
-610.8310546875
 30
0.0
 10
303.7548828125
 20
-616.57421875
 30
0.0
 10
320.18994140625
 20
-620.4501953125
 30
0.0
 10
334.9609375
 20
-637.4814453125
 30
0.0
 10
353.51025390625
 20
-650.08203125
 30
0.0
 10
373.900390625
 20
-657.43359375
 30
0.0
 10
373.900390625
 20
-657.43359375
 30
0.0
 10
483.0458984375
 20
-908.837890625
 30
0.0
 10
483.0458984375
 20
-908.837890625
 30
0.0
 10
483.0458984375
 20
-908.837890625
 30
0.0
 10
519.513671875
 20
-908.837890625
 30
0.0
 10
519.513671875
 20
-908.837890625
 30
0.0
 10
519.513671875
 20
-908.837890625
 30
0.0
 10
625.45703125
 20
-656.9794921875
 30
0.0
 10
625.45703125
 20
-656.9794921875
 30
0.0
 10
628.1787109375
 20
-659.4990234375
 30
0.0
 10
630.900390625
 20
-661.890625
 30
0.0
 10
633.63671875
 20
-663.982421875
 30
0.0
 10
653.0634765625
 20
-678.880859375
 30
0.0
 10
677.349609375
 20
-687.0830078125
 30
0.0
 10
702.0166015625
 20
-687.0830078125
 30
0.0
 10
718.89453125
 20
-687.0830078125
 30
0.0
 10
735.7197265625
 20
-683.1767578125
 30
0.0
 10
750.685546875
 20
-675.7763671875
 30
0.0
 10
758.17578125
 20
-672.0732421875
 30
0.0
 10
765.3056640625
 20
-667.251953125
 30
0.0
 10
772.271484375
 20
-661.1630859375
 30
0.0
 10
770.8984375
 20
-671.3759765625
 30
0.0
 10
770.486328125
 20
-683.447265625
 30
0.0
 10
775.419921875
 20
-693.5390625
 30
0.0
 10
777.2421875
 20
-697.2431640625
 30
0.0
 10
780.6611328125
 20
-699.365234375
 30
0.0
 10
784.814453125
 20
-699.365234375
 30
0.0
 10
788.3916015625
 20
-699.365234375
 30
0.0
 10
791.990234375
 20
-697.7529296875
 30
0.0
 10
794.44921875
 20
-695.0537109375
 30
0.0
 10
796.630859375
 20
-692.662109375
 30
0.0
 10
797.673828125
 20
-689.6552734375
 30
0.0
 10
797.380859375
 20
-686.595703125
 30
0.0
 10
796.923828125
 20
-681.71484375
 30
0.0
 10
795.6865234375
 20
-677.111328125
 30
0.0
 10
794.4873046875
 20
-672.650390625
 30
0.0
 10
793.16796875
 20
-667.7392578125
 30
0.0
 10
791.9228515625
 20
-663.09765625
 30
0.0
 10
791.67578125
 20
-658.208984375
 30
0.0
 10
791.48046875
 20
-654.2802734375
 30
0.0
 10
792.2001953125
 20
-650.2841796875
 30
0.0
 10
792.96484375
 20
-646.0478515625
 30
0.0
 10
793.482421875
 20
-643.2060546875
 30
0.0
 10
794.0146484375
 20
-640.2822265625
 30
0.0
 10
794.26171875
 20
-637.3056640625
 30
0.0
 10
798.4833984375
 20
-631.892578125
 30
0.0
 10
802.5849609375
 20
-626.25390625
 30
0.0
 10
806.5732421875
 20
-620.712890625
 30
0.0
 10
806.6259765625
 20
-628.03125
 30
0.0
 10
807.67578125
 20
-634.478515625
 30
0.0
 10
808.3203125
 20
-637.79296875
 30
0.0
 10
809.220703125
 20
-642.3740234375
 30
0.0
 10
812.9013671875
 20
-645.328125
 30
0.0
 10
817.7001953125
 20
-645.328125
 30
0.0
 10
821.5087890625
 20
-645.328125
 30
0.0
 10
825.2880859375
 20
-643.416015625
 30
0.0
 10
827.3125
 20
-640.4619140625
 30
0.0
 10
829.126953125
 20
-637.8232421875
 30
0.0
 10
829.45703125
 20
-634.6435546875
 30
0.0
 10
828.2421875
 20
-631.509765625
 30
0.0
 10
825.970703125
 20
-625.6318359375
 30
0.0
 10
824.0732421875
 20
-620.2705078125
 30
0.0
 10
823.818359375
 20
-614.234375
 30
0.0
 10
823.720703125
 20
-611.970703125
 30
0.0
 10
823.826171875
 20
-609.6611328125
 30
0.0
 10
823.9384765625
 20
-607.216796875
 30
0.0
 10
824.0810546875
 20
-603.9853515625
 30
0.0
 10
824.23046875
 20
-600.65625
 30
0.0
 10
823.900390625
 20
-597.3046875
 30
0.0
 10
827.109375
 20
-593.263671875
 30
0.0
 10
830.154296875
 20
-589.6796875
 30
0.0
 10
833.1455078125
 20
-586.42578125
 30
0.0
 10
833.0859375
 20
-594.365234375
 30
0.0
 10
835.2001953125
 20
-602.185546875
 30
0.0
 10
839.234375
 20
-607.9140625
 30
0.0
 10
841.2578125
 20
-610.80859375
 30
0.0
 10
845.26171875
 20
-612.1201171875
 30
0.0
 10
848.34375
 20
-610.861328125
 30
0.0
 10
849.6630859375
 20
-610.3359375
 30
0.0
 10
850.5107421875
 20
-609.6533203125
 30
0.0
 10
851.2451171875
 20
-608.986328125
 30
0.0
 10
853.3447265625
 20
-607.0517578125
 30
0.0
 10
854.0869140625
 20
-603.5576171875
 30
0.0
 10
852.9775390625
 20
-600.8515625
 30
0.0
 10
852.9775390625
 20
-600.8515625
 30
0.0
 10
852.7822265625
 20
-600.37109375
 30
0.0
 10
852.7822265625
 20
-600.37109375
 30
0.0
 10
850.6083984375
 20
-595.0703125
 30
0.0
 10
848.7265625
 20
-590.4892578125
 30
0.0
 10
848.80078125
 20
-585.0458984375
 30
0.0
 10
848.8759765625
 20
-579.33984375
 30
0.0
 10
851.02734375
 20
-573.9716796875
 30
0.0
 10
853.1572265625
 20
-568.7685546875
 30
0.0
 10
854.5146484375
 20
-567.8388671875
 30
0.0
 10
855.88671875
 20
-566.9384765625
 30
0.0
 10
857.3037109375
 20
-566.083984375
 30
0.0
 10
867.23046875
 20
-560.1005859375
 30
0.0
 10
879.3095703125
 20
-556.673828125
 30
0.0
 10
890.4365234375
 20
-556.673828125
 30
0.0
 10
901.5859375
 20
-556.673828125
 30
0.0
 10
921.3349609375
 20
-560.1005859375
 30
0.0
 10
928.29296875
 20
-583.05859375
 30
0.0
 10
932.4541015625
 20
-596.794921875
 30
0.0
 10
927.453125
 20
-612.1728515625
 30
0.0
 10
916.408203125
 20
-619.6181640625
 30
0.0
 10
909.6455078125
 20
-624.169921875
 30
0.0
 10
902.1181640625
 20
-624.5966796875
 30
0.0
 10
896.0224609375
 20
-620.7431640625
 30
0.0
 10
892.828125
 20
-618.6806640625
 30
0.0
 10
890.3916015625
 20
-615.958984375
 30
0.0
 10
888.5166015625
 20
-612.3232421875
 30
0.0
 10
888.3291015625
 20
-611.9853515625
 30
0.0
 10
888.1572265625
 20
-611.6484375
 30
0.0
 10
888.0068359375
 20
-611.310546875
 30
0.0
 10
888.037109375
 20
-611.310546875
 30
0.0
 10
888.07421875
 20
-611.310546875
 30
0.0
 10
888.1123046875
 20
-611.310546875
 30
0.0
 10
893.65234375
 20
-611.310546875
 30
0.0
 10
898.88671875
 20
-608.798828125
 30
0.0
 10
902.1025390625
 20
-604.5849609375
 30
0.0
 10
905.38671875
 20
-600.2890625
 30
0.0
 10
906.271484375
 20
-594.568359375
 30
0.0
 10
904.615234375
 20
-588.46484375
 30
0.0
 10
902.5302734375
 20
-580.8095703125
 30
0.0
 10
896.07421875
 20
-575.861328125
 30
0.0
 10
888.1640625
 20
-575.861328125
 30
0.0
 10
885.3525390625
 20
-575.861328125
 30
0.0
 10
882.4736328125
 20
-576.505859375
 30
0.0
 10
879.8271484375
 20
-577.728515625
 30
0.0
 10
867.943359375
 20
-583.208984375
 30
0.0
 10
864.5234375
 20
-597.3349609375
 30
0.0
 10
865.2060546875
 20
-607.7646484375
 30
0.0
 10
866.5703125
 20
-628.7509765625
 30
0.0
 10
884.205078125
 20
-645.8310546875
 30
0.0
 10
904.5244140625
 20
-645.8310546875
 30
0.0
 10
906.8564453125
 20
-645.8310546875
 30
0.0
 10
909.203125
 20
-645.5986328125
 30
0.0
 10
911.490234375
 20
-645.140625
 30
0.0
 10
932.9638671875
 20
-640.8515625
 30
0.0
 10
950.23828125
 20
-618.5390625
 30
0.0
 10
950.81640625
 20
-594.34375
 30
0.0
 10
951.400390625
 20
-570.1552734375
 30
0.0
 10
936.255859375
 20
-547.3623046875
 30
0.0
 10
913.9794921875
 20
-538.8974609375
 30
0.0
  0
SPLINE
  5
52
330
3C
100
AcDbEntity
  8
Layer 1
370
     0
100
AcDbSpline
210
0.0
220
0.0
230
1.0
 70
    11
 71
     3
 72
    17
 73
    13
 74
     0
 42
0.0000000001
 43
0.0000000001
 40
0.0
 40
0.0
 40
0.0
 40
0.0
 40
1.0
 40
1.0
 40
1.0
 40
2.0
 40
2.0
 40
2.0
 40
3.0
 40
3.0
 40
3.0
 40
4.0
 40
4.0
 40
4.0
 40
4.0
 10
612.830078125
 20
-614.1708984375
 30
0.0
 10
610.1318359375
 20
-609.169921875
 30
0.0
 10
607.5595703125
 20
-603.7041015625
 30
0.0
 10
605.115234375
 20
-597.6796875
 30
0.0
 10
607.5595703125
 20
-596.4423828125
 30
0.0
 10
609.9814453125
 20
-595.220703125
 30
0.0
 10
612.373046875
 20
-594.013671875
 30
0.0
 10
616.2275390625
 20
-592.060546875
 30
0.0
 10
619.9609375
 20
-590.1748046875
 30
0.0
 10
623.626953125
 20
-588.3447265625
 30
0.0
 10
623.626953125
 20
-588.3447265625
 30
0.0
 10
612.830078125
 20
-614.1708984375
 30
0.0
 10
612.830078125
 20
-614.1708984375
 30
0.0
  0
SPLINE
  5
53
330
3C
100
AcDbEntity
  8
Layer 1
370
     0
100
AcDbSpline
210
0.0
220
0.0
230
1.0
 70
    11
 71
     3
 72
    23
 73
    19
 74
     0
 42
0.0000000001
 43
0.0000000001
 40
0.0
 40
0.0
 40
0.0
 40
0.0
 40
1.0
 40
1.0
 40
1.0
 40
2.0
 40
2.0
 40
2.0
 40
3.0
 40
3.0
 40
3.0
 40
4.0
 40
4.0
 40
4.0
 40
5.0
 40
5.0
 40
5.0
 40
6.0
 40
6.0
 40
6.0
 40
6.0
 10
638.8857421875
 20
-551.8310546875
 30
0.0
 10
638.8857421875
 20
-551.8310546875
 30
0.0
 10
635.2265625
 20
-560.5810546875
 30
0.0
 10
635.2265625
 20
-560.5810546875
 30
0.0
 10
625.681640625
 20
-565.255859375
 30
0.0
 10
616.294921875
 20
-570.21875
 30
0.0
 10
607.064453125
 20
-575.15625
 30
0.0
 10
604.24609375
 20
-576.6630859375
 30
0.0
 10
601.4189453125
 20
-578.177734375
 30
0.0
 10
598.591796875
 20
-579.677734375
 30
0.0
 10
595.7509765625
 20
-570.927734375
 30
0.0
 10
593.208984375
 20
-562.03515625
 30
0.0
 10
590.7421875
 20
-553.3974609375
 30
0.0
 10
590.7421875
 20
-553.3974609375
 30
0.0
 10
590.2998046875
 20
-551.8310546875
 30
0.0
 10
590.2998046875
 20
-551.8310546875
 30
0.0
 10
590.2998046875
 20
-551.8310546875
 30
0.0
 10
638.8857421875
 20
-551.8310546875
 30
0.0
 10
638.8857421875
 20
-551.8310546875
 30
0.0
  0
SPLINE
  5
54
330
3C
100
AcDbEntity
  8
Layer 1
370
     0
100
AcDbSpline
210
0.0
220
0.0
230
1.0
 70
    11
 71
     3
 72
    20
 73
    16
 74
     0
 42
0.0000000001
 43
0.0000000001
 40
0.0
 40
0.0
 40
0.0
 40
0.0
 40
1.0
 40
1.0
 40
1.0
 40
2.0
 40
2.0
 40
2.0
 40
3.0
 40
3.0
 40
3.0
 40
4.0
 40
4.0
 40
4.0
 40
5.0
 40
5.0
 40
5.0
 40
5.0
 10
571.1650390625
 20
-551.8310546875
 30
0.0
 10
572.0205078125
 20
-563.5048828125
 30
0.0
 10
575.0341796875
 20
-576.033203125
 30
0.0
 10
580.1552734375
 20
-589.169921875
 30
0.0
 10
562.505859375
 20
-597.875
 30
0.0
 10
541.8037109375
 20
-606.7216796875
 30
0.0
 10
518.8154296875
 20
-610.1640625
 30
0.0
 10
519.9482421875
 20
-607.419921875
 30
0.0
 10
520.892578125
 20
-604.607421875
 30
0.0
 10
521.6279296875
 20
-601.7587890625
 30
0.0
 10
526.2158203125
 20
-583.90625
 30
0.0
 10
522.2197265625
 20
-564.958984375
 30
0.0
 10
511.6630859375
 20
-551.8310546875
 30
0.0
 10
511.6630859375
 20
-551.8310546875
 30
0.0
 10
571.1650390625
 20
-551.8310546875
 30
0.0
 10
571.1650390625
 20
-551.8310546875
 30
0.0
  0
SPLINE
  5
55
330
3C
100
AcDbEntity
  8
Layer 1
370
     0
100
AcDbSpline
210
0.0
220
0.0
230
1.0
 70
    11
 71
     3
 72
    62
 73
    58
 74
     0
 42
0.0000000001
 43
0.0000000001
 40
0.0
 40
0.0
 40
0.0
 40
0.0
 40
1.0
 40
1.0
 40
1.0
 40
2.0
 40
2.0
 40
2.0
 40
3.0
 40
3.0
 40
3.0
 40
4.0
 40
4.0
 40
4.0
 40
5.0
 40
5.0
 40
5.0
 40
6.0
 40
6.0
 40
6.0
 40
7.0
 40
7.0
 40
7.0
 40
8.0
 40
8.0
 40
8.0
 40
9.0
 40
9.0
 40
9.0
 40
10.0
 40
10.0
 40
10.0
 40
11.0
 40
11.0
 40
11.0
 40
12.0
 40
12.0
 40
12.0
 40
13.0
 40
13.0
 40
13.0
 40
14.0
 40
14.0
 40
14.0
 40
15.0
 40
15.0
 40
15.0
 40
16.0
 40
16.0
 40
16.0
 40
17.0
 40
17.0
 40
17.0
 40
18.0
 40
18.0
 40
18.0
 40
19.0
 40
19.0
 40
19.0
 40
19.0
 10
587.84765625
 20
-606.1826171875
 30
0.0
 10
592.7744140625
 20
-615.791015625
 30
0.0
 10
598.5400390625
 20
-625.0087890625
 30
0.0
 10
604.7626953125
 20
-633.4853515625
 30
0.0
 10
604.7626953125
 20
-633.4853515625
 30
0.0
 10
567.39453125
 20
-722.900390625
 30
0.0
 10
567.39453125
 20
-722.900390625
 30
0.0
 10
566.64453125
 20
-722.236328125
 30
0.0
 10
565.8046875
 20
-721.6630859375
 30
0.0
 10
564.859375
 20
-721.265625
 30
0.0
 10
561.05078125
 20
-719.6767578125
 30
0.0
 10
557.1669921875
 20
-718.76953125
 30
0.0
 10
553.41015625
 20
-717.8994140625
 30
0.0
 10
549.33984375
 20
-716.955078125
 30
0.0
 10
545.4931640625
 20
-716.0546875
 30
0.0
 10
541.88671875
 20
-714.3603515625
 30
0.0
 10
538.9921875
 20
-712.99609375
 30
0.0
 10
536.3759765625
 20
-710.9189453125
 30
0.0
 10
533.6015625
 20
-708.7216796875
 30
0.0
 10
532.39453125
 20
-707.76953125
 30
0.0
 10
531.1875
 20
-706.8173828125
 30
0.0
 10
529.95703125
 20
-705.91796875
 30
0.0
 10
529.7177734375
 20
-703.8330078125
 30
0.0
 10
529.373046875
 20
-701.779296875
 30
0.0
 10
528.9375
 20
-699.7919921875
 30
0.0
 10
528.4580078125
 20
-697.6328125
 30
0.0
 10
527.880859375
 20
-695.49609375
 30
0.0
 10
527.2060546875
 20
-693.388671875
 30
0.0
 10
529.1181640625
 20
-694.138671875
 30
0.0
 10
531.0595703125
 20
-694.8212890625
 30
0.0
 10
532.986328125
 20
-695.4130859375
 30
0.0
 10
538.498046875
 20
-697.1005859375
 30
0.0
 10
543.798828125
 20
-692.89453125
 30
0.0
 10
544.173828125
 20
-686.7763671875
 30
0.0
 10
544.48828125
 20
-681.6845703125
 30
0.0
 10
541.3095703125
 20
-677.7041015625
 30
0.0
 10
536.451171875
 20
-677.103515625
 30
0.0
 10
531.322265625
 20
-676.4814453125
 30
0.0
 10
526.71875
 20
-675.7841796875
 30
0.0
 10
522.287109375
 20
-673.6552734375
 30
0.0
 10
520.615234375
 20
-672.8447265625
 30
0.0
 10
518.9736328125
 20
-671.8701171875
 30
0.0
 10
517.2333984375
 20
-670.8427734375
 30
0.0
 10
516.0341796875
 20
-670.130859375
 30
0.0
 10
514.833984375
 20
-669.42578125
 30
0.0
 10
513.6201171875
 20
-668.7587890625
 30
0.0
 10
507.853515625
 20
-661.755859375
 30
0.0
 10
500.568359375
 20
-655.375
 30
0.0
 10
492.00927734375
 20
-649.62109375
 30
0.0
 10
492.00927734375
 20
-649.62109375
 30
0.0
 10
489.4677734375
 20
-643.75390625
 30
0.0
 10
489.4677734375
 20
-643.75390625
 30
0.0
 10
495.66064453125
 20
-639.798828125
 30
0.0
 10
501.0595703125
 20
-635.4384765625
 30
0.0
 10
505.5
 20
-630.677734375
 30
0.0
 10
533.4814453125
 20
-630.0849609375
 30
0.0
 10
562.580078125
 20
-618.24609375
 30
0.0
 10
587.84765625
 20
-606.1826171875
 30
0.0
  0
SPLINE
  5
56
330
3C
100
AcDbEntity
  8
Layer 1
370
     0
100
AcDbSpline
210
0.0
220
0.0
230
1.0
 70
    11
 71
     3
 72
    23
 73
    19
 74
     0
 42
0.0000000001
 43
0.0000000001
 40
0.0
 40
0.0
 40
0.0
 40
0.0
 40
1.0
 40
1.0
 40
1.0
 40
2.0
 40
2.0
 40
2.0
 40
3.0
 40
3.0
 40
3.0
 40
4.0
 40
4.0
 40
4.0
 40
5.0
 40
5.0
 40
5.0
 40
6.0
 40
6.0
 40
6.0
 40
6.0
 10
462.8203125
 20
-556.6064453125
 30
0.0
 10
466.76416015625
 20
-554.2529296875
 30
0.0
 10
470.9931640625
 20
-553.060546875
 30
0.0
 10
475.37158203125
 20
-553.060546875
 30
0.0
 10
488.61279296875
 20
-553.060546875
 30
0.0
 10
501.3369140625
 20
-564.0673828125
 30
0.0
 10
504.3447265625
 20
-578.1103515625
 30
0.0
 10
507.314453125
 20
-591.9814453125
 30
0.0
 10
502.5751953125
 20
-603.6484375
 30
0.0
 10
497.57275390625
 20
-611.453125
 30
0.0
 10
487.9306640625
 20
-611.037109375
 30
0.0
 10
479.712890625
 20
-609.0947265625
 30
0.0
 10
472.97265625
 20
-605.6953125
 30
0.0
 10
472.97265625
 20
-605.6953125
 30
0.0
 10
455.11279296875
 20
-564.4794921875
 30
0.0
 10
455.11279296875
 20
-564.4794921875
 30
0.0
 10
456.80712890625
 20
-561.30078125
 30
0.0
 10
459.37158203125
 20
-558.6572265625
 30
0.0
 10
462.8203125
 20
-556.6064453125
 30
0.0
  0
SPLINE
  5
57
330
3C
100
AcDbEntity
  8
Layer 1
370
     0
100
AcDbSpline
210
0.0
220
0.0
230
1.0
 70
    11
 71
     3
 72
    23
 73
    19
 74
     0
 42
0.0000000001
 43
0.0000000001
 40
0.0
 40
0.0
 40
0.0
 40
0.0
 40
1.0
 40
1.0
 40
1.0
 40
2.0
 40
2.0
 40
2.0
 40
3.0
 40
3.0
 40
3.0
 40
4.0
 40
4.0
 40
4.0
 40
5.0
 40
5.0
 40
5.0
 40
6.0
 40
6.0
 40
6.0
 40
6.0
 10
285.01025390625
 20
-588.28515625
 30
0.0
 10
276.1552734375
 20
-580.3076171875
 30
0.0
 10
270.86962890625
 20
-571.2275390625
 30
0.0
 10
268.07275390625
 20
-559.1259765625
 30
0.0
 10
272.4892578125
 20
-556.65234375
 30
0.0
 10
276.96533203125
 20
-554.447265625
 30
0.0
 10
280.89404296875
 20
-552.55859375
 30
0.0
 10
282.00390625
 20
-552.302734375
 30
0.0
 10
283.11328125
 20
-552.0634765625
 30
0.0
 10
284.2158203125
 20
-551.8310546875
 30
0.0
 10
284.2158203125
 20
-551.8310546875
 30
0.0
 10
288.69921875
 20
-551.8310546875
 30
0.0
 10
288.69921875
 20
-551.8310546875
 30
0.0
 10
291.1884765625
 20
-569.30078125
 30
0.0
 10
297.26171875
 20
-586.2529296875
 30
0.0
 10
306.49169921875
 20
-601.5712890625
 30
0.0
 10
298.1015625
 20
-598.099609375
 30
0.0
 10
291.01611328125
 20
-593.7060546875
 30
0.0
 10
285.01025390625
 20
-588.28515625
 30
0.0
  0
SPLINE
  5
58
330
3C
100
AcDbEntity
  8
Layer 1
370
     0
100
AcDbSpline
210
0.0
220
0.0
230
1.0
 70
    11
 71
     3
 72
    20
 73
    16
 74
     0
 42
0.0000000001
 43
0.0000000001
 40
0.0
 40
0.0
 40
0.0
 40
0.0
 40
1.0
 40
1.0
 40
1.0
 40
2.0
 40
2.0
 40
2.0
 40
3.0
 40
3.0
 40
3.0
 40
4.0
 40
4.0
 40
4.0
 40
5.0
 40
5.0
 40
5.0
 40
5.0
 10
331.59423828125
 20
-608.701171875
 30
0.0
 10
314.56640625
 20
-589.109375
 30
0.0
 10
305.26171875
 20
-568.6630859375
 30
0.0
 10
305.6220703125
 20
-551.8310546875
 30
0.0
 10
305.6220703125
 20
-551.8310546875
 30
0.0
 10
328.05517578125
 20
-551.8310546875
 30
0.0
 10
328.05517578125
 20
-551.8310546875
 30
0.0
 10
328.05517578125
 20
-551.8310546875
 30
0.0
 10
354.22998046875
 20
-612.1240234375
 30
0.0
 10
354.22998046875
 20
-612.1240234375
 30
0.0
 10
348.681640625
 20
-611.3671875
 30
0.0
 10
343.103515625
 20
-610.580078125
 30
0.0
 10
337.5400390625
 20
-609.7138671875
 30
0.0
 10
335.552734375
 20
-609.3984375
 30
0.0
 10
333.57373046875
 20
-609.0693359375
 30
0.0
 10
331.59423828125
 20
-608.701171875
 30
0.0
  0
SPLINE
  5
59
330
3C
100
AcDbEntity
  8
Layer 1
370
     0
100
AcDbSpline
210
0.0
220
0.0
230
1.0
 70
    11
 71
     3
 72
    17
 73
    13
 74
     0
 42
0.0000000001
 43
0.0000000001
 40
0.0
 40
0.0
 40
0.0
 40
0.0
 40
1.0
 40
1.0
 40
1.0
 40
2.0
 40
2.0
 40
2.0
 40
3.0
 40
3.0
 40
3.0
 40
4.0
 40
4.0
 40
4.0
 40
4.0
 10
348.119140625
 20
-625.12890625
 30
0.0
 10
350.74365234375
 20
-625.458984375
 30
0.0
 10
353.3603515625
 20
-625.7666015625
 30
0.0
 10
355.939453125
 20
-626.07421875
 30
0.0
 10
357.48388671875
 20
-626.25390625
 30
0.0
 10
358.99853515625
 20
-626.4521484375
 30
0.0
 10
360.5283203125
 20
-626.63671875
 30
0.0
 10
360.5283203125
 20
-626.63671875
 30
0.0
 10
365.4091796875
 20
-637.8681640625
 30
0.0
 10
365.4091796875
 20
-637.8681640625
 30
0.0
 10
359.69580078125
 20
-634.3369140625
 30
0.0
 10
353.84375
 20
-630.0556640625
 30
0.0
 10
348.119140625
 20
-625.12890625
 30
0.0
  0
SPLINE
  5
5A
330
3C
100
AcDbEntity
  8
Layer 1
370
     0
100
AcDbSpline
210
0.0
220
0.0
230
1.0
 70
    11
 71
     3
 72
    23
 73
    19
 74
     0
 42
0.0000000001
 43
0.0000000001
 40
0.0
 40
0.0
 40
0.0
 40
0.0
 40
1.0
 40
1.0
 40
1.0
 40
2.0
 40
2.0
 40
2.0
 40
3.0
 40
3.0
 40
3.0
 40
4.0
 40
4.0
 40
4.0
 40
5.0
 40
5.0
 40
5.0
 40
6.0
 40
6.0
 40
6.0
 40
6.0
 10
527.55078125
 20
-731.6318359375
 30
0.0
 10
528.150390625
 20
-729.7158203125
 30
0.0
 10
528.6904296875
 20
-727.7705078125
 30
0.0
 10
529.1025390625
 20
-725.7724609375
 30
0.0
 10
530.107421875
 20
-726.5517578125
 30
0.0
 10
531.08984375
 20
-727.2939453125
 30
0.0
 10
532.02734375
 20
-728.0068359375
 30
0.0
 10
532.02734375
 20
-728.0068359375
 30
0.0
 10
533.0244140625
 20
-728.763671875
 30
0.0
 10
533.0244140625
 20
-728.763671875
 30
0.0
 10
540.0419921875
 20
-734.1171875
 30
0.0
 10
549.3095703125
 20
-740.205078125
 30
0.0
 10
559.7763671875
 20
-741.138671875
 30
0.0
 10
559.7763671875
 20
-741.138671875
 30
0.0
 10
545.97265625
 20
-774.1552734375
 30
0.0
 10
545.97265625
 20
-774.1552734375
 30
0.0
 10
545.97265625
 20
-774.1552734375
 30
0.0
 10
527.55078125
 20
-731.6318359375
 30
0.0
 10
527.55078125
 20
-731.6318359375
 30
0.0
  0
SPLINE
  5
5B
330
3C
100
AcDbEntity
  8
Layer 1
370
     0
100
AcDbSpline
210
0.0
220
0.0
230
1.0
 70
    11
 71
     3
 72
    74
 73
    70
 74
     0
 42
0.0000000001
 43
0.0000000001
 40
0.0
 40
0.0
 40
0.0
 40
0.0
 40
1.0
 40
1.0
 40
1.0
 40
2.0
 40
2.0
 40
2.0
 40
3.0
 40
3.0
 40
3.0
 40
4.0
 40
4.0
 40
4.0
 40
5.0
 40
5.0
 40
5.0
 40
6.0
 40
6.0
 40
6.0
 40
7.0
 40
7.0
 40
7.0
 40
8.0
 40
8.0
 40
8.0
 40
9.0
 40
9.0
 40
9.0
 40
10.0
 40
10.0
 40
10.0
 40
11.0
 40
11.0
 40
11.0
 40
12.0
 40
12.0
 40
12.0
 40
13.0
 40
13.0
 40
13.0
 40
14.0
 40
14.0
 40
14.0
 40
15.0
 40
15.0
 40
15.0
 40
16.0
 40
16.0
 40
16.0
 40
17.0
 40
17.0
 40
17.0
 40
18.0
 40
18.0
 40
18.0
 40
19.0
 40
19.0
 40
19.0
 40
20.0
 40
20.0
 40
20.0
 40
21.0
 40
21.0
 40
21.0
 40
22.0
 40
22.0
 40
22.0
 40
23.0
 40
23.0
 40
23.0
 40
23.0
 10
838.19921875
 20
-555.2421875
 30
0.0
 10
821.037109375
 20
-568.8583984375
 30
0.0
 10
808.666015625
 20
-587.033203125
 30
0.0
 10
796.70703125
 20
-604.607421875
 30
0.0
 10
791.076171875
 20
-612.884765625
 30
0.0
 10
785.2578125
 20
-621.4404296875
 30
0.0
 10
779.0341796875
 20
-629.3583984375
 30
0.0
 10
758.5654296875
 20
-655.419921875
 30
0.0
 10
732.09765625
 20
-669.25390625
 30
0.0
 10
702.15234375
 20
-669.3515625
 30
0.0
 10
676.1875
 20
-669.3515625
 30
0.0
 10
651.796875
 20
-659.09765625
 30
0.0
 10
632.474609375
 20
-640.3046875
 30
0.0
 10
632.474609375
 20
-640.3046875
 30
0.0
 10
661.423828125
 20
-571.490234375
 30
0.0
 10
661.423828125
 20
-571.490234375
 30
0.0
 10
678.1962890625
 20
-565.052734375
 30
0.0
 10
695.25390625
 20
-560.3330078125
 30
0.0
 10
711.62109375
 20
-560.3330078125
 30
0.0
 10
723.0556640625
 20
-560.3330078125
 30
0.0
 10
733.2451171875
 20
-562.7548828125
 30
0.0
 10
741.8974609375
 20
-567.5458984375
 30
0.0
 10
757.2607421875
 20
-576.033203125
 30
0.0
 10
763.73828125
 20
-593.66796875
 30
0.0
 10
757.658203125
 20
-610.41796875
 30
0.0
 10
754.388671875
 20
-619.416015625
 30
0.0
 10
748.1884765625
 20
-625.984375
 30
0.0
 10
740.1875
 20
-628.900390625
 30
0.0
 10
734.279296875
 20
-631.0595703125
 30
0.0
 10
729.9013671875
 20
-631.322265625
 30
0.0
 10
726.5947265625
 20
-629.7099609375
 30
0.0
 10
724.1650390625
 20
-628.533203125
 30
0.0
 10
721.2333984375
 20
-625.4443359375
 30
0.0
 10
720.7236328125
 20
-622.4970703125
 30
0.0
 10
720.46875
 20
-621.03515625
 30
0.0
 10
720.8740234375
 20
-619.8203125
 30
0.0
 10
721.9833984375
 20
-618.6884765625
 30
0.0
 10
726.34765625
 20
-614.2275390625
 30
0.0
 10
727.5693359375
 20
-608.6337890625
 30
0.0
 10
725.3427734375
 20
-603.3408203125
 30
0.0
 10
723.0107421875
 20
-597.78515625
 30
0.0
 10
717.3349609375
 20
-593.916015625
 30
0.0
 10
711.5390625
 20
-593.916015625
 30
0.0
 10
707.009765625
 20
-593.916015625
 30
0.0
 10
703.0888671875
 20
-596.2255859375
 30
0.0
 10
700.501953125
 20
-600.416015625
 30
0.0
 10
694.173828125
 20
-610.673828125
 30
0.0
 10
693.21484375
 20
-623.314453125
 30
0.0
 10
697.9228515625
 20
-634.24609375
 30
0.0
 10
702.6015625
 20
-645.1181640625
 30
0.0
 10
712.0185546875
 20
-652.7431640625
 30
0.0
 10
723.7451171875
 20
-655.1728515625
 30
0.0
 10
726.6318359375
 20
-655.7724609375
 30
0.0
 10
729.5859375
 20
-656.080078125
 30
0.0
 10
732.517578125
 20
-656.080078125
 30
0.0
 10
753.21875
 20
-656.080078125
 30
0.0
 10
773.7783203125
 20
-640.3720703125
 30
0.0
 10
781.396484375
 20
-618.7333984375
 30
0.0
 10
789.62109375
 20
-595.3779296875
 30
0.0
 10
783.052734375
 20
-569.390625
 30
0.0
 10
765.04296875
 20
-554.0654296875
 30
0.0
 10
764.1435546875
 20
-553.30078125
 30
0.0
 10
763.2138671875
 20
-552.55078125
 30
0.0
 10
762.25390625
 20
-551.8310546875
 30
0.0
 10
762.25390625
 20
-551.8310546875
 30
0.0
 10
842.75
 20
-551.8310546875
 30
0.0
 10
842.75
 20
-551.8310546875
 30
0.0
 10
841.2060546875
 20
-552.92578125
 30
0.0
 10
839.69140625
 20
-554.0654296875
 30
0.0
 10
838.19921875
 20
-555.2421875
 30
0.0
  0
HATCH
  5
5C
330
3C
100
AcDbEntity
  8
Layer 1
 62
     7
100
AcDbHatch
 10
0.0
 20
0.0
 30
0.0
210
0.0
220
0.0
230
1.0
  2
SOLID
 70
     1
 71
     0
 91
       11
 92
        1
 93
        1
 72
     4
 94
        3
 73
     0
 74
     1
 95
      371
 96
      367
 40
0.0
 40
0.0
 40
0.0
 40
0.0
 40
1.0
 40
1.0
 40
1.0
 40
2.0
 40
2.0
 40
2.0
 40
3.0
 40
3.0
 40
3.0
 40
4.0
 40
4.0
 40
4.0
 40
5.0
 40
5.0
 40
5.0
 40
6.0
 40
6.0
 40
6.0
 40
7.0
 40
7.0
 40
7.0
 40
8.0
 40
8.0
 40
8.0
 40
9.0
 40
9.0
 40
9.0
 40
10.0
 40
10.0
 40
10.0
 40
11.0
 40
11.0
 40
11.0
 40
12.0
 40
12.0
 40
12.0
 40
13.0
 40
13.0
 40
13.0
 40
14.0
 40
14.0
 40
14.0
 40
15.0
 40
15.0
 40
15.0
 40
16.0
 40
16.0
 40
16.0
 40
17.0
 40
17.0
 40
17.0
 40
18.0
 40
18.0
 40
18.0
 40
19.0
 40
19.0
 40
19.0
 40
20.0
 40
20.0
 40
20.0
 40
21.0
 40
21.0
 40
21.0
 40
22.0
 40
22.0
 40
22.0
 40
23.0
 40
23.0
 40
23.0
 40
24.0
 40
24.0
 40
24.0
 40
25.0
 40
25.0
 40
25.0
 40
26.0
 40
26.0
 40
26.0
 40
27.0
 40
27.0
 40
27.0
 40
28.0
 40
28.0
 40
28.0
 40
29.0
 40
29.0
 40
29.0
 40
30.0
 40
30.0
 40
30.0
 40
31.0
 40
31.0
 40
31.0
 40
32.0
 40
32.0
 40
32.0
 40
33.0
 40
33.0
 40
33.0
 40
34.0
 40
34.0
 40
34.0
 40
35.0
 40
35.0
 40
35.0
 40
36.0
 40
36.0
 40
36.0
 40
37.0
 40
37.0
 40
37.0
 40
38.0
 40
38.0
 40
38.0
 40
39.0
 40
39.0
 40
39.0
 40
40.0
 40
40.0
 40
40.0
 40
41.0
 40
41.0
 40
41.0
 40
42.0
 40
42.0
 40
42.0
 40
43.0
 40
43.0
 40
43.0
 40
44.0
 40
44.0
 40
44.0
 40
45.0
 40
45.0
 40
45.0
 40
46.0
 40
46.0
 40
46.0
 40
47.0
 40
47.0
 40
47.0
 40
48.0
 40
48.0
 40
48.0
 40
49.0
 40
49.0
 40
49.0
 40
50.0
 40
50.0
 40
50.0
 40
51.0
 40
51.0
 40
51.0
 40
52.0
 40
52.0
 40
52.0
 40
53.0
 40
53.0
 40
53.0
 40
54.0
 40
54.0
 40
54.0
 40
55.0
 40
55.0
 40
55.0
 40
56.0
 40
56.0
 40
56.0
 40
57.0
 40
57.0
 40
57.0
 40
58.0
 40
58.0
 40
58.0
 40
59.0
 40
59.0
 40
59.0
 40
60.0
 40
60.0
 40
60.0
 40
61.0
 40
61.0
 40
61.0
 40
62.0
 40
62.0
 40
62.0
 40
63.0
 40
63.0
 40
63.0
 40
64.0
 40
64.0
 40
64.0
 40
65.0
 40
65.0
 40
65.0
 40
66.0
 40
66.0
 40
66.0
 40
67.0
 40
67.0
 40
67.0
 40
68.0
 40
68.0
 40
68.0
 40
69.0
 40
69.0
 40
69.0
 40
70.0
 40
70.0
 40
70.0
 40
71.0
 40
71.0
 40
71.0
 40
72.0
 40
72.0
 40
72.0
 40
73.0
 40
73.0
 40
73.0
 40
74.0
 40
74.0
 40
74.0
 40
75.0
 40
75.0
 40
75.0
 40
76.0
 40
76.0
 40
76.0
 40
77.0
 40
77.0
 40
77.0
 40
78.0
 40
78.0
 40
78.0
 40
79.0
 40
79.0
 40
79.0
 40
80.0
 40
80.0
 40
80.0
 40
81.0
 40
81.0
 40
81.0
 40
82.0
 40
82.0
 40
82.0
 40
83.0
 40
83.0
 40
83.0
 40
84.0
 40
84.0
 40
84.0
 40
85.0
 40
85.0
 40
85.0
 40
86.0
 40
86.0
 40
86.0
 40
87.0
 40
87.0
 40
87.0
 40
88.0
 40
88.0
 40
88.0
 40
89.0
 40
89.0
 40
89.0
 40
90.0
 40
90.0
 40
90.0
 40
91.0
 40
91.0
 40
91.0
 40
92.0
 40
92.0
 40
92.0
 40
93.0
 40
93.0
 40
93.0
 40
94.0
 40
94.0
 40
94.0
 40
95.0
 40
95.0
 40
95.0
 40
96.0
 40
96.0
 40
96.0
 40
97.0
 40
97.0
 40
97.0
 40
98.0
 40
98.0
 40
98.0
 40
99.0
 40
99.0
 40
99.0
 40
100.0
 40
100.0
 40
100.0
 40
101.0
 40
101.0
 40
101.0
 40
102.0
 40
102.0
 40
102.0
 40
103.0
 40
103.0
 40
103.0
 40
104.0
 40
104.0
 40
104.0
 40
105.0
 40
105.0
 40
105.0
 40
106.0
 40
106.0
 40
106.0
 40
107.0
 40
107.0
 40
107.0
 40
108.0
 40
108.0
 40
108.0
 40
109.0
 40
109.0
 40
109.0
 40
110.0
 40
110.0
 40
110.0
 40
111.0
 40
111.0
 40
111.0
 40
112.0
 40
112.0
 40
112.0
 40
113.0
 40
113.0
 40
113.0
 40
114.0
 40
114.0
 40
114.0
 40
115.0
 40
115.0
 40
115.0
 40
116.0
 40
116.0
 40
116.0
 40
117.0
 40
117.0
 40
117.0
 40
118.0
 40
118.0
 40
118.0
 40
119.0
 40
119.0
 40
119.0
 40
120.0
 40
120.0
 40
120.0
 40
121.0
 40
121.0
 40
121.0
 40
122.0
 40
122.0
 40
122.0
 40
122.0
 10
913.9794921875
 20
-538.8974609375
 10
910.005859375
 20
-537.3896484375
 10
905.8515625
 20
-536.294921875
 10
901.5859375
 20
-535.6357421875
 10
901.5859375
 20
-535.6357421875
 10
901.5859375
 20
-534.67578125
 10
901.5859375
 20
-534.67578125
 10
901.5859375
 20
-534.67578125
 10
97.5205078125
 20
-534.67578125
 10
97.5205078125
 20
-534.67578125
 10
97.5205078125
 20
-534.67578125
 10
97.5205078125
 20
-551.8310546875
 10
97.5205078125
 20
-551.8310546875
 10
97.5205078125
 20
-551.8310546875
 10
240.173828125
 20
-551.8310546875
 10
240.173828125
 20
-551.8310546875
 10
230.1337890625
 20
-556.8017578125
 10
220.54443359375
 20
-562.77734375
 10
211.51708984375
 20
-569.6904296875
 10
202.9248046875
 20
-573.671875
 10
195.689453125
 20
-576.693359375
 10
187.9365234375
 20
-576.693359375
 10
184.24755859375
 20
-576.693359375
 10
180.66357421875
 20
-576.0107421875
 10
176.974609375
 20
-574.59375
 10
172.5283203125
 20
-572.8994140625
 10
166.74755859375
 20
-570.552734375
 10
161.529296875
 20
-567.470703125
 10
161.529296875
 20
-567.470703125
 10
159.6025390625
 20
-566.30859375
 10
159.6025390625
 20
-566.30859375
 10
155.7783203125
 20
-563.9775390625
 10
152.16455078125
 20
-561.7724609375
 10
146.1513671875
 20
-561.607421875
 10
143.34716796875
 20
-561.607421875
 10
140.71533203125
 20
-562.8974609375
 10
138.9306640625
 20
-565.154296875
 10
137.048828125
 20
-567.53125
 10
136.3369140625
 20
-570.6875
 10
137.0341796875
 20
-573.611328125
 10
141.43505859375
 20
-592.0341796875
 10
166.35791015625
 20
-593.4658203125
 10
173.89306640625
 20
-593.4658203125
 10
176.375
 20
-593.4658203125
 10
178.78173828125
 20
-593.3388671875
 10
181.0537109375
 20
-593.0908203125
 10
182.9052734375
 20
-592.888671875
 10
185.1396484375
 20
-592.57421875
 10
187.62158203125
 20
-592.0859375
 10
186.564453125
 20
-593.31640625
 10
185.52978515625
 20
-594.568359375
 10
184.517578125
 20
-595.8349609375
 10
183.69287109375
 20
-596.134765625
 10
182.97265625
 20
-596.66796875
 10
182.43310546875
 20
-597.3876953125
 10
179.64404296875
 20
-601.083984375
 10
176.77978515625
 20
-605.080078125
 10
173.810546875
 20
-609.2265625
 10
155.23876953125
 20
-635.1533203125
 10
134.1845703125
 20
-664.7021484375
 10
102.38671875
 20
-662.326171875
 10
95.36865234375
 20
-661.7783203125
 10
90.3525390625
 20
-666.4794921875
 10
90.0380859375
 20
-673.33984375
 10
89.7529296875
 20
-679.525390625
 10
93.7939453125
 20
-686.505859375
 10
101.8466796875
 20
-687.248046875
 10
122.67578125
 20
-689.1826171875
 10
137.3037109375
 20
-676.13671875
 10
148.6552734375
 20
-663.4130859375
 10
151.21240234375
 20
-660.548828125
 10
153.8291015625
 20
-657.6025390625
 10
156.4609375
 20
-654.580078125
 10
151.36962890625
 20
-679.802734375
 10
154.8564453125
 20
-704.3662109375
 10
166.732421875
 20
-725.1796875
 10
169.8818359375
 20
-730.7060546875
 10
173.712890625
 20
-735.9619140625
 10
178.14453125
 20
-740.8203125
 10
178.279296875
 20
-743.466796875
 10
178.609375
 20
-746.068359375
 10
178.923828125
 20
-748.6025390625
 10
179.3212890625
 20
-751.7373046875
 10
179.6962890625
 20
-754.69140625
 10
179.7041015625
 20
-757.623046875
 10
179.73388671875
 20
-766.7998046875
 10
177.58203125
 20
-774.7626953125
 10
172.7236328125
 20
-783.4453125
 10
172.43115234375
 20
-783.9775390625
 10
171.99609375
 20
-784.689453125
 10
171.47900390625
 20
-785.5517578125
 10
165.765625
 20
-795.029296875
 10
159.9921875
 20
-805.7138671875
 10
163.81591796875
 20
-812.4765625
 10
165.03076171875
 20
-814.6279296875
 10
167.7001953125
 20
-817.185546875
 10
173.541015625
 20
-817.185546875
 10
173.900390625
 20
-817.185546875
 10
174.26806640625
 20
-817.177734375
 10
174.64306640625
 20
-817.1552734375
 10
192.6376953125
 20
-816.2705078125
 10
195.44921875
 20
-786.826171875
 10
196.513671875
 20
-775.7451171875
 10
197.00146484375
 20
-770.69140625
 10
197.66845703125
 20
-763.7861328125
 10
197.40625
 20
-756.7451171875
 10
210.947265625
 20
-765.0458984375
 10
226.4150390625
 20
-769.5517578125
 10
241.7255859375
 20
-769.5517578125
 10
254.97412109375
 20
-769.5517578125
 10
267.908203125
 20
-766.125
 10
279.1845703125
 20
-759.6318359375
 10
284.80029296875
 20
-759.2421875
 10
290.17626953125
 20
-759.71484375
 10
295.03515625
 20
-761.1318359375
 10
298.13916015625
 20
-762.03125
 10
301.2353515625
 20
-764.490234375
 10
304.51220703125
 20
-767.099609375
 10
309.39306640625
 20
-770.9833984375
 10
314.44677734375
 20
-774.9951171875
 10
320.9169921875
 20
-774.9951171875
 10
322.2744140625
 20
-774.9951171875
 10
323.63916015625
 20
-774.8076171875
 10
324.98095703125
 20
-774.4404296875
 10
329.12744140625
 20
-773.30078125
 10
331.99169921875
 20
-769.58203125
 10
332.10400390625
 20
-765.1875
 10
332.56884765625
 20
-747.7783203125
 10
309.07080078125
 20
-746.248046875
 10
297.78662109375
 20
-745.513671875
 10
297.78662109375
 20
-745.513671875
 10
296.9765625
 20
-745.4541015625
 10
296.9765625
 20
-745.4541015625
 10
310.84765625
 20
-730.4208984375
 10
320.69970703125
 20
-707.5302734375
 10
314.25927734375
 20
-685.2314453125
 10
309.4755859375
 20
-668.69921875
 10
293.5205078125
 20
-656.2373046875
 10
277.1376953125
 20
-656.2373046875
 10
270.26220703125
 20
-656.2373046875
 10
263.671875
 20
-658.46484375
 10
258.0634765625
 20
-662.677734375
 10
252.59765625
 20
-666.7939453125
 10
250.4453125
 20
-673.0849609375
 10
252.455078125
 20
-679.0908203125
 10
254.3671875
 20
-684.796875
 10
259.66015625
 20
-688.6279296875
 10
265.6435546875
 20
-688.6279296875
 10
267.8251953125
 20
-688.6279296875
 10
270.037109375
 20
-688.140625
 10
272.21923828125
 20
-687.1884765625
 10
277.0625
 20
-685.07421875
 10
280.744140625
 20
-685.5537109375
 10
283.59326171875
 20
-688.8603515625
 10
287.76953125
 20
-693.6962890625
 10
289.0439453125
 20
-702.9189453125
 10
288.12939453125
 20
-709.1416015625
 10
286.5322265625
 20
-719.9541015625
 10
279.806640625
 20
-728.396484375
 10
274.44580078125
 20
-733.5693359375
 10
264.5791015625
 20
-743.083984375
 10
250.79052734375
 20
-748.54296875
 10
236.6123046875
 20
-748.54296875
 10
231.8662109375
 20
-748.54296875
 10
227.1875
 20
-747.927734375
 10
222.70361328125
 20
-746.720703125
 10
214.90625
 20
-744.62890625
 10
207.74560546875
 20
-741.2626953125
 10
201.3125
 20
-736.673828125
 10
217.41796875
 20
-737.2138671875
 10
231.10107421875
 20
-729.970703125
 10
237.20458984375
 20
-717.63671875
 10
239.0712890625
 20
-713.865234375
 10
238.83154296875
 20
-709.583984375
 10
236.537109375
 20
-705.8955078125
 10
234.2353515625
 20
-702.1767578125
 10
230.31396484375
 20
-699.875
 10
226.31005859375
 20
-699.875
 10
223.2138671875
 20
-699.875
 10
220.296875
 20
-701.2763671875
 10
218.10009765625
 20
-703.826171875
 10
211.5693359375
 20
-711.40625
 10
205.48876953125
 20
-717.81640625
 10
197.21875
 20
-719.5263671875
 10
191.865234375
 20
-720.62890625
 10
186.69921875
 20
-718.9560546875
 10
181.08349609375
 20
-714.28515625
 10
171.306640625
 20
-697.53515625
 10
167.490234375
 20
-676.59375
 10
170.609375
 20
-656.7177734375
 10
175.52734375
 20
-625.3837890625
 10
193.95703125
 20
-597.76953125
 10
222.43359375
 20
-577.9755859375
 10
222.26123046875
 20
-578.23828125
 10
222.08154296875
 20
-578.5
 10
221.9013671875
 20
-578.755859375
 10
210.017578125
 20
-596.3603515625
 10
206.61328125
 20
-622.8271484375
 10
223.73828125
 20
-637.2080078125
 10
225.9130859375
 20
-639.0302734375
 10
228.73193359375
 20
-640.0419921875
 10
231.6787109375
 20
-640.0419921875
 10
235.7197265625
 20
-640.0419921875
 10
239.46142578125
 20
-638.2275390625
 10
241.6728515625
 20
-635.1982421875
 10
243.705078125
 20
-632.4169921875
 10
244.20751953125
 20
-628.9453125
 10
243.0751953125
 20
-625.4140625
 10
236.9873046875
 20
-606.3173828125
 10
232.5859375
 20
-592.521484375
 10
246.34423828125
 20
-576.0712890625
 10
249.0361328125
 20
-572.8544921875
 10
252.2451171875
 20
-569.8251953125
 10
256.076171875
 20
-566.8935546875
 10
259.802734375
 20
-581.5595703125
 10
270.734375
 20
-594.5830078125
 10
280.5869140625
 20
-602.42578125
 10
291.1435546875
 20
-610.8310546875
 10
303.7548828125
 20
-616.57421875
 10
320.18994140625
 20
-620.4501953125
 10
334.9609375
 20
-637.4814453125
 10
353.51025390625
 20
-650.08203125
 10
373.900390625
 20
-657.43359375
 10
373.900390625
 20
-657.43359375
 10
483.0458984375
 20
-908.837890625
 10
483.0458984375
 20
-908.837890625
 10
483.0458984375
 20
-908.837890625
 10
519.513671875
 20
-908.837890625
 10
519.513671875
 20
-908.837890625
 10
519.513671875
 20
-908.837890625
 10
625.45703125
 20
-656.9794921875
 10
625.45703125
 20
-656.9794921875
 10
628.1787109375
 20
-659.4990234375
 10
630.900390625
 20
-661.890625
 10
633.63671875
 20
-663.982421875
 10
653.0634765625
 20
-678.880859375
 10
677.349609375
 20
-687.0830078125
 10
702.0166015625
 20
-687.0830078125
 10
718.89453125
 20
-687.0830078125
 10
735.7197265625
 20
-683.1767578125
 10
750.685546875
 20
-675.7763671875
 10
758.17578125
 20
-672.0732421875
 10
765.3056640625
 20
-667.251953125
 10
772.271484375
 20
-661.1630859375
 10
770.8984375
 20
-671.3759765625
 10
770.486328125
 20
-683.447265625
 10
775.419921875
 20
-693.5390625
 10
777.2421875
 20
-697.2431640625
 10
780.6611328125
 20
-699.365234375
 10
784.814453125
 20
-699.365234375
 10
788.3916015625
 20
-699.365234375
 10
791.990234375
 20
-697.7529296875
 10
794.44921875
 20
-695.0537109375
 10
796.630859375
 20
-692.662109375
 10
797.673828125
 20
-689.6552734375
 10
797.380859375
 20
-686.595703125
 10
796.923828125
 20
-681.71484375
 10
795.6865234375
 20
-677.111328125
 10
794.4873046875
 20
-672.650390625
 10
793.16796875
 20
-667.7392578125
 10
791.9228515625
 20
-663.09765625
 10
791.67578125
 20
-658.208984375
 10
791.48046875
 20
-654.2802734375
 10
792.2001953125
 20
-650.2841796875
 10
792.96484375
 20
-646.0478515625
 10
793.482421875
 20
-643.2060546875
 10
794.0146484375
 20
-640.2822265625
 10
794.26171875
 20
-637.3056640625
 10
798.4833984375
 20
-631.892578125
 10
802.5849609375
 20
-626.25390625
 10
806.5732421875
 20
-620.712890625
 10
806.6259765625
 20
-628.03125
 10
807.67578125
 20
-634.478515625
 10
808.3203125
 20
-637.79296875
 10
809.220703125
 20
-642.3740234375
 10
812.9013671875
 20
-645.328125
 10
817.7001953125
 20
-645.328125
 10
821.5087890625
 20
-645.328125
 10
825.2880859375
 20
-643.416015625
 10
827.3125
 20
-640.4619140625
 10
829.126953125
 20
-637.8232421875
 10
829.45703125
 20
-634.6435546875
 10
828.2421875
 20
-631.509765625
 10
825.970703125
 20
-625.6318359375
 10
824.0732421875
 20
-620.2705078125
 10
823.818359375
 20
-614.234375
 10
823.720703125
 20
-611.970703125
 10
823.826171875
 20
-609.6611328125
 10
823.9384765625
 20
-607.216796875
 10
824.0810546875
 20
-603.9853515625
 10
824.23046875
 20
-600.65625
 10
823.900390625
 20
-597.3046875
 10
827.109375
 20
-593.263671875
 10
830.154296875
 20
-589.6796875
 10
833.1455078125
 20
-586.42578125
 10
833.0859375
 20
-594.365234375
 10
835.2001953125
 20
-602.185546875
 10
839.234375
 20
-607.9140625
 10
841.2578125
 20
-610.80859375
 10
845.26171875
 20
-612.1201171875
 10
848.34375
 20
-610.861328125
 10
849.6630859375
 20
-610.3359375
 10
850.5107421875
 20
-609.6533203125
 10
851.2451171875
 20
-608.986328125
 10
853.3447265625
 20
-607.0517578125
 10
854.0869140625
 20
-603.5576171875
 10
852.9775390625
 20
-600.8515625
 10
852.9775390625
 20
-600.8515625
 10
852.7822265625
 20
-600.37109375
 10
852.7822265625
 20
-600.37109375
 10
850.6083984375
 20
-595.0703125
 10
848.7265625
 20
-590.4892578125
 10
848.80078125
 20
-585.0458984375
 10
848.8759765625
 20
-579.33984375
 10
851.02734375
 20
-573.9716796875
 10
853.1572265625
 20
-568.7685546875
 10
854.5146484375
 20
-567.8388671875
 10
855.88671875
 20
-566.9384765625
 10
857.3037109375
 20
-566.083984375
 10
867.23046875
 20
-560.1005859375
 10
879.3095703125
 20
-556.673828125
 10
890.4365234375
 20
-556.673828125
 10
901.5859375
 20
-556.673828125
 10
921.3349609375
 20
-560.1005859375
 10
928.29296875
 20
-583.05859375
 10
932.4541015625
 20
-596.794921875
 10
927.453125
 20
-612.1728515625
 10
916.408203125
 20
-619.6181640625
 10
909.6455078125
 20
-624.169921875
 10
902.1181640625
 20
-624.5966796875
 10
896.0224609375
 20
-620.7431640625
 10
892.828125
 20
-618.6806640625
 10
890.3916015625
 20
-615.958984375
 10
888.5166015625
 20
-612.3232421875
 10
888.3291015625
 20
-611.9853515625
 10
888.1572265625
 20
-611.6484375
 10
888.0068359375
 20
-611.310546875
 10
888.037109375
 20
-611.310546875
 10
888.07421875
 20
-611.310546875
 10
888.1123046875
 20
-611.310546875
 10
893.65234375
 20
-611.310546875
 10
898.88671875
 20
-608.798828125
 10
902.1025390625
 20
-604.5849609375
 10
905.38671875
 20
-600.2890625
 10
906.271484375
 20
-594.568359375
 10
904.615234375
 20
-588.46484375
 10
902.5302734375
 20
-580.8095703125
 10
896.07421875
 20
-575.861328125
 10
888.1640625
 20
-575.861328125
 10
885.3525390625
 20
-575.861328125
 10
882.4736328125
 20
-576.505859375
 10
879.8271484375
 20
-577.728515625
 10
867.943359375
 20
-583.208984375
 10
864.5234375
 20
-597.3349609375
 10
865.2060546875
 20
-607.7646484375
 10
866.5703125
 20
-628.7509765625
 10
884.205078125
 20
-645.8310546875
 10
904.5244140625
 20
-645.8310546875
 10
906.8564453125
 20
-645.8310546875
 10
909.203125
 20
-645.5986328125
 10
911.490234375
 20
-645.140625
 10
932.9638671875
 20
-640.8515625
 10
950.23828125
 20
-618.5390625
 10
950.81640625
 20
-594.34375
 10
951.400390625
 20
-570.1552734375
 10
936.255859375
 20
-547.3623046875
 10
913.9794921875
 20
-538.8974609375
 97
        0
 92
        1
 93
        1
 72
     4
 94
        3
 73
     0
 74
     1
 95
       17
 96
       13
 40
0.0
 40
0.0
 40
0.0
 40
0.0
 40
1.0
 40
1.0
 40
1.0
 40
2.0
 40
2.0
 40
2.0
 40
3.0
 40
3.0
 40
3.0
 40
4.0
 40
4.0
 40
4.0
 40
4.0
 10
612.830078125
 20
-614.1708984375
 10
610.1318359375
 20
-609.169921875
 10
607.5595703125
 20
-603.7041015625
 10
605.115234375
 20
-597.6796875
 10
607.5595703125
 20
-596.4423828125
 10
609.9814453125
 20
-595.220703125
 10
612.373046875
 20
-594.013671875
 10
616.2275390625
 20
-592.060546875
 10
619.9609375
 20
-590.1748046875
 10
623.626953125
 20
-588.3447265625
 10
623.626953125
 20
-588.3447265625
 10
612.830078125
 20
-614.1708984375
 10
612.830078125
 20
-614.1708984375
 97
        0
 92
        1
 93
        1
 72
     4
 94
        3
 73
     0
 74
     1
 95
       23
 96
       19
 40
0.0
 40
0.0
 40
0.0
 40
0.0
 40
1.0
 40
1.0
 40
1.0
 40
2.0
 40
2.0
 40
2.0
 40
3.0
 40
3.0
 40
3.0
 40
4.0
 40
4.0
 40
4.0
 40
5.0
 40
5.0
 40
5.0
 40
6.0
 40
6.0
 40
6.0
 40
6.0
 10
638.8857421875
 20
-551.8310546875
 10
638.8857421875
 20
-551.8310546875
 10
635.2265625
 20
-560.5810546875
 10
635.2265625
 20
-560.5810546875
 10
625.681640625
 20
-565.255859375
 10
616.294921875
 20
-570.21875
 10
607.064453125
 20
-575.15625
 10
604.24609375
 20
-576.6630859375
 10
601.4189453125
 20
-578.177734375
 10
598.591796875
 20
-579.677734375
 10
595.7509765625
 20
-570.927734375
 10
593.208984375
 20
-562.03515625
 10
590.7421875
 20
-553.3974609375
 10
590.7421875
 20
-553.3974609375
 10
590.2998046875
 20
-551.8310546875
 10
590.2998046875
 20
-551.8310546875
 10
590.2998046875
 20
-551.8310546875
 10
638.8857421875
 20
-551.8310546875
 10
638.8857421875
 20
-551.8310546875
 97
        0
 92
        1
 93
        1
 72
     4
 94
        3
 73
     0
 74
     1
 95
       20
 96
       16
 40
0.0
 40
0.0
 40
0.0
 40
0.0
 40
1.0
 40
1.0
 40
1.0
 40
2.0
 40
2.0
 40
2.0
 40
3.0
 40
3.0
 40
3.0
 40
4.0
 40
4.0
 40
4.0
 40
5.0
 40
5.0
 40
5.0
 40
5.0
 10
571.1650390625
 20
-551.8310546875
 10
572.0205078125
 20
-563.5048828125
 10
575.0341796875
 20
-576.033203125
 10
580.1552734375
 20
-589.169921875
 10
562.505859375
 20
-597.875
 10
541.8037109375
 20
-606.7216796875
 10
518.8154296875
 20
-610.1640625
 10
519.9482421875
 20
-607.419921875
 10
520.892578125
 20
-604.607421875
 10
521.6279296875
 20
-601.7587890625
 10
526.2158203125
 20
-583.90625
 10
522.2197265625
 20
-564.958984375
 10
511.6630859375
 20
-551.8310546875
 10
511.6630859375
 20
-551.8310546875
 10
571.1650390625
 20
-551.8310546875
 10
571.1650390625
 20
-551.8310546875
 97
        0
 92
        1
 93
        1
 72
     4
 94
        3
 73
     0
 74
     1
 95
       62
 96
       58
 40
0.0
 40
0.0
 40
0.0
 40
0.0
 40
1.0
 40
1.0
 40
1.0
 40
2.0
 40
2.0
 40
2.0
 40
3.0
 40
3.0
 40
3.0
 40
4.0
 40
4.0
 40
4.0
 40
5.0
 40
5.0
 40
5.0
 40
6.0
 40
6.0
 40
6.0
 40
7.0
 40
7.0
 40
7.0
 40
8.0
 40
8.0
 40
8.0
 40
9.0
 40
9.0
 40
9.0
 40
10.0
 40
10.0
 40
10.0
 40
11.0
 40
11.0
 40
11.0
 40
12.0
 40
12.0
 40
12.0
 40
13.0
 40
13.0
 40
13.0
 40
14.0
 40
14.0
 40
14.0
 40
15.0
 40
15.0
 40
15.0
 40
16.0
 40
16.0
 40
16.0
 40
17.0
 40
17.0
 40
17.0
 40
18.0
 40
18.0
 40
18.0
 40
19.0
 40
19.0
 40
19.0
 40
19.0
 10
587.84765625
 20
-606.1826171875
 10
592.7744140625
 20
-615.791015625
 10
598.5400390625
 20
-625.0087890625
 10
604.7626953125
 20
-633.4853515625
 10
604.7626953125
 20
-633.4853515625
 10
567.39453125
 20
-722.900390625
 10
567.39453125
 20
-722.900390625
 10
566.64453125
 20
-722.236328125
 10
565.8046875
 20
-721.6630859375
 10
564.859375
 20
-721.265625
 10
561.05078125
 20
-719.6767578125
 10
557.1669921875
 20
-718.76953125
 10
553.41015625
 20
-717.8994140625
 10
549.33984375
 20
-716.955078125
 10
545.4931640625
 20
-716.0546875
 10
541.88671875
 20
-714.3603515625
 10
538.9921875
 20
-712.99609375
 10
536.3759765625
 20
-710.9189453125
 10
533.6015625
 20
-708.7216796875
 10
532.39453125
 20
-707.76953125
 10
531.1875
 20
-706.8173828125
 10
529.95703125
 20
-705.91796875
 10
529.7177734375
 20
-703.8330078125
 10
529.373046875
 20
-701.779296875
 10
528.9375
 20
-699.7919921875
 10
528.4580078125
 20
-697.6328125
 10
527.880859375
 20
-695.49609375
 10
527.2060546875
 20
-693.388671875
 10
529.1181640625
 20
-694.138671875
 10
531.0595703125
 20
-694.8212890625
 10
532.986328125
 20
-695.4130859375
 10
538.498046875
 20
-697.1005859375
 10
543.798828125
 20
-692.89453125
 10
544.173828125
 20
-686.7763671875
 10
544.48828125
 20
-681.6845703125
 10
541.3095703125
 20
-677.7041015625
 10
536.451171875
 20
-677.103515625
 10
531.322265625
 20
-676.4814453125
 10
526.71875
 20
-675.7841796875
 10
522.287109375
 20
-673.6552734375
 10
520.615234375
 20
-672.8447265625
 10
518.9736328125
 20
-671.8701171875
 10
517.2333984375
 20
-670.8427734375
 10
516.0341796875
 20
-670.130859375
 10
514.833984375
 20
-669.42578125
 10
513.6201171875
 20
-668.7587890625
 10
507.853515625
 20
-661.755859375
 10
500.568359375
 20
-655.375
 10
492.00927734375
 20
-649.62109375
 10
492.00927734375
 20
-649.62109375
 10
489.4677734375
 20
-643.75390625
 10
489.4677734375
 20
-643.75390625
 10
495.66064453125
 20
-639.798828125
 10
501.0595703125
 20
-635.4384765625
 10
505.5
 20
-630.677734375
 10
533.4814453125
 20
-630.0849609375
 10
562.580078125
 20
-618.24609375
 10
587.84765625
 20
-606.1826171875
 97
        0
 92
        1
 93
        1
 72
     4
 94
        3
 73
     0
 74
     1
 95
       23
 96
       19
 40
0.0
 40
0.0
 40
0.0
 40
0.0
 40
1.0
 40
1.0
 40
1.0
 40
2.0
 40
2.0
 40
2.0
 40
3.0
 40
3.0
 40
3.0
 40
4.0
 40
4.0
 40
4.0
 40
5.0
 40
5.0
 40
5.0
 40
6.0
 40
6.0
 40
6.0
 40
6.0
 10
462.8203125
 20
-556.6064453125
 10
466.76416015625
 20
-554.2529296875
 10
470.9931640625
 20
-553.060546875
 10
475.37158203125
 20
-553.060546875
 10
488.61279296875
 20
-553.060546875
 10
501.3369140625
 20
-564.0673828125
 10
504.3447265625
 20
-578.1103515625
 10
507.314453125
 20
-591.9814453125
 10
502.5751953125
 20
-603.6484375
 10
497.57275390625
 20
-611.453125
 10
487.9306640625
 20
-611.037109375
 10
479.712890625
 20
-609.0947265625
 10
472.97265625
 20
-605.6953125
 10
472.97265625
 20
-605.6953125
 10
455.11279296875
 20
-564.4794921875
 10
455.11279296875
 20
-564.4794921875
 10
456.80712890625
 20
-561.30078125
 10
459.37158203125
 20
-558.6572265625
 10
462.8203125
 20
-556.6064453125
 97
        0
 92
        1
 93
        1
 72
     4
 94
        3
 73
     0
 74
     1
 95
       23
 96
       19
 40
0.0
 40
0.0
 40
0.0
 40
0.0
 40
1.0
 40
1.0
 40
1.0
 40
2.0
 40
2.0
 40
2.0
 40
3.0
 40
3.0
 40
3.0
 40
4.0
 40
4.0
 40
4.0
 40
5.0
 40
5.0
 40
5.0
 40
6.0
 40
6.0
 40
6.0
 40
6.0
 10
285.01025390625
 20
-588.28515625
 10
276.1552734375
 20
-580.3076171875
 10
270.86962890625
 20
-571.2275390625
 10
268.07275390625
 20
-559.1259765625
 10
272.4892578125
 20
-556.65234375
 10
276.96533203125
 20
-554.447265625
 10
280.89404296875
 20
-552.55859375
 10
282.00390625
 20
-552.302734375
 10
283.11328125
 20
-552.0634765625
 10
284.2158203125
 20
-551.8310546875
 10
284.2158203125
 20
-551.8310546875
 10
288.69921875
 20
-551.8310546875
 10
288.69921875
 20
-551.8310546875
 10
291.1884765625
 20
-569.30078125
 10
297.26171875
 20
-586.2529296875
 10
306.49169921875
 20
-601.5712890625
 10
298.1015625
 20
-598.099609375
 10
291.01611328125
 20
-593.7060546875
 10
285.01025390625
 20
-588.28515625
 97
        0
 92
        1
 93
        1
 72
     4
 94
        3
 73
     0
 74
     1
 95
       20
 96
       16
 40
0.0
 40
0.0
 40
0.0
 40
0.0
 40
1.0
 40
1.0
 40
1.0
 40
2.0
 40
2.0
 40
2.0
 40
3.0
 40
3.0
 40
3.0
 40
4.0
 40
4.0
 40
4.0
 40
5.0
 40
5.0
 40
5.0
 40
5.0
 10
331.59423828125
 20
-608.701171875
 10
314.56640625
 20
-589.109375
 10
305.26171875
 20
-568.6630859375
 10
305.6220703125
 20
-551.8310546875
 10
305.6220703125
 20
-551.8310546875
 10
328.05517578125
 20
-551.8310546875
 10
328.05517578125
 20
-551.8310546875
 10
328.05517578125
 20
-551.8310546875
 10
354.22998046875
 20
-612.1240234375
 10
354.22998046875
 20
-612.1240234375
 10
348.681640625
 20
-611.3671875
 10
343.103515625
 20
-610.580078125
 10
337.5400390625
 20
-609.7138671875
 10
335.552734375
 20
-609.3984375
 10
333.57373046875
 20
-609.0693359375
 10
331.59423828125
 20
-608.701171875
 97
        0
 92
        1
 93
        1
 72
     4
 94
        3
 73
     0
 74
     1
 95
       17
 96
       13
 40
0.0
 40
0.0
 40
0.0
 40
0.0
 40
1.0
 40
1.0
 40
1.0
 40
2.0
 40
2.0
 40
2.0
 40
3.0
 40
3.0
 40
3.0
 40
4.0
 40
4.0
 40
4.0
 40
4.0
 10
348.119140625
 20
-625.12890625
 10
350.74365234375
 20
-625.458984375
 10
353.3603515625
 20
-625.7666015625
 10
355.939453125
 20
-626.07421875
 10
357.48388671875
 20
-626.25390625
 10
358.99853515625
 20
-626.4521484375
 10
360.5283203125
 20
-626.63671875
 10
360.5283203125
 20
-626.63671875
 10
365.4091796875
 20
-637.8681640625
 10
365.4091796875
 20
-637.8681640625
 10
359.69580078125
 20
-634.3369140625
 10
353.84375
 20
-630.0556640625
 10
348.119140625
 20
-625.12890625
 97
        0
 92
        1
 93
        1
 72
     4
 94
        3
 73
     0
 74
     1
 95
       23
 96
       19
 40
0.0
 40
0.0
 40
0.0
 40
0.0
 40
1.0
 40
1.0
 40
1.0
 40
2.0
 40
2.0
 40
2.0
 40
3.0
 40
3.0
 40
3.0
 40
4.0
 40
4.0
 40
4.0
 40
5.0
 40
5.0
 40
5.0
 40
6.0
 40
6.0
 40
6.0
 40
6.0
 10
527.55078125
 20
-731.6318359375
 10
528.150390625
 20
-729.7158203125
 10
528.6904296875
 20
-727.7705078125
 10
529.1025390625
 20
-725.7724609375
 10
530.107421875
 20
-726.5517578125
 10
531.08984375
 20
-727.2939453125
 10
532.02734375
 20
-728.0068359375
 10
532.02734375
 20
-728.0068359375
 10
533.0244140625
 20
-728.763671875
 10
533.0244140625
 20
-728.763671875
 10
540.0419921875
 20
-734.1171875
 10
549.3095703125
 20
-740.205078125
 10
559.7763671875
 20
-741.138671875
 10
559.7763671875
 20
-741.138671875
 10
545.97265625
 20
-774.1552734375
 10
545.97265625
 20
-774.1552734375
 10
545.97265625
 20
-774.1552734375
 10
527.55078125
 20
-731.6318359375
 10
527.55078125
 20
-731.6318359375
 97
        0
 92
        1
 93
        1
 72
     4
 94
        3
 73
     0
 74
     1
 95
       74
 96
       70
 40
0.0
 40
0.0
 40
0.0
 40
0.0
 40
1.0
 40
1.0
 40
1.0
 40
2.0
 40
2.0
 40
2.0
 40
3.0
 40
3.0
 40
3.0
 40
4.0
 40
4.0
 40
4.0
 40
5.0
 40
5.0
 40
5.0
 40
6.0
 40
6.0
 40
6.0
 40
7.0
 40
7.0
 40
7.0
 40
8.0
 40
8.0
 40
8.0
 40
9.0
 40
9.0
 40
9.0
 40
10.0
 40
10.0
 40
10.0
 40
11.0
 40
11.0
 40
11.0
 40
12.0
 40
12.0
 40
12.0
 40
13.0
 40
13.0
 40
13.0
 40
14.0
 40
14.0
 40
14.0
 40
15.0
 40
15.0
 40
15.0
 40
16.0
 40
16.0
 40
16.0
 40
17.0
 40
17.0
 40
17.0
 40
18.0
 40
18.0
 40
18.0
 40
19.0
 40
19.0
 40
19.0
 40
20.0
 40
20.0
 40
20.0
 40
21.0
 40
21.0
 40
21.0
 40
22.0
 40
22.0
 40
22.0
 40
23.0
 40
23.0
 40
23.0
 40
23.0
 10
838.19921875
 20
-555.2421875
 10
821.037109375
 20
-568.8583984375
 10
808.666015625
 20
-587.033203125
 10
796.70703125
 20
-604.607421875
 10
791.076171875
 20
-612.884765625
 10
785.2578125
 20
-621.4404296875
 10
779.0341796875
 20
-629.3583984375
 10
758.5654296875
 20
-655.419921875
 10
732.09765625
 20
-669.25390625
 10
702.15234375
 20
-669.3515625
 10
676.1875
 20
-669.3515625
 10
651.796875
 20
-659.09765625
 10
632.474609375
 20
-640.3046875
 10
632.474609375
 20
-640.3046875
 10
661.423828125
 20
-571.490234375
 10
661.423828125
 20
-571.490234375
 10
678.1962890625
 20
-565.052734375
 10
695.25390625
 20
-560.3330078125
 10
711.62109375
 20
-560.3330078125
 10
723.0556640625
 20
-560.3330078125
 10
733.2451171875
 20
-562.7548828125
 10
741.8974609375
 20
-567.5458984375
 10
757.2607421875
 20
-576.033203125
 10
763.73828125
 20
-593.66796875
 10
757.658203125
 20
-610.41796875
 10
754.388671875
 20
-619.416015625
 10
748.1884765625
 20
-625.984375
 10
740.1875
 20
-628.900390625
 10
734.279296875
 20
-631.0595703125
 10
729.9013671875
 20
-631.322265625
 10
726.5947265625
 20
-629.7099609375
 10
724.1650390625
 20
-628.533203125
 10
721.2333984375
 20
-625.4443359375
 10
720.7236328125
 20
-622.4970703125
 10
720.46875
 20
-621.03515625
 10
720.8740234375
 20
-619.8203125
 10
721.9833984375
 20
-618.6884765625
 10
726.34765625
 20
-614.2275390625
 10
727.5693359375
 20
-608.6337890625
 10
725.3427734375
 20
-603.3408203125
 10
723.0107421875
 20
-597.78515625
 10
717.3349609375
 20
-593.916015625
 10
711.5390625
 20
-593.916015625
 10
707.009765625
 20
-593.916015625
 10
703.0888671875
 20
-596.2255859375
 10
700.501953125
 20
-600.416015625
 10
694.173828125
 20
-610.673828125
 10
693.21484375
 20
-623.314453125
 10
697.9228515625
 20
-634.24609375
 10
702.6015625
 20
-645.1181640625
 10
712.0185546875
 20
-652.7431640625
 10
723.7451171875
 20
-655.1728515625
 10
726.6318359375
 20
-655.7724609375
 10
729.5859375
 20
-656.080078125
 10
732.517578125
 20
-656.080078125
 10
753.21875
 20
-656.080078125
 10
773.7783203125
 20
-640.3720703125
 10
781.396484375
 20
-618.7333984375
 10
789.62109375
 20
-595.3779296875
 10
783.052734375
 20
-569.390625
 10
765.04296875
 20
-554.0654296875
 10
764.1435546875
 20
-553.30078125
 10
763.2138671875
 20
-552.55078125
 10
762.25390625
 20
-551.8310546875
 10
762.25390625
 20
-551.8310546875
 10
842.75
 20
-551.8310546875
 10
842.75
 20
-551.8310546875
 10
841.2060546875
 20
-552.92578125
 10
839.69140625
 20
-554.0654296875
 10
838.19921875
 20
-555.2421875
 97
        0
 75
     2
 76
     1
 98
        0
  0
SPLINE
  5
5D
330
3C
100
AcDbEntity
  8
Layer 1
370
     0
100
AcDbSpline
210
0.0
220
0.0
230
1.0
 70
    11
 71
     3
 72
   425
 73
   421
 74
     0
 42
0.0000000001
 43
0.0000000001
 40
0.0
 40
0.0
 40
0.0
 40
0.0
 40
1.0
 40
1.0
 40
1.0
 40
2.0
 40
2.0
 40
2.0
 40
3.0
 40
3.0
 40
3.0
 40
4.0
 40
4.0
 40
4.0
 40
5.0
 40
5.0
 40
5.0
 40
6.0
 40
6.0
 40
6.0
 40
7.0
 40
7.0
 40
7.0
 40
8.0
 40
8.0
 40
8.0
 40
9.0
 40
9.0
 40
9.0
 40
10.0
 40
10.0
 40
10.0
 40
11.0
 40
11.0
 40
11.0
 40
12.0
 40
12.0
 40
12.0
 40
13.0
 40
13.0
 40
13.0
 40
14.0
 40
14.0
 40
14.0
 40
15.0
 40
15.0
 40
15.0
 40
16.0
 40
16.0
 40
16.0
 40
17.0
 40
17.0
 40
17.0
 40
18.0
 40
18.0
 40
18.0
 40
19.0
 40
19.0
 40
19.0
 40
20.0
 40
20.0
 40
20.0
 40
21.0
 40
21.0
 40
21.0
 40
22.0
 40
22.0
 40
22.0
 40
23.0
 40
23.0
 40
23.0
 40
24.0
 40
24.0
 40
24.0
 40
25.0
 40
25.0
 40
25.0
 40
26.0
 40
26.0
 40
26.0
 40
27.0
 40
27.0
 40
27.0
 40
28.0
 40
28.0
 40
28.0
 40
29.0
 40
29.0
 40
29.0
 40
30.0
 40
30.0
 40
30.0
 40
31.0
 40
31.0
 40
31.0
 40
32.0
 40
32.0
 40
32.0
 40
33.0
 40
33.0
 40
33.0
 40
34.0
 40
34.0
 40
34.0
 40
35.0
 40
35.0
 40
35.0
 40
36.0
 40
36.0
 40
36.0
 40
37.0
 40
37.0
 40
37.0
 40
38.0
 40
38.0
 40
38.0
 40
39.0
 40
39.0
 40
39.0
 40
40.0
 40
40.0
 40
40.0
 40
41.0
 40
41.0
 40
41.0
 40
42.0
 40
42.0
 40
42.0
 40
43.0
 40
43.0
 40
43.0
 40
44.0
 40
44.0
 40
44.0
 40
45.0
 40
45.0
 40
45.0
 40
46.0
 40
46.0
 40
46.0
 40
47.0
 40
47.0
 40
47.0
 40
48.0
 40
48.0
 40
48.0
 40
49.0
 40
49.0
 40
49.0
 40
50.0
 40
50.0
 40
50.0
 40
51.0
 40
51.0
 40
51.0
 40
52.0
 40
52.0
 40
52.0
 40
53.0
 40
53.0
 40
53.0
 40
54.0
 40
54.0
 40
54.0
 40
55.0
 40
55.0
 40
55.0
 40
56.0
 40
56.0
 40
56.0
 40
57.0
 40
57.0
 40
57.0
 40
58.0
 40
58.0
 40
58.0
 40
59.0
 40
59.0
 40
59.0
 40
60.0
 40
60.0
 40
60.0
 40
61.0
 40
61.0
 40
61.0
 40
62.0
 40
62.0
 40
62.0
 40
63.0
 40
63.0
 40
63.0
 40
64.0
 40
64.0
 40
64.0
 40
65.0
 40
65.0
 40
65.0
 40
66.0
 40
66.0
 40
66.0
 40
67.0
 40
67.0
 40
67.0
 40
68.0
 40
68.0
 40
68.0
 40
69.0
 40
69.0
 40
69.0
 40
70.0
 40
70.0
 40
70.0
 40
71.0
 40
71.0
 40
71.0
 40
72.0
 40
72.0
 40
72.0
 40
73.0
 40
73.0
 40
73.0
 40
74.0
 40
74.0
 40
74.0
 40
75.0
 40
75.0
 40
75.0
 40
76.0
 40
76.0
 40
76.0
 40
77.0
 40
77.0
 40
77.0
 40
78.0
 40
78.0
 40
78.0
 40
79.0
 40
79.0
 40
79.0
 40
80.0
 40
80.0
 40
80.0
 40
81.0
 40
81.0
 40
81.0
 40
82.0
 40
82.0
 40
82.0
 40
83.0
 40
83.0
 40
83.0
 40
84.0
 40
84.0
 40
84.0
 40
85.0
 40
85.0
 40
85.0
 40
86.0
 40
86.0
 40
86.0
 40
87.0
 40
87.0
 40
87.0
 40
88.0
 40
88.0
 40
88.0
 40
89.0
 40
89.0
 40
89.0
 40
90.0
 40
90.0
 40
90.0
 40
91.0
 40
91.0
 40
91.0
 40
92.0
 40
92.0
 40
92.0
 40
93.0
 40
93.0
 40
93.0
 40
94.0
 40
94.0
 40
94.0
 40
95.0
 40
95.0
 40
95.0
 40
96.0
 40
96.0
 40
96.0
 40
97.0
 40
97.0
 40
97.0
 40
98.0
 40
98.0
 40
98.0
 40
99.0
 40
99.0
 40
99.0
 40
100.0
 40
100.0
 40
100.0
 40
101.0
 40
101.0
 40
101.0
 40
102.0
 40
102.0
 40
102.0
 40
103.0
 40
103.0
 40
103.0
 40
104.0
 40
104.0
 40
104.0
 40
105.0
 40
105.0
 40
105.0
 40
106.0
 40
106.0
 40
106.0
 40
107.0
 40
107.0
 40
107.0
 40
108.0
 40
108.0
 40
108.0
 40
109.0
 40
109.0
 40
109.0
 40
110.0
 40
110.0
 40
110.0
 40
111.0
 40
111.0
 40
111.0
 40
112.0
 40
112.0
 40
112.0
 40
113.0
 40
113.0
 40
113.0
 40
114.0
 40
114.0
 40
114.0
 40
115.0
 40
115.0
 40
115.0
 40
116.0
 40
116.0
 40
116.0
 40
117.0
 40
117.0
 40
117.0
 40
118.0
 40
118.0
 40
118.0
 40
119.0
 40
119.0
 40
119.0
 40
120.0
 40
120.0
 40
120.0
 40
121.0
 40
121.0
 40
121.0
 40
122.0
 40
122.0
 40
122.0
 40
123.0
 40
123.0
 40
123.0
 40
124.0
 40
124.0
 40
124.0
 40
125.0
 40
125.0
 40
125.0
 40
126.0
 40
126.0
 40
126.0
 40
127.0
 40
127.0
 40
127.0
 40
128.0
 40
128.0
 40
128.0
 40
129.0
 40
129.0
 40
129.0
 40
130.0
 40
130.0
 40
130.0
 40
131.0
 40
131.0
 40
131.0
 40
132.0
 40
132.0
 40
132.0
 40
133.0
 40
133.0
 40
133.0
 40
134.0
 40
134.0
 40
134.0
 40
135.0
 40
135.0
 40
135.0
 40
136.0
 40
136.0
 40
136.0
 40
137.0
 40
137.0
 40
137.0
 40
138.0
 40
138.0
 40
138.0
 40
139.0
 40
139.0
 40
139.0
 40
140.0
 40
140.0
 40
140.0
 40
140.0
 10
904.134765625
 20
-396.30419921875
 30
0.0
 10
904.134765625
 20
-396.30419921875
 30
0.0
 10
904.134765625
 20
-379.1494140625
 30
0.0
 10
904.134765625
 20
-379.1494140625
 30
0.0
 10
904.134765625
 20
-379.1494140625
 30
0.0
 10
761.482421875
 20
-379.1494140625
 30
0.0
 10
761.482421875
 20
-379.1494140625
 30
0.0
 10
771.521484375
 20
-374.17822265625
 30
0.0
 10
781.103515625
 20
-368.2099609375
 30
0.0
 10
790.130859375
 20
-361.296875
 30
0.0
 10
798.73828125
 20
-357.3154296875
 30
0.0
 10
805.9736328125
 20
-354.2939453125
 30
0.0
 10
813.71875
 20
-354.2939453125
 30
0.0
 10
817.408203125
 20
-354.2939453125
 30
0.0
 10
820.9921875
 20
-354.9765625
 30
0.0
 10
824.6884765625
 20
-356.3935546875
 30
0.0
 10
829.134765625
 20
-358.087890625
 30
0.0
 10
834.9150390625
 20
-360.4345703125
 30
0.0
 10
840.1259765625
 20
-363.51611328125
 30
0.0
 10
840.1259765625
 20
-363.51611328125
 30
0.0
 10
842.0458984375
 20
-364.6708984375
 30
0.0
 10
842.0458984375
 20
-364.6708984375
 30
0.0
 10
845.876953125
 20
-367.01025390625
 30
0.0
 10
849.4912109375
 20
-369.21484375
 30
0.0
 10
855.50390625
 20
-369.37939453125
 30
0.0
 10
858.3154296875
 20
-369.37939453125
 30
0.0
 10
860.947265625
 20
-368.08251953125
 30
0.0
 10
862.732421875
 20
-365.82568359375
 30
0.0
 10
864.6064453125
 20
-363.44873046875
 30
0.0
 10
865.318359375
 20
-360.2919921875
 30
0.0
 10
864.62109375
 20
-357.37548828125
 30
0.0
 10
860.220703125
 20
-338.9462890625
 30
0.0
 10
835.2900390625
 20
-337.513671875
 30
0.0
 10
827.7548828125
 20
-337.513671875
 30
0.0
 10
825.2802734375
 20
-337.513671875
 30
0.0
 10
822.8740234375
 20
-337.6416015625
 30
0.0
 10
820.6015625
 20
-337.896484375
 30
0.0
 10
818.75
 20
-338.0986328125
 30
0.0
 10
816.5234375
 20
-338.41357421875
 30
0.0
 10
814.0341796875
 20
-338.90087890625
 30
0.0
 10
815.0908203125
 20
-337.67138671875
 30
0.0
 10
816.1259765625
 20
-336.4189453125
 30
0.0
 10
817.1376953125
 20
-335.14453125
 30
0.0
 10
817.962890625
 20
-334.8447265625
 30
0.0
 10
818.6826171875
 20
-334.31982421875
 30
0.0
 10
819.22265625
 20
-333.60009765625
 30
0.0
 10
822.01171875
 20
-329.90380859375
 30
0.0
 10
824.8759765625
 20
-325.89990234375
 30
0.0
 10
827.8447265625
 20
-321.76123046875
 30
0.0
 10
846.4169921875
 20
-295.826171875
 30
0.0
 10
867.5458984375
 20
-266.330078125
 30
0.0
 10
899.2685546875
 20
-268.654296875
 30
0.0
 10
899.6357421875
 20
-268.68408203125
 30
0.0
 10
899.98828125
 20
-268.69921875
 30
0.0
 10
900.333984375
 20
-268.69921875
 30
0.0
 10
900.333984375
 20
-268.69921875
 30
0.0
 10
900.333984375
 20
-268.69921875
 30
0.0
 10
900.3408203125
 20
-268.69921875
 30
0.0
 10
906.6767578125
 20
-268.69921875
 30
0.0
 10
911.3173828125
 20
-264.1552734375
 30
0.0
 10
911.6171875
 20
-257.65478515625
 30
0.0
 10
911.91015625
 20
-251.4619140625
 30
0.0
 10
907.869140625
 20
-244.4814453125
 30
0.0
 10
899.80859375
 20
-243.7314453125
 30
0.0
 10
878.95703125
 20
-241.796875
 30
0.0
 10
864.3515625
 20
-254.8505859375
 30
0.0
 10
853.0
 20
-267.56689453125
 30
0.0
 10
850.443359375
 20
-270.43115234375
 30
0.0
 10
847.826171875
 20
-273.3779296875
 30
0.0
 10
845.2021484375
 20
-276.4072265625
 30
0.0
 10
850.29296875
 20
-251.1845703125
 30
0.0
 10
846.798828125
 20
-226.62158203125
 30
0.0
 10
834.9228515625
 20
-205.80029296875
 30
0.0
 10
831.9384765625
 20
-200.578125
 30
0.0
 10
828.33984375
 20
-195.6220703125
 30
0.0
 10
824.24609375
 20
-191.0185546875
 30
0.0
 10
834.630859375
 20
-172.48388671875
 30
0.0
 10
846.146484375
 20
-157.435546875
 30
0.0
 10
858.85546875
 20
-146.05029296875
 30
0.0
 10
877.6748046875
 20
-129.1953125
 30
0.0
 10
899.43359375
 20
-120.3779296875
 30
0.0
 10
924.130859375
 20
-119.5830078125
 30
0.0
 10
924.130859375
 20
-119.5830078125
 30
0.0
 10
924.130859375
 20
-92.53125
 30
0.0
 10
924.130859375
 20
-92.53125
 30
0.0
 10
924.130859375
 20
-92.53125
 30
0.0
 10
680.6552734375
 20
-92.53125
 30
0.0
 10
680.6552734375
 20
-92.53125
 30
0.0
 10
680.6552734375
 20
-92.53125
 30
0.0
 10
680.6552734375
 20
-119.5830078125
 30
0.0
 10
680.6552734375
 20
-119.5830078125
 30
0.0
 10
730.0439453125
 20
-120.7978515625
 30
0.0
 10
760.259765625
 20
-135.06982421875
 30
0.0
 10
771.4765625
 20
-162.275390625
 30
0.0
 10
767.64453125
 20
-161.716796875
 30
0.0
 10
763.783203125
 20
-161.42822265625
 30
0.0
 10
759.9296875
 20
-161.42822265625
 30
0.0
 10
746.673828125
 20
-161.42822265625
 30
0.0
 10
733.748046875
 20
-164.8623046875
 30
0.0
 10
722.470703125
 20
-171.35546875
 30
0.0
 10
716.8623046875
 20
-171.7451171875
 30
0.0
 10
711.486328125
 20
-171.27294921875
 30
0.0
 10
706.6201171875
 20
-169.85595703125
 30
0.0
 10
703.5166015625
 20
-168.9560546875
 30
0.0
 10
700.419921875
 20
-166.4970703125
 30
0.0
 10
697.150390625
 20
-163.89501953125
 30
0.0
 10
692.26171875
 20
-160.00390625
 30
0.0
 10
687.208984375
 20
-155.9921875
 30
0.0
 10
680.74609375
 20
-155.9921875
 30
0.0
 10
679.388671875
 20
-155.9921875
 30
0.0
 10
678.0166015625
 20
-156.1796875
 30
0.0
 10
676.673828125
 20
-156.54736328125
 30
0.0
 10
672.587890625
 20
-157.671875
 30
0.0
 10
669.65625
 20
-161.47314453125
 30
0.0
 10
669.5517578125
 20
-165.7998046875
 30
0.0
 10
669.0859375
 20
-183.20947265625
 30
0.0
 10
692.5849609375
 20
-184.73876953125
 30
0.0
 10
703.8759765625
 20
-185.4736328125
 30
0.0
 10
703.8759765625
 20
-185.4736328125
 30
0.0
 10
704.685546875
 20
-185.5263671875
 30
0.0
 10
704.685546875
 20
-185.5263671875
 30
0.0
 10
690.8076171875
 20
-200.56689453125
 30
0.0
 10
680.9482421875
 20
-223.45751953125
 30
0.0
 10
687.396484375
 20
-245.755859375
 30
0.0
 10
692.171875
 20
-262.28857421875
 30
0.0
 10
708.134765625
 20
-274.75
 30
0.0
 10
724.517578125
 20
-274.75
 30
0.0
 10
731.392578125
 20
-274.75
 30
0.0
 10
737.9912109375
 20
-272.52294921875
 30
0.0
 10
743.591796875
 20
-268.3017578125
 30
0.0
 10
749.0576171875
 20
-264.19287109375
 30
0.0
 10
751.2099609375
 20
-257.90234375
 30
0.0
 10
749.2001953125
 20
-251.896484375
 30
0.0
 10
747.2958984375
 20
-246.19091796875
 30
0.0
 10
741.9951171875
 20
-242.359375
 30
0.0
 10
736.01171875
 20
-242.359375
 30
0.0
 10
733.830078125
 20
-242.359375
 30
0.0
 10
731.6181640625
 20
-242.83935546875
 30
0.0
 10
729.4365234375
 20
-243.798828125
 30
0.0
 10
724.607421875
 20
-245.90576171875
 30
0.0
 10
720.9189453125
 20
-245.43359375
 30
0.0
 10
718.0625
 20
-242.126953125
 30
0.0
 10
713.8857421875
 20
-237.291015625
 30
0.0
 10
712.611328125
 20
-228.06103515625
 30
0.0
 10
713.525390625
 20
-221.837890625
 30
0.0
 10
715.123046875
 20
-211.0263671875
 30
0.0
 10
721.85546875
 20
-202.59130859375
 30
0.0
 10
727.216796875
 20
-197.41796875
 30
0.0
 10
737.076171875
 20
-187.90283203125
 30
0.0
 10
750.865234375
 20
-182.4443359375
 30
0.0
 10
765.04296875
 20
-182.4443359375
 30
0.0
 10
768.8447265625
 20
-182.4443359375
 30
0.0
 10
772.59375
 20
-182.85693359375
 30
0.0
 10
776.2451171875
 20
-183.6328125
 30
0.0
 10
776.3720703125
 20
-185.5859375
 30
0.0
 10
776.5146484375
 20
-187.53173828125
 30
0.0
 10
776.5146484375
 20
-189.5751953125
 30
0.0
 10
776.5146484375
 20
-192.810546875
 30
0.0
 10
776.1474609375
 20
-196.65283203125
 30
0.0
 10
775.5029296875
 20
-200.9638671875
 30
0.0
 10
770.7939453125
 20
-204.1279296875
 30
0.0
 10
766.962890625
 20
-208.2783203125
 30
0.0
 10
764.451171875
 20
-213.3505859375
 30
0.0
 10
762.583984375
 20
-217.1220703125
 30
0.0
 10
762.8310546875
 20
-221.4033203125
 30
0.0
 10
765.1259765625
 20
-225.091796875
 30
0.0
 10
766.130859375
 20
-226.71142578125
 30
0.0
 10
767.48046875
 20
-228.0009765625
 30
0.0
 10
768.97265625
 20
-229.013671875
 30
0.0
 10
761.52734375
 20
-254.72705078125
 30
0.0
 10
748.5859375
 20
-289.5615234375
 30
0.0
 10
730.05859375
 20
-333.66015625
 30
0.0
 10
730.05859375
 20
-333.66015625
 30
0.0
 10
729.091796875
 20
-335.97705078125
 30
0.0
 10
729.091796875
 20
-335.97705078125
 30
0.0
 10
726.4443359375
 20
-333.18017578125
 30
0.0
 10
723.72265625
 20
-330.66845703125
 30
0.0
 10
721.068359375
 20
-328.55419921875
 30
0.0
 10
710.51171875
 20
-320.15625
 30
0.0
 10
697.900390625
 20
-314.4130859375
 30
0.0
 10
681.46484375
 20
-310.537109375
 30
0.0
 10
656.970703125
 20
-282.29296875
 30
0.0
 10
622.11328125
 20
-266.1201171875
 30
0.0
 10
585.62890625
 20
-266.1201171875
 30
0.0
 10
570.7978515625
 20
-266.1201171875
 30
0.0
 10
555.689453125
 20
-268.7216796875
 30
0.0
 10
540.732421875
 20
-273.8427734375
 30
0.0
 10
540.732421875
 20
-273.8427734375
 30
0.0
 10
540.439453125
 20
-273.94775390625
 30
0.0
 10
540.439453125
 20
-273.94775390625
 30
0.0
 10
535.8203125
 20
-271.29345703125
 30
0.0
 10
531.65234375
 20
-268.654296875
 30
0.0
 10
527.73828125
 20
-265.91015625
 30
0.0
 10
510.5908203125
 20
-253.8837890625
 30
0.0
 10
499.5595703125
 20
-238.0634765625
 30
0.0
 10
497.490234375
 20
-222.5126953125
 30
0.0
 10
495.3310546875
 20
-206.34765625
 30
0.0
 10
504.3154296875
 20
-191.51708984375
 30
0.0
 10
518.845703125
 20
-187.23583984375
 30
0.0
 10
525.173828125
 20
-185.36865234375
 30
0.0
 10
528.794921875
 20
-179.7001953125
 30
0.0
 10
527.8427734375
 20
-173.13232421875
 30
0.0
 10
527.0107421875
 20
-167.36669921875
 30
0.0
 10
522.421875
 20
-161.52587890625
 30
0.0
 10
515.25390625
 20
-161.52587890625
 30
0.0
 10
513.97265625
 20
-161.52587890625
 30
0.0
 10
512.66015625
 20
-161.720703125
 30
0.0
 10
511.35546875
 20
-162.10302734375
 30
0.0
 10
491.49951171875
 20
-167.958984375
 30
0.0
 10
476.8486328125
 20
-184.4912109375
 30
0.0
 10
472.552734375
 20
-205.21533203125
 30
0.0
 10
471.5556640625
 20
-204.435546875
 30
0.0
 10
470.5732421875
 20
-203.68603515625
 30
0.0
 10
469.62841796875
 20
-202.9736328125
 30
0.0
 10
469.62841796875
 20
-202.9736328125
 30
0.0
 10
468.638671875
 20
-202.21630859375
 30
0.0
 10
468.638671875
 20
-202.21630859375
 30
0.0
 10
461.24609375
 20
-196.578125
 30
0.0
 10
451.37109375
 20
-190.0625
 30
0.0
 10
440.21484375
 20
-189.6796875
 30
0.0
 10
435.6484375
 20
-189.6796875
 30
0.0
 10
431.9296875
 20
-192.8740234375
 30
0.0
 10
430.9697265625
 20
-197.642578125
 30
0.0
 10
429.93505859375
 20
-202.7861328125
 30
0.0
 10
432.37939453125
 20
-207.8623046875
 30
0.0
 10
436.7958984375
 20
-209.7138671875
 30
0.0
 10
440.6044921875
 20
-211.31103515625
 30
0.0
 10
444.48095703125
 20
-212.2109375
 30
0.0
 10
448.2373046875
 20
-213.087890625
 30
0.0
 10
452.31591796875
 20
-214.03271484375
 30
0.0
 10
456.16259765625
 20
-214.9248046875
 30
0.0
 10
459.7763671875
 20
-216.626953125
 30
0.0
 10
462.6552734375
 20
-217.984375
 30
0.0
 10
465.2646484375
 20
-220.0537109375
 30
0.0
 10
468.03125
 20
-222.2431640625
 30
0.0
 10
469.24609375
 20
-223.20263671875
 30
0.0
 10
470.4609375
 20
-224.162109375
 30
0.0
 10
471.69775390625
 20
-225.0693359375
 30
0.0
 10
471.9375
 20
-227.13134765625
 30
0.0
 10
472.28271484375
 20
-229.185546875
 30
0.0
 10
472.72509765625
 20
-231.1875
 30
0.0
 10
473.197265625
 20
-233.3544921875
 30
0.0
 10
473.77490234375
 20
-235.4912109375
 30
0.0
 10
474.44970703125
 20
-237.5986328125
 30
0.0
 10
472.53759765625
 20
-236.8486328125
 30
0.0
 10
470.595703125
 20
-236.166015625
 30
0.0
 10
468.6689453125
 20
-235.57421875
 30
0.0
 10
463.16552734375
 20
-233.89453125
 30
0.0
 10
457.85693359375
 20
-238.09326171875
 30
0.0
 10
457.48193359375
 20
-244.2041015625
 30
0.0
 10
457.1748046875
 20
-249.30224609375
 30
0.0
 10
460.34619140625
 20
-253.2763671875
 30
0.0
 10
465.20458984375
 20
-253.8759765625
 30
0.0
 10
470.3330078125
 20
-254.505859375
 30
0.0
 10
474.9443359375
 20
-255.203125
 30
0.0
 10
479.3681640625
 20
-257.33251953125
 30
0.0
 10
481.03271484375
 20
-258.134765625
 30
0.0
 10
482.6748046875
 20
-259.109375
 30
0.0
 10
484.40673828125
 20
-260.12939453125
 30
0.0
 10
485.61376953125
 20
-260.84912109375
 30
0.0
 10
486.82080078125
 20
-261.5615234375
 30
0.0
 10
488.04296875
 20
-262.22119140625
 30
0.0
 10
495.0908203125
 20
-270.78369140625
 30
0.0
 10
504.2998046875
 20
-278.4765625
 30
0.0
 10
515.494140625
 20
-285.1494140625
 30
0.0
 10
507.861328125
 20
-289.62548828125
 30
0.0
 10
501.3818359375
 20
-294.708984375
 30
0.0
 10
496.15576171875
 20
-300.31005859375
 30
0.0
 10
468.181640625
 20
-300.90234375
 30
0.0
 10
439.08251953125
 20
-312.73388671875
 30
0.0
 10
413.8076171875
 20
-324.80517578125
 30
0.0
 10
401.76611328125
 20
-301.30712890625
 30
0.0
 10
384.8359375
 20
-279.8857421875
 30
0.0
 10
368.0185546875
 20
-267.0048828125
 30
0.0
 10
353.1279296875
 20
-255.58544921875
 30
0.0
 10
335.373046875
 20
-248.14013671875
 30
0.0
 10
316.7861328125
 20
-245.2685546875
 30
0.0
 10
316.7861328125
 20
-245.2685546875
 30
0.0
 10
316.60986328125
 20
-244.8564453125
 30
0.0
 10
316.60986328125
 20
-244.8564453125
 30
0.0
 10
298.1767578125
 20
-202.90625
 30
0.0
 10
288.96923828125
 20
-176.244140625
 30
0.0
 10
288.96923828125
 20
-164.86962890625
 30
0.0
 10
288.96923828125
 20
-147.2275390625
 30
0.0
 10
296.31689453125
 20
-135.2685546875
 30
0.0
 10
311.02001953125
 20
-128.9931640625
 30
0.0
 10
325.7236328125
 20
-122.732421875
 30
0.0
 10
354.43994140625
 20
-119.5830078125
 30
0.0
 10
397.18115234375
 20
-119.5830078125
 30
0.0
 10
397.18115234375
 20
-119.5830078125
 30
0.0
 10
397.18115234375
 20
-92.53125
 30
0.0
 10
397.18115234375
 20
-92.53125
 30
0.0
 10
397.18115234375
 20
-92.53125
 30
0.0
 10
53.72216796875
 20
-92.53125
 30
0.0
 10
53.72216796875
 20
-92.53125
 30
0.0
 10
53.72216796875
 20
-92.53125
 30
0.0
 10
53.72216796875
 20
-119.5830078125
 30
0.0
 10
53.72216796875
 20
-119.5830078125
 30
0.0
 10
91.361328125
 20
-120.3779296875
 30
0.0
 10
118.6044921875
 20
-127.23095703125
 30
0.0
 10
135.466796875
 20
-140.171875
 30
0.0
 10
152.322265625
 20
-153.10546875
 30
0.0
 10
168.40478515625
 20
-178.3955078125
 30
0.0
 10
183.69287109375
 20
-216.03466796875
 30
0.0
 10
194.66943359375
 20
-243.88134765625
 30
0.0
 10
202.70703125
 20
-263.48046875
 30
0.0
 10
207.8056640625
 20
-274.84765625
 30
0.0
 10
207.8056640625
 20
-274.84765625
 30
0.0
 10
209.64990234375
 20
-279.09130859375
 30
0.0
 10
209.64990234375
 20
-279.09130859375
 30
0.0
 10
209.39501953125
 20
-281.0068359375
 30
0.0
 10
209.05029296875
 20
-282.95263671875
 30
0.0
 10
208.6904296875
 20
-284.95458984375
 30
0.0
 10
208.1728515625
 20
-287.78857421875
 30
0.0
 10
207.640625
 20
-290.712890625
 30
0.0
 10
207.39306640625
 20
-293.67431640625
 30
0.0
 10
203.171875
 20
-299.09521484375
 30
0.0
 10
199.07080078125
 20
-304.7333984375
 30
0.0
 10
195.08203125
 20
-310.2744140625
 30
0.0
 10
195.029296875
 20
-302.95654296875
 30
0.0
 10
193.9794921875
 20
-296.5009765625
 30
0.0
 10
193.3349609375
 20
-293.1943359375
 30
0.0
 10
192.43505859375
 20
-288.61328125
 30
0.0
 10
188.75390625
 20
-285.65185546875
 30
0.0
 10
183.962890625
 20
-285.65185546875
 30
0.0
 10
180.146484375
 20
-285.65185546875
 30
0.0
 10
176.375
 20
-287.5634765625
 30
0.0
 10
174.3427734375
 20
-290.525390625
 30
0.0
 10
172.5361328125
 20
-293.16455078125
 30
0.0
 10
172.2060546875
 20
-296.34375
 30
0.0
 10
173.4130859375
 20
-299.4775390625
 30
0.0
 10
175.68505859375
 20
-305.35595703125
 30
0.0
 10
177.58203125
 20
-310.70947265625
 30
0.0
 10
177.8447265625
 20
-316.75244140625
 30
0.0
 10
177.9345703125
 20
-319.00927734375
 30
0.0
 10
177.82958984375
 20
-321.31103515625
 30
0.0
 10
177.724609375
 20
-323.75537109375
 30
0.0
 10
177.58203125
 20
-326.9873046875
 30
0.0
 10
177.43212890625
 20
-330.31591796875
 30
0.0
 10
177.76171875
 20
-333.6826171875
 30
0.0
 10
174.552734375
 20
-337.7236328125
 30
0.0
 10
171.50146484375
 20
-341.3076171875
 30
0.0
 10
168.51708984375
 20
-344.56201171875
 30
0.0
 10
168.56982421875
 20
-336.62890625
 30
0.0
 10
166.455078125
 20
-328.8017578125
 30
0.0
 10
162.4287109375
 20
-323.0732421875
 30
0.0
 10
160.404296875
 20
-320.17919921875
 30
0.0
 10
156.453125
 20
-318.8447265625
 30
0.0
 10
153.2890625
 20
-320.12646484375
 30
0.0
 10
151.947265625
 20
-320.673828125
 30
0.0
 10
151.0771484375
 20
-321.38623046875
 30
0.0
 10
150.4248046875
 20
-321.99365234375
 30
0.0
 10
148.310546875
 20
-323.927734375
 30
0.0
 10
147.56103515625
 20
-327.4296875
 30
0.0
 10
148.67822265625
 20
-330.13623046875
 30
0.0
 10
148.67822265625
 20
-330.13623046875
 30
0.0
 10
148.85791015625
 20
-330.57080078125
 30
0.0
 10
148.85791015625
 20
-330.57080078125
 30
0.0
 10
151.0400390625
 20
-335.88671875
 30
0.0
 10
152.92919921875
 20
-340.4755859375
 30
0.0
 10
152.8544921875
 20
-345.94140625
 30
0.0
 10
152.779296875
 20
-351.6171875
 30
0.0
 10
150.64990234375
 20
-356.97802734375
 30
0.0
 10
148.498046875
 20
-362.21923828125
 30
0.0
 10
147.14111328125
 20
-363.14892578125
 30
0.0
 10
145.76904296875
 20
-364.048828125
 30
0.0
 10
144.3515625
 20
-364.9033203125
 30
0.0
 10
134.43212890625
 20
-370.88671875
 30
0.0
 10
122.353515625
 20
-374.31298828125
 30
0.0
 10
111.2265625
 20
-374.31298828125
 30
0.0
 10
100.0771484375
 20
-374.31298828125
 30
0.0
 10
80.328125
 20
-370.88671875
 30
0.0
 10
73.3701171875
 20
-347.92822265625
 30
0.0
 10
69.201171875
 20
-334.1923828125
 30
0.0
 10
74.20263671875
 20
-318.82177734375
 30
0.0
 10
85.25439453125
 20
-311.369140625
 30
0.0
 10
92.009765625
 20
-306.810546875
 30
0.0
 10
99.544921875
 20
-306.390625
 30
0.0
 10
105.63330078125
 20
-310.24462890625
 30
0.0
 10
108.8349609375
 20
-312.306640625
 30
0.0
 10
111.271484375
 20
-315.0283203125
 30
0.0
 10
113.138671875
 20
-318.6572265625
 30
0.0
 10
113.326171875
 20
-319.001953125
 30
0.0
 10
113.49853515625
 20
-319.33935546875
 30
0.0
 10
113.6484375
 20
-319.6767578125
 30
0.0
 10
108.1748046875
 20
-319.66162109375
 30
0.0
 10
102.79150390625
 20
-322.166015625
 30
0.0
 10
99.552734375
 20
-326.40234375
 30
0.0
 10
96.27587890625
 20
-330.6982421875
 30
0.0
 10
95.3837890625
 20
-336.4189453125
 30
0.0
 10
97.04833984375
 20
-342.5224609375
 30
0.0
 10
99.1328125
 20
-350.177734375
 30
0.0
 10
105.58837890625
 20
-355.11865234375
 30
0.0
 10
113.4912109375
 20
-355.11865234375
 30
0.0
 10
116.302734375
 20
-355.11865234375
 30
0.0
 10
119.189453125
 20
-354.4814453125
 30
0.0
 10
121.82861328125
 20
-353.25927734375
 30
0.0
 10
133.7197265625
 20
-347.7783203125
 30
0.0
 10
137.13134765625
 20
-333.65234375
 30
0.0
 10
136.44921875
 20
-323.22314453125
 30
0.0
 10
135.08447265625
 20
-302.2294921875
 30
0.0
 10
117.44970703125
 20
-285.15673828125
 30
0.0
 10
97.13818359375
 20
-285.15673828125
 30
0.0
 10
94.798828125
 20
-285.15673828125
 30
0.0
 10
92.4521484375
 20
-285.38916015625
 30
0.0
 10
90.1650390625
 20
-285.8466796875
 30
0.0
 10
68.69921875
 20
-290.1279296875
 30
0.0
 10
51.42431640625
 20
-312.44140625
 30
0.0
 10
50.8466796875
 20
-336.63671875
 30
0.0
 10
50.26220703125
 20
-360.83203125
 30
0.0
 10
65.40771484375
 20
-383.62548828125
 30
0.0
 10
87.68359375
 20
-392.09033203125
 30
0.0
 10
91.64990234375
 20
-393.58984375
 30
0.0
 10
95.8037109375
 20
-394.6845703125
 30
0.0
 10
100.06982421875
 20
-395.35205078125
 30
0.0
 10
100.06982421875
 20
-395.35205078125
 30
0.0
 10
100.06982421875
 20
-396.30419921875
 30
0.0
 10
100.06982421875
 20
-396.30419921875
 30
0.0
 10
100.06982421875
 20
-396.30419921875
 30
0.0
 10
904.134765625
 20
-396.30419921875
 30
0.0
 10
904.134765625
 20
-396.30419921875
 30
0.0
  0
SPLINE
  5
5E
330
3C
100
AcDbEntity
  8
Layer 1
370
     0
100
AcDbSpline
210
0.0
220
0.0
230
1.0
 70
    11
 71
     3
 72
    26
 73
    22
 74
     0
 42
0.0000000001
 43
0.0000000001
 40
0.0
 40
0.0
 40
0.0
 40
0.0
 40
1.0
 40
1.0
 40
1.0
 40
2.0
 40
2.0
 40
2.0
 40
3.0
 40
3.0
 40
3.0
 40
4.0
 40
4.0
 40
4.0
 40
5.0
 40
5.0
 40
5.0
 40
6.0
 40
6.0
 40
6.0
 40
7.0
 40
7.0
 40
7.0
 40
7.0
 10
820.572265625
 20
-216.7021484375
 30
0.0
 10
830.349609375
 20
-233.4443359375
 30
0.0
 10
834.1650390625
 20
-254.3857421875
 30
0.0
 10
831.046875
 20
-274.2626953125
 30
0.0
 10
826.1279296875
 20
-305.603515625
 30
0.0
 10
807.6982421875
 20
-333.2177734375
 30
0.0
 10
779.2216796875
 20
-353.00439453125
 30
0.0
 10
779.4013671875
 20
-352.74951171875
 30
0.0
 10
779.57421875
 20
-352.4873046875
 30
0.0
 10
779.75390625
 20
-352.23193359375
 30
0.0
 10
791.525390625
 20
-334.7998046875
 30
0.0
 10
794.9443359375
 20
-308.7001953125
 30
0.0
 10
778.3896484375
 20
-294.2255859375
 30
0.0
 10
778.3896484375
 20
-294.2255859375
 30
0.0
 10
810.037109375
 20
-220.15087890625
 30
0.0
 10
810.037109375
 20
-220.15087890625
 30
0.0
 10
811.169921875
 20
-217.466796875
 30
0.0
 10
812.3466796875
 20
-214.92138671875
 30
0.0
 10
813.5087890625
 20
-212.345703125
 30
0.0
 10
815.810546875
 20
-213.26416015625
 30
0.0
 10
818.150390625
 20
-214.68896484375
 30
0.0
 10
820.572265625
 20
-216.7021484375
 30
0.0
  0
SPLINE
  5
5F
330
3C
100
AcDbEntity
  8
Layer 1
370
     0
100
AcDbSpline
210
0.0
220
0.0
230
1.0
 70
    11
 71
     3
 72
    17
 73
    13
 74
     0
 42
0.0000000001
 43
0.0000000001
 40
0.0
 40
0.0
 40
0.0
 40
0.0
 40
1.0
 40
1.0
 40
1.0
 40
2.0
 40
2.0
 40
2.0
 40
3.0
 40
3.0
 40
3.0
 40
4.0
 40
4.0
 40
4.0
 40
4.0
 10
764.1357421875
 20
-327.59423828125
 30
0.0
 10
765.1181640625
 20
-336.83154296875
 30
0.0
 10
763.236328125
 20
-345.435546875
 30
0.0
 10
755.310546875
 20
-354.916015625
 30
0.0
 10
753.826171875
 20
-356.685546875
 30
0.0
 10
752.1767578125
 20
-358.3955078125
 30
0.0
 10
750.3623046875
 20
-360.0673828125
 30
0.0
 10
750.3623046875
 20
-360.0673828125
 30
0.0
 10
756.5185546875
 20
-345.423828125
 30
0.0
 10
756.5185546875
 20
-345.423828125
 30
0.0
 10
756.5185546875
 20
-345.423828125
 30
0.0
 10
764.1357421875
 20
-327.59423828125
 30
0.0
 10
764.1357421875
 20
-327.59423828125
 30
0.0
  0
SPLINE
  5
60
330
3C
100
AcDbEntity
  8
Layer 1
370
     0
100
AcDbSpline
210
0.0
220
0.0
230
1.0
 70
    11
 71
     3
 72
    17
 73
    13
 74
     0
 42
0.0000000001
 43
0.0000000001
 40
0.0
 40
0.0
 40
0.0
 40
0.0
 40
1.0
 40
1.0
 40
1.0
 40
2.0
 40
2.0
 40
2.0
 40
3.0
 40
3.0
 40
3.0
 40
4.0
 40
4.0
 40
4.0
 40
4.0
 10
716.64453125
 20
-342.7021484375
 30
0.0
 10
719.15625
 20
-344.962890625
 30
0.0
 10
721.345703125
 20
-347.32861328125
 30
0.0
 10
723.310546875
 20
-349.810546875
 30
0.0
 10
723.310546875
 20
-349.810546875
 30
0.0
 10
712.408203125
 20
-375.89892578125
 30
0.0
 10
712.408203125
 20
-375.89892578125
 30
0.0
 10
709.6572265625
 20
-359.58740234375
 30
0.0
 10
703.80859375
 20
-343.7744140625
 30
0.0
 10
695.171875
 20
-329.416015625
 30
0.0
 10
703.5537109375
 20
-332.8876953125
 30
0.0
 10
710.6396484375
 20
-337.28125
 30
0.0
 10
716.64453125
 20
-342.7021484375
 30
0.0
  0
SPLINE
  5
61
330
3C
100
AcDbEntity
  8
Layer 1
370
     0
100
AcDbSpline
210
0.0
220
0.0
230
1.0
 70
    11
 71
     3
 72
    20
 73
    16
 74
     0
 42
0.0000000001
 43
0.0000000001
 40
0.0
 40
0.0
 40
0.0
 40
0.0
 40
1.0
 40
1.0
 40
1.0
 40
2.0
 40
2.0
 40
2.0
 40
3.0
 40
3.0
 40
3.0
 40
4.0
 40
4.0
 40
4.0
 40
5.0
 40
5.0
 40
5.0
 40
5.0
 10
617.1943359375
 20
-284.197265625
 30
0.0
 10
628.021484375
 20
-287.30859375
 30
0.0
 10
641.09765625
 20
-295.1591796875
 30
0.0
 10
653.5439453125
 20
-305.8583984375
 30
0.0
 10
650.904296875
 20
-305.5283203125
 30
0.0
 10
648.287109375
 20
-305.220703125
 30
0.0
 10
645.708984375
 20
-304.91357421875
 30
0.0
 10
642.02734375
 20
-304.47119140625
 30
0.0
 10
638.375
 20
-304.0361328125
 30
0.0
 10
634.75390625
 20
-303.5712890625
 30
0.0
 10
607.349609375
 20
-300.00244140625
 30
0.0
 10
582.5849609375
 20
-293.501953125
 30
0.0
 10
560.9912109375
 20
-284.2119140625
 30
0.0
 10
580.40234375
 20
-279.59375
 30
0.0
 10
600.9990234375
 20
-279.54833984375
 30
0.0
 10
617.1943359375
 20
-284.197265625
 30
0.0
  0
SPLINE
  5
62
330
3C
100
AcDbEntity
  8
Layer 1
370
     0
100
AcDbSpline
210
0.0
220
0.0
230
1.0
 70
    11
 71
     3
 72
    35
 73
    31
 74
     0
 42
0.0000000001
 43
0.0000000001
 40
0.0
 40
0.0
 40
0.0
 40
0.0
 40
1.0
 40
1.0
 40
1.0
 40
2.0
 40
2.0
 40
2.0
 40
3.0
 40
3.0
 40
3.0
 40
4.0
 40
4.0
 40
4.0
 40
5.0
 40
5.0
 40
5.0
 40
6.0
 40
6.0
 40
6.0
 40
7.0
 40
7.0
 40
7.0
 40
8.0
 40
8.0
 40
8.0
 40
9.0
 40
9.0
 40
9.0
 40
10.0
 40
10.0
 40
10.0
 40
10.0
 10
533.4892578125
 20
-294.2744140625
 30
0.0
 10
536.630859375
 20
-295.63134765625
 30
0.0
 10
539.884765625
 20
-296.9208984375
 30
0.0
 10
543.17578125
 20
-298.12060546875
 30
0.0
 10
573.1669921875
 20
-309.08203125
 30
0.0
 10
604.05078125
 20
-313.138671875
 30
0.0
 10
633.9140625
 20
-317.06005859375
 30
0.0
 10
643.796875
 20
-318.35693359375
 30
0.0
 10
654.0087890625
 20
-319.69921875
 30
0.0
 10
664.115234375
 20
-321.2734375
 30
0.0
 10
666.1025390625
 20
-321.5810546875
 30
0.0
 10
668.08203125
 20
-321.91845703125
 30
0.0
 10
670.0615234375
 20
-322.2861328125
 30
0.0
 10
687.0888671875
 20
-341.8779296875
 30
0.0
 10
696.3935546875
 20
-362.32421875
 30
0.0
 10
696.033203125
 20
-379.1494140625
 30
0.0
 10
696.033203125
 20
-379.1494140625
 30
0.0
 10
560.361328125
 20
-379.1494140625
 30
0.0
 10
560.361328125
 20
-379.1494140625
 30
0.0
 10
561.7255859375
 20
-377.2294921875
 30
0.0
 10
562.90234375
 20
-375.1826171875
 30
0.0
 10
563.884765625
 20
-373.01611328125
 30
0.0
 10
573.7900390625
 20
-351.205078125
 30
0.0
 10
561.78515625
 20
-325.8623046875
 30
0.0
 10
544.451171875
 20
-313.9560546875
 30
0.0
 10
536.9677734375
 20
-308.81982421875
 30
0.0
 10
528.705078125
 20
-305.09375
 30
0.0
 10
519.791015625
 20
-302.8515625
 30
0.0
 10
523.8916015625
 20
-299.740234375
 30
0.0
 10
528.48828125
 20
-296.86083984375
 30
0.0
 10
533.4892578125
 20
-294.2744140625
 30
0.0
  0
SPLINE
  5
63
330
3C
100
AcDbEntity
  8
Layer 1
370
     0
100
AcDbSpline
210
0.0
220
0.0
230
1.0
 70
    11
 71
     3
 72
    23
 73
    19
 74
     0
 42
0.0000000001
 43
0.0000000001
 40
0.0
 40
0.0
 40
0.0
 40
0.0
 40
1.0
 40
1.0
 40
1.0
 40
2.0
 40
2.0
 40
2.0
 40
3.0
 40
3.0
 40
3.0
 40
4.0
 40
4.0
 40
4.0
 40
5.0
 40
5.0
 40
5.0
 40
6.0
 40
6.0
 40
6.0
 40
6.0
 10
504.0830078125
 20
-319.5341796875
 30
0.0
 10
519.16796875
 20
-320.1865234375
 30
0.0
 10
530.796875
 20
-324.5205078125
 30
0.0
 10
538.677734375
 20
-332.43798828125
 30
0.0
 10
545.830078125
 20
-339.62841796875
 30
0.0
 10
549.89453125
 20
-350.44775390625
 30
0.0
 10
548.76953125
 20
-359.3623046875
 30
0.0
 10
547.9521484375
 20
-365.89306640625
 30
0.0
 10
544.6083984375
 20
-370.93896484375
 30
0.0
 10
538.8427734375
 20
-374.380859375
 30
0.0
 10
534.890625
 20
-376.73486328125
 30
0.0
 10
530.669921875
 20
-377.9267578125
 30
0.0
 10
526.283203125
 20
-377.9267578125
 30
0.0
 10
513.04296875
 20
-377.9267578125
 30
0.0
 10
500.31689453125
 20
-366.92041015625
 30
0.0
 10
497.310546875
 20
-352.876953125
 30
0.0
 10
494.34130859375
 20
-338.99853515625
 30
0.0
 10
499.08740234375
 20
-327.33203125
 30
0.0
 10
504.0830078125
 20
-319.5341796875
 30
0.0
  0
SPLINE
  5
64
330
3C
100
AcDbEntity
  8
Layer 1
370
     0
100
AcDbSpline
210
0.0
220
0.0
230
1.0
 70
    11
 71
     3
 72
    20
 73
    16
 74
     0
 42
0.0000000001
 43
0.0000000001
 40
0.0
 40
0.0
 40
0.0
 40
0.0
 40
1.0
 40
1.0
 40
1.0
 40
2.0
 40
2.0
 40
2.0
 40
3.0
 40
3.0
 40
3.0
 40
4.0
 40
4.0
 40
4.0
 40
5.0
 40
5.0
 40
5.0
 40
5.0
 10
482.83984375
 20
-320.82373046875
 30
0.0
 10
481.7001953125
 20
-323.57568359375
 30
0.0
 10
480.7626953125
 20
-326.38720703125
 30
0.0
 10
480.02783203125
 20
-329.22900390625
 30
0.0
 10
475.44677734375
 20
-347.0810546875
 30
0.0
 10
479.443359375
 20
-366.0283203125
 30
0.0
 10
489.9921875
 20
-379.1494140625
 30
0.0
 10
489.9921875
 20
-379.1494140625
 30
0.0
 10
430.482421875
 20
-379.1494140625
 30
0.0
 10
430.482421875
 20
-379.1494140625
 30
0.0
 10
429.63525390625
 20
-367.47509765625
 30
0.0
 10
426.62109375
 20
-354.9462890625
 30
0.0
 10
421.5
 20
-341.8173828125
 30
0.0
 10
439.1572265625
 20
-333.10546875
 30
0.0
 10
459.8662109375
 20
-324.265625
 30
0.0
 10
482.83984375
 20
-320.82373046875
 30
0.0
  0
SPLINE
  5
65
330
3C
100
AcDbEntity
  8
Layer 1
370
     0
100
AcDbSpline
210
0.0
220
0.0
230
1.0
 70
    11
 71
     3
 72
    23
 73
    19
 74
     0
 42
0.0000000001
 43
0.0000000001
 40
0.0
 40
0.0
 40
0.0
 40
0.0
 40
1.0
 40
1.0
 40
1.0
 40
2.0
 40
2.0
 40
2.0
 40
3.0
 40
3.0
 40
3.0
 40
4.0
 40
4.0
 40
4.0
 40
5.0
 40
5.0
 40
5.0
 40
6.0
 40
6.0
 40
6.0
 40
6.0
 10
410.8681640625
 20
-377.439453125
 30
0.0
 10
410.8681640625
 20
-377.439453125
 30
0.0
 10
411.36328125
 20
-379.1494140625
 30
0.0
 10
411.36328125
 20
-379.1494140625
 30
0.0
 10
411.36328125
 20
-379.1494140625
 30
0.0
 10
374.8037109375
 20
-379.1494140625
 30
0.0
 10
374.8037109375
 20
-379.1494140625
 30
0.0
 10
374.8037109375
 20
-379.1494140625
 30
0.0
 10
370.21533203125
 20
-368.5625
 30
0.0
 10
370.21533203125
 20
-368.5625
 30
0.0
 10
378.462890625
 20
-364.4345703125
 30
0.0
 10
386.5830078125
 20
-360.1123046875
 30
0.0
 10
394.5908203125
 20
-355.8310546875
 30
0.0
 10
397.4169921875
 20
-354.31640625
 30
0.0
 10
400.236328125
 20
-352.8095703125
 30
0.0
 10
403.06298828125
 20
-351.3095703125
 30
0.0
 10
405.8896484375
 20
-360.00732421875
 30
0.0
 10
408.41650390625
 20
-368.8544921875
 30
0.0
 10
410.8681640625
 20
-377.439453125
 30
0.0
  0
SPLINE
  5
66
330
3C
100
AcDbEntity
  8
Layer 1
370
     0
100
AcDbSpline
210
0.0
220
0.0
230
1.0
 70
    11
 71
     3
 72
    23
 73
    19
 74
     0
 42
0.0000000001
 43
0.0000000001
 40
0.0
 40
0.0
 40
0.0
 40
0.0
 40
1.0
 40
1.0
 40
1.0
 40
2.0
 40
2.0
 40
2.0
 40
3.0
 40
3.0
 40
3.0
 40
4.0
 40
4.0
 40
4.0
 40
5.0
 40
5.0
 40
5.0
 40
6.0
 40
6.0
 40
6.0
 40
6.0
 10
376.12353515625
 20
-298.02294921875
 30
0.0
 10
383.853515625
 20
-306.98291015625
 30
0.0
 10
390.54931640625
 20
-318.54443359375
 30
0.0
 10
396.5400390625
 20
-333.3076171875
 30
0.0
 10
394.08837890625
 20
-334.544921875
 30
0.0
 10
391.6591796875
 20
-335.7744140625
 30
0.0
 10
389.26708984375
 20
-336.9814453125
 30
0.0
 10
379.68505859375
 20
-341.84033203125
 30
0.0
 10
370.642578125
 20
-346.42138671875
 30
0.0
 10
362.41015625
 20
-350.1328125
 30
0.0
 10
362.357421875
 20
-350.1552734375
 30
0.0
 10
362.30859375
 20
-350.177734375
 30
0.0
 10
362.26025390625
 20
-350.2001953125
 30
0.0
 10
362.26025390625
 20
-350.2001953125
 30
0.0
 10
325.408203125
 20
-265.16015625
 30
0.0
 10
325.408203125
 20
-265.16015625
 30
0.0
 10
344.5654296875
 20
-270.47607421875
 30
0.0
 10
362.03515625
 20
-281.685546875
 30
0.0
 10
376.12353515625
 20
-298.02294921875
 30
0.0
  0
SPLINE
  5
67
330
3C
100
AcDbEntity
  8
Layer 1
370
     0
100
AcDbSpline
210
0.0
220
0.0
230
1.0
 70
    11
 71
     3
 72
    29
 73
    25
 74
     0
 42
0.0000000001
 43
0.0000000001
 40
0.0
 40
0.0
 40
0.0
 40
0.0
 40
1.0
 40
1.0
 40
1.0
 40
2.0
 40
2.0
 40
2.0
 40
3.0
 40
3.0
 40
3.0
 40
4.0
 40
4.0
 40
4.0
 40
5.0
 40
5.0
 40
5.0
 40
6.0
 40
6.0
 40
6.0
 40
7.0
 40
7.0
 40
7.0
 40
8.0
 40
8.0
 40
8.0
 40
8.0
 10
158.91259765625
 20
-379.1494140625
 30
0.0
 10
160.44970703125
 20
-378.06201171875
 30
0.0
 10
161.9638671875
 20
-376.92236328125
 30
0.0
 10
163.4560546875
 20
-375.7451171875
 30
0.0
 10
180.6259765625
 20
-362.12890625
 30
0.0
 10
192.990234375
 20
-343.95458984375
 30
0.0
 10
204.94921875
 20
-326.3798828125
 30
0.0
 10
209.95751953125
 20
-319.0166015625
 30
0.0
 10
215.130859375
 20
-311.458984375
 30
0.0
 10
220.58935546875
 20
-304.298828125
 30
0.0
 10
220.58935546875
 20
-304.298828125
 30
0.0
 10
222.0888671875
 20
-307.74755859375
 30
0.0
 10
222.0888671875
 20
-307.74755859375
 30
0.0
 10
221.421875
 20
-309.22119140625
 30
0.0
 10
220.79931640625
 20
-310.716796875
 30
0.0
 10
220.25927734375
 20
-312.25390625
 30
0.0
 10
212.0341796875
 20
-335.609375
 30
0.0
 10
218.60986328125
 20
-361.5966796875
 30
0.0
 10
236.6123046875
 20
-376.9150390625
 30
0.0
 10
237.51953125
 20
-377.68701171875
 30
0.0
 10
238.44921875
 20
-378.42919921875
 30
0.0
 10
239.4013671875
 20
-379.1494140625
 30
0.0
 10
239.4013671875
 20
-379.1494140625
 30
0.0
 10
158.91259765625
 20
-379.1494140625
 30
0.0
 10
158.91259765625
 20
-379.1494140625
 30
0.0
  0
HATCH
  5
68
330
3C
100
AcDbEntity
  8
Layer 1
 62
     7
100
AcDbHatch
 10
0.0
 20
0.0
 30
0.0
210
0.0
220
0.0
230
1.0
  2
SOLID
 70
     1
 71
     0
 91
       11
 92
        1
 93
        1
 72
     4
 94
        3
 73
     0
 74
     1
 95
      425
 96
      421
 40
0.0
 40
0.0
 40
0.0
 40
0.0
 40
1.0
 40
1.0
 40
1.0
 40
2.0
 40
2.0
 40
2.0
 40
3.0
 40
3.0
 40
3.0
 40
4.0
 40
4.0
 40
4.0
 40
5.0
 40
5.0
 40
5.0
 40
6.0
 40
6.0
 40
6.0
 40
7.0
 40
7.0
 40
7.0
 40
8.0
 40
8.0
 40
8.0
 40
9.0
 40
9.0
 40
9.0
 40
10.0
 40
10.0
 40
10.0
 40
11.0
 40
11.0
 40
11.0
 40
12.0
 40
12.0
 40
12.0
 40
13.0
 40
13.0
 40
13.0
 40
14.0
 40
14.0
 40
14.0
 40
15.0
 40
15.0
 40
15.0
 40
16.0
 40
16.0
 40
16.0
 40
17.0
 40
17.0
 40
17.0
 40
18.0
 40
18.0
 40
18.0
 40
19.0
 40
19.0
 40
19.0
 40
20.0
 40
20.0
 40
20.0
 40
21.0
 40
21.0
 40
21.0
 40
22.0
 40
22.0
 40
22.0
 40
23.0
 40
23.0
 40
23.0
 40
24.0
 40
24.0
 40
24.0
 40
25.0
 40
25.0
 40
25.0
 40
26.0
 40
26.0
 40
26.0
 40
27.0
 40
27.0
 40
27.0
 40
28.0
 40
28.0
 40
28.0
 40
29.0
 40
29.0
 40
29.0
 40
30.0
 40
30.0
 40
30.0
 40
31.0
 40
31.0
 40
31.0
 40
32.0
 40
32.0
 40
32.0
 40
33.0
 40
33.0
 40
33.0
 40
34.0
 40
34.0
 40
34.0
 40
35.0
 40
35.0
 40
35.0
 40
36.0
 40
36.0
 40
36.0
 40
37.0
 40
37.0
 40
37.0
 40
38.0
 40
38.0
 40
38.0
 40
39.0
 40
39.0
 40
39.0
 40
40.0
 40
40.0
 40
40.0
 40
41.0
 40
41.0
 40
41.0
 40
42.0
 40
42.0
 40
42.0
 40
43.0
 40
43.0
 40
43.0
 40
44.0
 40
44.0
 40
44.0
 40
45.0
 40
45.0
 40
45.0
 40
46.0
 40
46.0
 40
46.0
 40
47.0
 40
47.0
 40
47.0
 40
48.0
 40
48.0
 40
48.0
 40
49.0
 40
49.0
 40
49.0
 40
50.0
 40
50.0
 40
50.0
 40
51.0
 40
51.0
 40
51.0
 40
52.0
 40
52.0
 40
52.0
 40
53.0
 40
53.0
 40
53.0
 40
54.0
 40
54.0
 40
54.0
 40
55.0
 40
55.0
 40
55.0
 40
56.0
 40
56.0
 40
56.0
 40
57.0
 40
57.0
 40
57.0
 40
58.0
 40
58.0
 40
58.0
 40
59.0
 40
59.0
 40
59.0
 40
60.0
 40
60.0
 40
60.0
 40
61.0
 40
61.0
 40
61.0
 40
62.0
 40
62.0
 40
62.0
 40
63.0
 40
63.0
 40
63.0
 40
64.0
 40
64.0
 40
64.0
 40
65.0
 40
65.0
 40
65.0
 40
66.0
 40
66.0
 40
66.0
 40
67.0
 40
67.0
 40
67.0
 40
68.0
 40
68.0
 40
68.0
 40
69.0
 40
69.0
 40
69.0
 40
70.0
 40
70.0
 40
70.0
 40
71.0
 40
71.0
 40
71.0
 40
72.0
 40
72.0
 40
72.0
 40
73.0
 40
73.0
 40
73.0
 40
74.0
 40
74.0
 40
74.0
 40
75.0
 40
75.0
 40
75.0
 40
76.0
 40
76.0
 40
76.0
 40
77.0
 40
77.0
 40
77.0
 40
78.0
 40
78.0
 40
78.0
 40
79.0
 40
79.0
 40
79.0
 40
80.0
 40
80.0
 40
80.0
 40
81.0
 40
81.0
 40
81.0
 40
82.0
 40
82.0
 40
82.0
 40
83.0
 40
83.0
 40
83.0
 40
84.0
 40
84.0
 40
84.0
 40
85.0
 40
85.0
 40
85.0
 40
86.0
 40
86.0
 40
86.0
 40
87.0
 40
87.0
 40
87.0
 40
88.0
 40
88.0
 40
88.0
 40
89.0
 40
89.0
 40
89.0
 40
90.0
 40
90.0
 40
90.0
 40
91.0
 40
91.0
 40
91.0
 40
92.0
 40
92.0
 40
92.0
 40
93.0
 40
93.0
 40
93.0
 40
94.0
 40
94.0
 40
94.0
 40
95.0
 40
95.0
 40
95.0
 40
96.0
 40
96.0
 40
96.0
 40
97.0
 40
97.0
 40
97.0
 40
98.0
 40
98.0
 40
98.0
 40
99.0
 40
99.0
 40
99.0
 40
100.0
 40
100.0
 40
100.0
 40
101.0
 40
101.0
 40
101.0
 40
102.0
 40
102.0
 40
102.0
 40
103.0
 40
103.0
 40
103.0
 40
104.0
 40
104.0
 40
104.0
 40
105.0
 40
105.0
 40
105.0
 40
106.0
 40
106.0
 40
106.0
 40
107.0
 40
107.0
 40
107.0
 40
108.0
 40
108.0
 40
108.0
 40
109.0
 40
109.0
 40
109.0
 40
110.0
 40
110.0
 40
110.0
 40
111.0
 40
111.0
 40
111.0
 40
112.0
 40
112.0
 40
112.0
 40
113.0
 40
113.0
 40
113.0
 40
114.0
 40
114.0
 40
114.0
 40
115.0
 40
115.0
 40
115.0
 40
116.0
 40
116.0
 40
116.0
 40
117.0
 40
117.0
 40
117.0
 40
118.0
 40
118.0
 40
118.0
 40
119.0
 40
119.0
 40
119.0
 40
120.0
 40
120.0
 40
120.0
 40
121.0
 40
121.0
 40
121.0
 40
122.0
 40
122.0
 40
122.0
 40
123.0
 40
123.0
 40
123.0
 40
124.0
 40
124.0
 40
124.0
 40
125.0
 40
125.0
 40
125.0
 40
126.0
 40
126.0
 40
126.0
 40
127.0
 40
127.0
 40
127.0
 40
128.0
 40
128.0
 40
128.0
 40
129.0
 40
129.0
 40
129.0
 40
130.0
 40
130.0
 40
130.0
 40
131.0
 40
131.0
 40
131.0
 40
132.0
 40
132.0
 40
132.0
 40
133.0
 40
133.0
 40
133.0
 40
134.0
 40
134.0
 40
134.0
 40
135.0
 40
135.0
 40
135.0
 40
136.0
 40
136.0
 40
136.0
 40
137.0
 40
137.0
 40
137.0
 40
138.0
 40
138.0
 40
138.0
 40
139.0
 40
139.0
 40
139.0
 40
140.0
 40
140.0
 40
140.0
 40
140.0
 10
904.134765625
 20
-396.30419921875
 10
904.134765625
 20
-396.30419921875
 10
904.134765625
 20
-379.1494140625
 10
904.134765625
 20
-379.1494140625
 10
904.134765625
 20
-379.1494140625
 10
761.482421875
 20
-379.1494140625
 10
761.482421875
 20
-379.1494140625
 10
771.521484375
 20
-374.17822265625
 10
781.103515625
 20
-368.2099609375
 10
790.130859375
 20
-361.296875
 10
798.73828125
 20
-357.3154296875
 10
805.9736328125
 20
-354.2939453125
 10
813.71875
 20
-354.2939453125
 10
817.408203125
 20
-354.2939453125
 10
820.9921875
 20
-354.9765625
 10
824.6884765625
 20
-356.3935546875
 10
829.134765625
 20
-358.087890625
 10
834.9150390625
 20
-360.4345703125
 10
840.1259765625
 20
-363.51611328125
 10
840.1259765625
 20
-363.51611328125
 10
842.0458984375
 20
-364.6708984375
 10
842.0458984375
 20
-364.6708984375
 10
845.876953125
 20
-367.01025390625
 10
849.4912109375
 20
-369.21484375
 10
855.50390625
 20
-369.37939453125
 10
858.3154296875
 20
-369.37939453125
 10
860.947265625
 20
-368.08251953125
 10
862.732421875
 20
-365.82568359375
 10
864.6064453125
 20
-363.44873046875
 10
865.318359375
 20
-360.2919921875
 10
864.62109375
 20
-357.37548828125
 10
860.220703125
 20
-338.9462890625
 10
835.2900390625
 20
-337.513671875
 10
827.7548828125
 20
-337.513671875
 10
825.2802734375
 20
-337.513671875
 10
822.8740234375
 20
-337.6416015625
 10
820.6015625
 20
-337.896484375
 10
818.75
 20
-338.0986328125
 10
816.5234375
 20
-338.41357421875
 10
814.0341796875
 20
-338.90087890625
 10
815.0908203125
 20
-337.67138671875
 10
816.1259765625
 20
-336.4189453125
 10
817.1376953125
 20
-335.14453125
 10
817.962890625
 20
-334.8447265625
 10
818.6826171875
 20
-334.31982421875
 10
819.22265625
 20
-333.60009765625
 10
822.01171875
 20
-329.90380859375
 10
824.8759765625
 20
-325.89990234375
 10
827.8447265625
 20
-321.76123046875
 10
846.4169921875
 20
-295.826171875
 10
867.5458984375
 20
-266.330078125
 10
899.2685546875
 20
-268.654296875
 10
899.6357421875
 20
-268.68408203125
 10
899.98828125
 20
-268.69921875
 10
900.333984375
 20
-268.69921875
 10
900.333984375
 20
-268.69921875
 10
900.333984375
 20
-268.69921875
 10
900.3408203125
 20
-268.69921875
 10
906.6767578125
 20
-268.69921875
 10
911.3173828125
 20
-264.1552734375
 10
911.6171875
 20
-257.65478515625
 10
911.91015625
 20
-251.4619140625
 10
907.869140625
 20
-244.4814453125
 10
899.80859375
 20
-243.7314453125
 10
878.95703125
 20
-241.796875
 10
864.3515625
 20
-254.8505859375
 10
853.0
 20
-267.56689453125
 10
850.443359375
 20
-270.43115234375
 10
847.826171875
 20
-273.3779296875
 10
845.2021484375
 20
-276.4072265625
 10
850.29296875
 20
-251.1845703125
 10
846.798828125
 20
-226.62158203125
 10
834.9228515625
 20
-205.80029296875
 10
831.9384765625
 20
-200.578125
 10
828.33984375
 20
-195.6220703125
 10
824.24609375
 20
-191.0185546875
 10
834.630859375
 20
-172.48388671875
 10
846.146484375
 20
-157.435546875
 10
858.85546875
 20
-146.05029296875
 10
877.6748046875
 20
-129.1953125
 10
899.43359375
 20
-120.3779296875
 10
924.130859375
 20
-119.5830078125
 10
924.130859375
 20
-119.5830078125
 10
924.130859375
 20
-92.53125
 10
924.130859375
 20
-92.53125
 10
924.130859375
 20
-92.53125
 10
680.6552734375
 20
-92.53125
 10
680.6552734375
 20
-92.53125
 10
680.6552734375
 20
-92.53125
 10
680.6552734375
 20
-119.5830078125
 10
680.6552734375
 20
-119.5830078125
 10
730.0439453125
 20
-120.7978515625
 10
760.259765625
 20
-135.06982421875
 10
771.4765625
 20
-162.275390625
 10
767.64453125
 20
-161.716796875
 10
763.783203125
 20
-161.42822265625
 10
759.9296875
 20
-161.42822265625
 10
746.673828125
 20
-161.42822265625
 10
733.748046875
 20
-164.8623046875
 10
722.470703125
 20
-171.35546875
 10
716.8623046875
 20
-171.7451171875
 10
711.486328125
 20
-171.27294921875
 10
706.6201171875
 20
-169.85595703125
 10
703.5166015625
 20
-168.9560546875
 10
700.419921875
 20
-166.4970703125
 10
697.150390625
 20
-163.89501953125
 10
692.26171875
 20
-160.00390625
 10
687.208984375
 20
-155.9921875
 10
680.74609375
 20
-155.9921875
 10
679.388671875
 20
-155.9921875
 10
678.0166015625
 20
-156.1796875
 10
676.673828125
 20
-156.54736328125
 10
672.587890625
 20
-157.671875
 10
669.65625
 20
-161.47314453125
 10
669.5517578125
 20
-165.7998046875
 10
669.0859375
 20
-183.20947265625
 10
692.5849609375
 20
-184.73876953125
 10
703.8759765625
 20
-185.4736328125
 10
703.8759765625
 20
-185.4736328125
 10
704.685546875
 20
-185.5263671875
 10
704.685546875
 20
-185.5263671875
 10
690.8076171875
 20
-200.56689453125
 10
680.9482421875
 20
-223.45751953125
 10
687.396484375
 20
-245.755859375
 10
692.171875
 20
-262.28857421875
 10
708.134765625
 20
-274.75
 10
724.517578125
 20
-274.75
 10
731.392578125
 20
-274.75
 10
737.9912109375
 20
-272.52294921875
 10
743.591796875
 20
-268.3017578125
 10
749.0576171875
 20
-264.19287109375
 10
751.2099609375
 20
-257.90234375
 10
749.2001953125
 20
-251.896484375
 10
747.2958984375
 20
-246.19091796875
 10
741.9951171875
 20
-242.359375
 10
736.01171875
 20
-242.359375
 10
733.830078125
 20
-242.359375
 10
731.6181640625
 20
-242.83935546875
 10
729.4365234375
 20
-243.798828125
 10
724.607421875
 20
-245.90576171875
 10
720.9189453125
 20
-245.43359375
 10
718.0625
 20
-242.126953125
 10
713.8857421875
 20
-237.291015625
 10
712.611328125
 20
-228.06103515625
 10
713.525390625
 20
-221.837890625
 10
715.123046875
 20
-211.0263671875
 10
721.85546875
 20
-202.59130859375
 10
727.216796875
 20
-197.41796875
 10
737.076171875
 20
-187.90283203125
 10
750.865234375
 20
-182.4443359375
 10
765.04296875
 20
-182.4443359375
 10
768.8447265625
 20
-182.4443359375
 10
772.59375
 20
-182.85693359375
 10
776.2451171875
 20
-183.6328125
 10
776.3720703125
 20
-185.5859375
 10
776.5146484375
 20
-187.53173828125
 10
776.5146484375
 20
-189.5751953125
 10
776.5146484375
 20
-192.810546875
 10
776.1474609375
 20
-196.65283203125
 10
775.5029296875
 20
-200.9638671875
 10
770.7939453125
 20
-204.1279296875
 10
766.962890625
 20
-208.2783203125
 10
764.451171875
 20
-213.3505859375
 10
762.583984375
 20
-217.1220703125
 10
762.8310546875
 20
-221.4033203125
 10
765.1259765625
 20
-225.091796875
 10
766.130859375
 20
-226.71142578125
 10
767.48046875
 20
-228.0009765625
 10
768.97265625
 20
-229.013671875
 10
761.52734375
 20
-254.72705078125
 10
748.5859375
 20
-289.5615234375
 10
730.05859375
 20
-333.66015625
 10
730.05859375
 20
-333.66015625
 10
729.091796875
 20
-335.97705078125
 10
729.091796875
 20
-335.97705078125
 10
726.4443359375
 20
-333.18017578125
 10
723.72265625
 20
-330.66845703125
 10
721.068359375
 20
-328.55419921875
 10
710.51171875
 20
-320.15625
 10
697.900390625
 20
-314.4130859375
 10
681.46484375
 20
-310.537109375
 10
656.970703125
 20
-282.29296875
 10
622.11328125
 20
-266.1201171875
 10
585.62890625
 20
-266.1201171875
 10
570.7978515625
 20
-266.1201171875
 10
555.689453125
 20
-268.7216796875
 10
540.732421875
 20
-273.8427734375
 10
540.732421875
 20
-273.8427734375
 10
540.439453125
 20
-273.94775390625
 10
540.439453125
 20
-273.94775390625
 10
535.8203125
 20
-271.29345703125
 10
531.65234375
 20
-268.654296875
 10
527.73828125
 20
-265.91015625
 10
510.5908203125
 20
-253.8837890625
 10
499.5595703125
 20
-238.0634765625
 10
497.490234375
 20
-222.5126953125
 10
495.3310546875
 20
-206.34765625
 10
504.3154296875
 20
-191.51708984375
 10
518.845703125
 20
-187.23583984375
 10
525.173828125
 20
-185.36865234375
 10
528.794921875
 20
-179.7001953125
 10
527.8427734375
 20
-173.13232421875
 10
527.0107421875
 20
-167.36669921875
 10
522.421875
 20
-161.52587890625
 10
515.25390625
 20
-161.52587890625
 10
513.97265625
 20
-161.52587890625
 10
512.66015625
 20
-161.720703125
 10
511.35546875
 20
-162.10302734375
 10
491.49951171875
 20
-167.958984375
 10
476.8486328125
 20
-184.4912109375
 10
472.552734375
 20
-205.21533203125
 10
471.5556640625
 20
-204.435546875
 10
470.5732421875
 20
-203.68603515625
 10
469.62841796875
 20
-202.9736328125
 10
469.62841796875
 20
-202.9736328125
 10
468.638671875
 20
-202.21630859375
 10
468.638671875
 20
-202.21630859375
 10
461.24609375
 20
-196.578125
 10
451.37109375
 20
-190.0625
 10
440.21484375
 20
-189.6796875
 10
435.6484375
 20
-189.6796875
 10
431.9296875
 20
-192.8740234375
 10
430.9697265625
 20
-197.642578125
 10
429.93505859375
 20
-202.7861328125
 10
432.37939453125
 20
-207.8623046875
 10
436.7958984375
 20
-209.7138671875
 10
440.6044921875
 20
-211.31103515625
 10
444.48095703125
 20
-212.2109375
 10
448.2373046875
 20
-213.087890625
 10
452.31591796875
 20
-214.03271484375
 10
456.16259765625
 20
-214.9248046875
 10
459.7763671875
 20
-216.626953125
 10
462.6552734375
 20
-217.984375
 10
465.2646484375
 20
-220.0537109375
 10
468.03125
 20
-222.2431640625
 10
469.24609375
 20
-223.20263671875
 10
470.4609375
 20
-224.162109375
 10
471.69775390625
 20
-225.0693359375
 10
471.9375
 20
-227.13134765625
 10
472.28271484375
 20
-229.185546875
 10
472.72509765625
 20
-231.1875
 10
473.197265625
 20
-233.3544921875
 10
473.77490234375
 20
-235.4912109375
 10
474.44970703125
 20
-237.5986328125
 10
472.53759765625
 20
-236.8486328125
 10
470.595703125
 20
-236.166015625
 10
468.6689453125
 20
-235.57421875
 10
463.16552734375
 20
-233.89453125
 10
457.85693359375
 20
-238.09326171875
 10
457.48193359375
 20
-244.2041015625
 10
457.1748046875
 20
-249.30224609375
 10
460.34619140625
 20
-253.2763671875
 10
465.20458984375
 20
-253.8759765625
 10
470.3330078125
 20
-254.505859375
 10
474.9443359375
 20
-255.203125
 10
479.3681640625
 20
-257.33251953125
 10
481.03271484375
 20
-258.134765625
 10
482.6748046875
 20
-259.109375
 10
484.40673828125
 20
-260.12939453125
 10
485.61376953125
 20
-260.84912109375
 10
486.82080078125
 20
-261.5615234375
 10
488.04296875
 20
-262.22119140625
 10
495.0908203125
 20
-270.78369140625
 10
504.2998046875
 20
-278.4765625
 10
515.494140625
 20
-285.1494140625
 10
507.861328125
 20
-289.62548828125
 10
501.3818359375
 20
-294.708984375
 10
496.15576171875
 20
-300.31005859375
 10
468.181640625
 20
-300.90234375
 10
439.08251953125
 20
-312.73388671875
 10
413.8076171875
 20
-324.80517578125
 10
401.76611328125
 20
-301.30712890625
 10
384.8359375
 20
-279.8857421875
 10
368.0185546875
 20
-267.0048828125
 10
353.1279296875
 20
-255.58544921875
 10
335.373046875
 20
-248.14013671875
 10
316.7861328125
 20
-245.2685546875
 10
316.7861328125
 20
-245.2685546875
 10
316.60986328125
 20
-244.8564453125
 10
316.60986328125
 20
-244.8564453125
 10
298.1767578125
 20
-202.90625
 10
288.96923828125
 20
-176.244140625
 10
288.96923828125
 20
-164.86962890625
 10
288.96923828125
 20
-147.2275390625
 10
296.31689453125
 20
-135.2685546875
 10
311.02001953125
 20
-128.9931640625
 10
325.7236328125
 20
-122.732421875
 10
354.43994140625
 20
-119.5830078125
 10
397.18115234375
 20
-119.5830078125
 10
397.18115234375
 20
-119.5830078125
 10
397.18115234375
 20
-92.53125
 10
397.18115234375
 20
-92.53125
 10
397.18115234375
 20
-92.53125
 10
53.72216796875
 20
-92.53125
 10
53.72216796875
 20
-92.53125
 10
53.72216796875
 20
-92.53125
 10
53.72216796875
 20
-119.5830078125
 10
53.72216796875
 20
-119.5830078125
 10
91.361328125
 20
-120.3779296875
 10
118.6044921875
 20
-127.23095703125
 10
135.466796875
 20
-140.171875
 10
152.322265625
 20
-153.10546875
 10
168.40478515625
 20
-178.3955078125
 10
183.69287109375
 20
-216.03466796875
 10
194.66943359375
 20
-243.88134765625
 10
202.70703125
 20
-263.48046875
 10
207.8056640625
 20
-274.84765625
 10
207.8056640625
 20
-274.84765625
 10
209.64990234375
 20
-279.09130859375
 10
209.64990234375
 20
-279.09130859375
 10
209.39501953125
 20
-281.0068359375
 10
209.05029296875
 20
-282.95263671875
 10
208.6904296875
 20
-284.95458984375
 10
208.1728515625
 20
-287.78857421875
 10
207.640625
 20
-290.712890625
 10
207.39306640625
 20
-293.67431640625
 10
203.171875
 20
-299.09521484375
 10
199.07080078125
 20
-304.7333984375
 10
195.08203125
 20
-310.2744140625
 10
195.029296875
 20
-302.95654296875
 10
193.9794921875
 20
-296.5009765625
 10
193.3349609375
 20
-293.1943359375
 10
192.43505859375
 20
-288.61328125
 10
188.75390625
 20
-285.65185546875
 10
183.962890625
 20
-285.65185546875
 10
180.146484375
 20
-285.65185546875
 10
176.375
 20
-287.5634765625
 10
174.3427734375
 20
-290.525390625
 10
172.5361328125
 20
-293.16455078125
 10
172.2060546875
 20
-296.34375
 10
173.4130859375
 20
-299.4775390625
 10
175.68505859375
 20
-305.35595703125
 10
177.58203125
 20
-310.70947265625
 10
177.8447265625
 20
-316.75244140625
 10
177.9345703125
 20
-319.00927734375
 10
177.82958984375
 20
-321.31103515625
 10
177.724609375
 20
-323.75537109375
 10
177.58203125
 20
-326.9873046875
 10
177.43212890625
 20
-330.31591796875
 10
177.76171875
 20
-333.6826171875
 10
174.552734375
 20
-337.7236328125
 10
171.50146484375
 20
-341.3076171875
 10
168.51708984375
 20
-344.56201171875
 10
168.56982421875
 20
-336.62890625
 10
166.455078125
 20
-328.8017578125
 10
162.4287109375
 20
-323.0732421875
 10
160.404296875
 20
-320.17919921875
 10
156.453125
 20
-318.8447265625
 10
153.2890625
 20
-320.12646484375
 10
151.947265625
 20
-320.673828125
 10
151.0771484375
 20
-321.38623046875
 10
150.4248046875
 20
-321.99365234375
 10
148.310546875
 20
-323.927734375
 10
147.56103515625
 20
-327.4296875
 10
148.67822265625
 20
-330.13623046875
 10
148.67822265625
 20
-330.13623046875
 10
148.85791015625
 20
-330.57080078125
 10
148.85791015625
 20
-330.57080078125
 10
151.0400390625
 20
-335.88671875
 10
152.92919921875
 20
-340.4755859375
 10
152.8544921875
 20
-345.94140625
 10
152.779296875
 20
-351.6171875
 10
150.64990234375
 20
-356.97802734375
 10
148.498046875
 20
-362.21923828125
 10
147.14111328125
 20
-363.14892578125
 10
145.76904296875
 20
-364.048828125
 10
144.3515625
 20
-364.9033203125
 10
134.43212890625
 20
-370.88671875
 10
122.353515625
 20
-374.31298828125
 10
111.2265625
 20
-374.31298828125
 10
100.0771484375
 20
-374.31298828125
 10
80.328125
 20
-370.88671875
 10
73.3701171875
 20
-347.92822265625
 10
69.201171875
 20
-334.1923828125
 10
74.20263671875
 20
-318.82177734375
 10
85.25439453125
 20
-311.369140625
 10
92.009765625
 20
-306.810546875
 10
99.544921875
 20
-306.390625
 10
105.63330078125
 20
-310.24462890625
 10
108.8349609375
 20
-312.306640625
 10
111.271484375
 20
-315.0283203125
 10
113.138671875
 20
-318.6572265625
 10
113.326171875
 20
-319.001953125
 10
113.49853515625
 20
-319.33935546875
 10
113.6484375
 20
-319.6767578125
 10
108.1748046875
 20
-319.66162109375
 10
102.79150390625
 20
-322.166015625
 10
99.552734375
 20
-326.40234375
 10
96.27587890625
 20
-330.6982421875
 10
95.3837890625
 20
-336.4189453125
 10
97.04833984375
 20
-342.5224609375
 10
99.1328125
 20
-350.177734375
 10
105.58837890625
 20
-355.11865234375
 10
113.4912109375
 20
-355.11865234375
 10
116.302734375
 20
-355.11865234375
 10
119.189453125
 20
-354.4814453125
 10
121.82861328125
 20
-353.25927734375
 10
133.7197265625
 20
-347.7783203125
 10
137.13134765625
 20
-333.65234375
 10
136.44921875
 20
-323.22314453125
 10
135.08447265625
 20
-302.2294921875
 10
117.44970703125
 20
-285.15673828125
 10
97.13818359375
 20
-285.15673828125
 10
94.798828125
 20
-285.15673828125
 10
92.4521484375
 20
-285.38916015625
 10
90.1650390625
 20
-285.8466796875
 10
68.69921875
 20
-290.1279296875
 10
51.42431640625
 20
-312.44140625
 10
50.8466796875
 20
-336.63671875
 10
50.26220703125
 20
-360.83203125
 10
65.40771484375
 20
-383.62548828125
 10
87.68359375
 20
-392.09033203125
 10
91.64990234375
 20
-393.58984375
 10
95.8037109375
 20
-394.6845703125
 10
100.06982421875
 20
-395.35205078125
 10
100.06982421875
 20
-395.35205078125
 10
100.06982421875
 20
-396.30419921875
 10
100.06982421875
 20
-396.30419921875
 10
100.06982421875
 20
-396.30419921875
 10
904.134765625
 20
-396.30419921875
 10
904.134765625
 20
-396.30419921875
 97
        0
 92
        1
 93
        1
 72
     4
 94
        3
 73
     0
 74
     1
 95
       26
 96
       22
 40
0.0
 40
0.0
 40
0.0
 40
0.0
 40
1.0
 40
1.0
 40
1.0
 40
2.0
 40
2.0
 40
2.0
 40
3.0
 40
3.0
 40
3.0
 40
4.0
 40
4.0
 40
4.0
 40
5.0
 40
5.0
 40
5.0
 40
6.0
 40
6.0
 40
6.0
 40
7.0
 40
7.0
 40
7.0
 40
7.0
 10
820.572265625
 20
-216.7021484375
 10
830.349609375
 20
-233.4443359375
 10
834.1650390625
 20
-254.3857421875
 10
831.046875
 20
-274.2626953125
 10
826.1279296875
 20
-305.603515625
 10
807.6982421875
 20
-333.2177734375
 10
779.2216796875
 20
-353.00439453125
 10
779.4013671875
 20
-352.74951171875
 10
779.57421875
 20
-352.4873046875
 10
779.75390625
 20
-352.23193359375
 10
791.525390625
 20
-334.7998046875
 10
794.9443359375
 20
-308.7001953125
 10
778.3896484375
 20
-294.2255859375
 10
778.3896484375
 20
-294.2255859375
 10
810.037109375
 20
-220.15087890625
 10
810.037109375
 20
-220.15087890625
 10
811.169921875
 20
-217.466796875
 10
812.3466796875
 20
-214.92138671875
 10
813.5087890625
 20
-212.345703125
 10
815.810546875
 20
-213.26416015625
 10
818.150390625
 20
-214.68896484375
 10
820.572265625
 20
-216.7021484375
 97
        0
 92
        1
 93
        1
 72
     4
 94
        3
 73
     0
 74
     1
 95
       17
 96
       13
 40
0.0
 40
0.0
 40
0.0
 40
0.0
 40
1.0
 40
1.0
 40
1.0
 40
2.0
 40
2.0
 40
2.0
 40
3.0
 40
3.0
 40
3.0
 40
4.0
 40
4.0
 40
4.0
 40
4.0
 10
764.1357421875
 20
-327.59423828125
 10
765.1181640625
 20
-336.83154296875
 10
763.236328125
 20
-345.435546875
 10
755.310546875
 20
-354.916015625
 10
753.826171875
 20
-356.685546875
 10
752.1767578125
 20
-358.3955078125
 10
750.3623046875
 20
-360.0673828125
 10
750.3623046875
 20
-360.0673828125
 10
756.5185546875
 20
-345.423828125
 10
756.5185546875
 20
-345.423828125
 10
756.5185546875
 20
-345.423828125
 10
764.1357421875
 20
-327.59423828125
 10
764.1357421875
 20
-327.59423828125
 97
        0
 92
        1
 93
        1
 72
     4
 94
        3
 73
     0
 74
     1
 95
       17
 96
       13
 40
0.0
 40
0.0
 40
0.0
 40
0.0
 40
1.0
 40
1.0
 40
1.0
 40
2.0
 40
2.0
 40
2.0
 40
3.0
 40
3.0
 40
3.0
 40
4.0
 40
4.0
 40
4.0
 40
4.0
 10
716.64453125
 20
-342.7021484375
 10
719.15625
 20
-344.962890625
 10
721.345703125
 20
-347.32861328125
 10
723.310546875
 20
-349.810546875
 10
723.310546875
 20
-349.810546875
 10
712.408203125
 20
-375.89892578125
 10
712.408203125
 20
-375.89892578125
 10
709.6572265625
 20
-359.58740234375
 10
703.80859375
 20
-343.7744140625
 10
695.171875
 20
-329.416015625
 10
703.5537109375
 20
-332.8876953125
 10
710.6396484375
 20
-337.28125
 10
716.64453125
 20
-342.7021484375
 97
        0
 92
        1
 93
        1
 72
     4
 94
        3
 73
     0
 74
     1
 95
       20
 96
       16
 40
0.0
 40
0.0
 40
0.0
 40
0.0
 40
1.0
 40
1.0
 40
1.0
 40
2.0
 40
2.0
 40
2.0
 40
3.0
 40
3.0
 40
3.0
 40
4.0
 40
4.0
 40
4.0
 40
5.0
 40
5.0
 40
5.0
 40
5.0
 10
617.1943359375
 20
-284.197265625
 10
628.021484375
 20
-287.30859375
 10
641.09765625
 20
-295.1591796875
 10
653.5439453125
 20
-305.8583984375
 10
650.904296875
 20
-305.5283203125
 10
648.287109375
 20
-305.220703125
 10
645.708984375
 20
-304.91357421875
 10
642.02734375
 20
-304.47119140625
 10
638.375
 20
-304.0361328125
 10
634.75390625
 20
-303.5712890625
 10
607.349609375
 20
-300.00244140625
 10
582.5849609375
 20
-293.501953125
 10
560.9912109375
 20
-284.2119140625
 10
580.40234375
 20
-279.59375
 10
600.9990234375
 20
-279.54833984375
 10
617.1943359375
 20
-284.197265625
 97
        0
 92
        1
 93
        1
 72
     4
 94
        3
 73
     0
 74
     1
 95
       35
 96
       31
 40
0.0
 40
0.0
 40
0.0
 40
0.0
 40
1.0
 40
1.0
 40
1.0
 40
2.0
 40
2.0
 40
2.0
 40
3.0
 40
3.0
 40
3.0
 40
4.0
 40
4.0
 40
4.0
 40
5.0
 40
5.0
 40
5.0
 40
6.0
 40
6.0
 40
6.0
 40
7.0
 40
7.0
 40
7.0
 40
8.0
 40
8.0
 40
8.0
 40
9.0
 40
9.0
 40
9.0
 40
10.0
 40
10.0
 40
10.0
 40
10.0
 10
533.4892578125
 20
-294.2744140625
 10
536.630859375
 20
-295.63134765625
 10
539.884765625
 20
-296.9208984375
 10
543.17578125
 20
-298.12060546875
 10
573.1669921875
 20
-309.08203125
 10
604.05078125
 20
-313.138671875
 10
633.9140625
 20
-317.06005859375
 10
643.796875
 20
-318.35693359375
 10
654.0087890625
 20
-319.69921875
 10
664.115234375
 20
-321.2734375
 10
666.1025390625
 20
-321.5810546875
 10
668.08203125
 20
-321.91845703125
 10
670.0615234375
 20
-322.2861328125
 10
687.0888671875
 20
-341.8779296875
 10
696.3935546875
 20
-362.32421875
 10
696.033203125
 20
-379.1494140625
 10
696.033203125
 20
-379.1494140625
 10
560.361328125
 20
-379.1494140625
 10
560.361328125
 20
-379.1494140625
 10
561.7255859375
 20
-377.2294921875
 10
562.90234375
 20
-375.1826171875
 10
563.884765625
 20
-373.01611328125
 10
573.7900390625
 20
-351.205078125
 10
561.78515625
 20
-325.8623046875
 10
544.451171875
 20
-313.9560546875
 10
536.9677734375
 20
-308.81982421875
 10
528.705078125
 20
-305.09375
 10
519.791015625
 20
-302.8515625
 10
523.8916015625
 20
-299.740234375
 10
528.48828125
 20
-296.86083984375
 10
533.4892578125
 20
-294.2744140625
 97
        0
 92
        1
 93
        1
 72
     4
 94
        3
 73
     0
 74
     1
 95
       23
 96
       19
 40
0.0
 40
0.0
 40
0.0
 40
0.0
 40
1.0
 40
1.0
 40
1.0
 40
2.0
 40
2.0
 40
2.0
 40
3.0
 40
3.0
 40
3.0
 40
4.0
 40
4.0
 40
4.0
 40
5.0
 40
5.0
 40
5.0
 40
6.0
 40
6.0
 40
6.0
 40
6.0
 10
504.0830078125
 20
-319.5341796875
 10
519.16796875
 20
-320.1865234375
 10
530.796875
 20
-324.5205078125
 10
538.677734375
 20
-332.43798828125
 10
545.830078125
 20
-339.62841796875
 10
549.89453125
 20
-350.44775390625
 10
548.76953125
 20
-359.3623046875
 10
547.9521484375
 20
-365.89306640625
 10
544.6083984375
 20
-370.93896484375
 10
538.8427734375
 20
-374.380859375
 10
534.890625
 20
-376.73486328125
 10
530.669921875
 20
-377.9267578125
 10
526.283203125
 20
-377.9267578125
 10
513.04296875
 20
-377.9267578125
 10
500.31689453125
 20
-366.92041015625
 10
497.310546875
 20
-352.876953125
 10
494.34130859375
 20
-338.99853515625
 10
499.08740234375
 20
-327.33203125
 10
504.0830078125
 20
-319.5341796875
 97
        0
 92
        1
 93
        1
 72
     4
 94
        3
 73
     0
 74
     1
 95
       20
 96
       16
 40
0.0
 40
0.0
 40
0.0
 40
0.0
 40
1.0
 40
1.0
 40
1.0
 40
2.0
 40
2.0
 40
2.0
 40
3.0
 40
3.0
 40
3.0
 40
4.0
 40
4.0
 40
4.0
 40
5.0
 40
5.0
 40
5.0
 40
5.0
 10
482.83984375
 20
-320.82373046875
 10
481.7001953125
 20
-323.57568359375
 10
480.7626953125
 20
-326.38720703125
 10
480.02783203125
 20
-329.22900390625
 10
475.44677734375
 20
-347.0810546875
 10
479.443359375
 20
-366.0283203125
 10
489.9921875
 20
-379.1494140625
 10
489.9921875
 20
-379.1494140625
 10
430.482421875
 20
-379.1494140625
 10
430.482421875
 20
-379.1494140625
 10
429.63525390625
 20
-367.47509765625
 10
426.62109375
 20
-354.9462890625
 10
421.5
 20
-341.8173828125
 10
439.1572265625
 20
-333.10546875
 10
459.8662109375
 20
-324.265625
 10
482.83984375
 20
-320.82373046875
 97
        0
 92
        1
 93
        1
 72
     4
 94
        3
 73
     0
 74
     1
 95
       23
 96
       19
 40
0.0
 40
0.0
 40
0.0
 40
0.0
 40
1.0
 40
1.0
 40
1.0
 40
2.0
 40
2.0
 40
2.0
 40
3.0
 40
3.0
 40
3.0
 40
4.0
 40
4.0
 40
4.0
 40
5.0
 40
5.0
 40
5.0
 40
6.0
 40
6.0
 40
6.0
 40
6.0
 10
410.8681640625
 20
-377.439453125
 10
410.8681640625
 20
-377.439453125
 10
411.36328125
 20
-379.1494140625
 10
411.36328125
 20
-379.1494140625
 10
411.36328125
 20
-379.1494140625
 10
374.8037109375
 20
-379.1494140625
 10
374.8037109375
 20
-379.1494140625
 10
374.8037109375
 20
-379.1494140625
 10
370.21533203125
 20
-368.5625
 10
370.21533203125
 20
-368.5625
 10
378.462890625
 20
-364.4345703125
 10
386.5830078125
 20
-360.1123046875
 10
394.5908203125
 20
-355.8310546875
 10
397.4169921875
 20
-354.31640625
 10
400.236328125
 20
-352.8095703125
 10
403.06298828125
 20
-351.3095703125
 10
405.8896484375
 20
-360.00732421875
 10
408.41650390625
 20
-368.8544921875
 10
410.8681640625
 20
-377.439453125
 97
        0
 92
        1
 93
        1
 72
     4
 94
        3
 73
     0
 74
     1
 95
       23
 96
       19
 40
0.0
 40
0.0
 40
0.0
 40
0.0
 40
1.0
 40
1.0
 40
1.0
 40
2.0
 40
2.0
 40
2.0
 40
3.0
 40
3.0
 40
3.0
 40
4.0
 40
4.0
 40
4.0
 40
5.0
 40
5.0
 40
5.0
 40
6.0
 40
6.0
 40
6.0
 40
6.0
 10
376.12353515625
 20
-298.02294921875
 10
383.853515625
 20
-306.98291015625
 10
390.54931640625
 20
-318.54443359375
 10
396.5400390625
 20
-333.3076171875
 10
394.08837890625
 20
-334.544921875
 10
391.6591796875
 20
-335.7744140625
 10
389.26708984375
 20
-336.9814453125
 10
379.68505859375
 20
-341.84033203125
 10
370.642578125
 20
-346.42138671875
 10
362.41015625
 20
-350.1328125
 10
362.357421875
 20
-350.1552734375
 10
362.30859375
 20
-350.177734375
 10
362.26025390625
 20
-350.2001953125
 10
362.26025390625
 20
-350.2001953125
 10
325.408203125
 20
-265.16015625
 10
325.408203125
 20
-265.16015625
 10
344.5654296875
 20
-270.47607421875
 10
362.03515625
 20
-281.685546875
 10
376.12353515625
 20
-298.02294921875
 97
        0
 92
        1
 93
        1
 72
     4
 94
        3
 73
     0
 74
     1
 95
       29
 96
       25
 40
0.0
 40
0.0
 40
0.0
 40
0.0
 40
1.0
 40
1.0
 40
1.0
 40
2.0
 40
2.0
 40
2.0
 40
3.0
 40
3.0
 40
3.0
 40
4.0
 40
4.0
 40
4.0
 40
5.0
 40
5.0
 40
5.0
 40
6.0
 40
6.0
 40
6.0
 40
7.0
 40
7.0
 40
7.0
 40
8.0
 40
8.0
 40
8.0
 40
8.0
 10
158.91259765625
 20
-379.1494140625
 10
160.44970703125
 20
-378.06201171875
 10
161.9638671875
 20
-376.92236328125
 10
163.4560546875
 20
-375.7451171875
 10
180.6259765625
 20
-362.12890625
 10
192.990234375
 20
-343.95458984375
 10
204.94921875
 20
-326.3798828125
 10
209.95751953125
 20
-319.0166015625
 10
215.130859375
 20
-311.458984375
 10
220.58935546875
 20
-304.298828125
 10
220.58935546875
 20
-304.298828125
 10
222.0888671875
 20
-307.74755859375
 10
222.0888671875
 20
-307.74755859375
 10
221.421875
 20
-309.22119140625
 10
220.79931640625
 20
-310.716796875
 10
220.25927734375
 20
-312.25390625
 10
212.0341796875
 20
-335.609375
 10
218.60986328125
 20
-361.5966796875
 10
236.6123046875
 20
-376.9150390625
 10
237.51953125
 20
-377.68701171875
 10
238.44921875
 20
-378.42919921875
 10
239.4013671875
 20
-379.1494140625
 10
239.4013671875
 20
-379.1494140625
 10
158.91259765625
 20
-379.1494140625
 10
158.91259765625
 20
-379.1494140625
 97
        0
 75
     2
 76
     1
 98
        0
  0
ENDBLK
  5
3F
330
3C
100
AcDbEntity
  8
0
100
AcDbBlockEnd
  0
ENDSEC
  0
SECTION
  2
ENTITIES
  0
INSERT
  5
3D
330
1F
100
AcDbEntity
  8
Layer 1
100
AcDbBlockReference
  2
block 2
 10
0.0
 20
0.0
 30
0.0
  0
ENDSEC
  0
SECTION
  2
OBJECTS
  0
DICTIONARY
  5
C
330
0
100
AcDbDictionary
281
     1
  3
ACAD_GROUP
350
D
  3
ACAD_LAYOUT
350
1A
  3
ACAD_MLINESTYLE
350
17
  3
ACAD_PLOTSETTINGS
350
19
  3
ACAD_PLOTSTYLENAME
350
E
  3
ACAD_TABLESTYLE
350
69
  3
ACAD_VISUALSTYLE
350
2A
  0
DICTIONARY
  5
D
102
{ACAD_REACTORS
330
C
102
}
330
C
100
AcDbDictionary
281
     1
  0
DICTIONARY
  5
1A
102
{ACAD_REACTORS
330
C
102
}
330
C
100
AcDbDictionary
281
     1
  3
Layout1
350
1E
  3
Layout2
350
26
  3
Model
350
22
  0
DICTIONARY
  5
17
102
{ACAD_REACTORS
330
C
102
}
330
C
100
AcDbDictionary
281
     1
  3
Standard
350
18
  0
DICTIONARY
  5
19
102
{ACAD_REACTORS
330
C
102
}
330
C
100
AcDbDictionary
281
     1
  0
ACDBDICTIONARYWDFLT
  5
E
102
{ACAD_REACTORS
330
C
102
}
330
C
100
AcDbDictionary
281
     1
  3
Normal
350
F
100
AcDbDictionaryWithDefault
340
F
  0
DICTIONARY
  5
69
102
{ACAD_REACTORS
330
C
102
}
330
C
100
AcDbDictionary
281
     1
  0
DICTIONARY
  5
2A
102
{ACAD_REACTORS
330
C
102
}
330
C
100
AcDbDictionary
281
     1
  3
2dWireframe
350
2F
  3
3D Hidden
350
31
  3
3dWireframe
350
30
  3
Basic
350
32
  3
Brighten
350
36
  3
ColorChange
350
3A
  3
Conceptual
350
34
  3
Dim
350
35
  3
Facepattern
350
39
  3
Flat
350
2B
  3
FlatWithEdges
350
2C
  3
Gouraud
350
2D
  3
GouraudWithEdges
350
2E
  3
Linepattern
350
38
  3
Realistic
350
33
  3
Thicken
350
37
  0
LAYOUT
  5
1E
102
{ACAD_REACTORS
330
1A
102
}
330
1A
100
AcDbPlotSettings
  1

  2
none_device
  4

  6

 40
0.0
 41
0.0
 42
0.0
 43
0.0
 44
0.0
 45
0.0
 46
0.0
 47
0.0
 48
0.0
 49
0.0
140
0.0
141
0.0
142
1.0
143
1.0
 70
   688
 72
     0
 73
     0
 74
     5
  7

 75
    16
147
1.0
148
0.0
149
0.0
100
AcDbLayout
  1
Layout1
 70
     1
 71
     1
 10
0.0
 20
0.0
 11
12.0
 21
9.0
 12
0.0
 22
0.0
 32
0.0
 14
1.000000000000000E+20
 24
1.000000000000000E+20
 34
1.000000000000000E+20
 15
-1.000000000000000E+20
 25
-1.000000000000000E+20
 35
-1.000000000000000E+20
146
0.0
 13
0.0
 23
0.0
 33
0.0
 16
1.0
 26
0.0
 36
0.0
 17
0.0
 27
1.0
 37
0.0
 76
     0
330
1B
  0
LAYOUT
  5
26
102
{ACAD_REACTORS
330
1A
102
}
330
1A
100
AcDbPlotSettings
  1

  2
none_device
  4

  6

 40
0.0
 41
0.0
 42
0.0
 43
0.0
 44
0.0
 45
0.0
 46
0.0
 47
0.0
 48
0.0
 49
0.0
140
0.0
141
0.0
142
1.0
143
1.0
 70
   688
 72
     0
 73
     0
 74
     5
  7

 75
    16
147
1.0
148
0.0
149
0.0
100
AcDbLayout
  1
Layout2
 70
     1
 71
     2
 10
0.0
 20
0.0
 11
0.0
 21
0.0
 12
0.0
 22
0.0
 32
0.0
 14
0.0
 24
0.0
 34
0.0
 15
0.0
 25
0.0
 35
0.0
146
0.0
 13
0.0
 23
0.0
 33
0.0
 16
1.0
 26
0.0
 36
0.0
 17
0.0
 27
1.0
 37
0.0
 76
     0
330
23
  0
LAYOUT
  5
22
102
{ACAD_REACTORS
330
1A
102
}
330
1A
100
AcDbPlotSettings
  1

  2
none_device
  4

  6

 40
0.0
 41
0.0
 42
0.0
 43
0.0
 44
0.0
 45
0.0
 46
0.0
 47
0.0
 48
0.0
 49
0.0
140
0.0
141
0.0
142
1.0
143
1.0
 70
  1712
 72
     0
 73
     0
 74
     0
  7

 75
     0
147
1.0
148
0.0
149
0.0
100
AcDbLayout
  1
Model
 70
     1
 71
     0
 10
0.0
 20
0.0
 11
12.0
 21
9.0
 12
0.0
 22
0.0
 32
0.0
 14
1.000000000000000E+20
 24
1.000000000000000E+20
 34
1.000000000000000E+20
 15
-1.000000000000000E+20
 25
-1.000000000000000E+20
 35
-1.000000000000000E+20
146
0.0
 13
0.0
 23
0.0
 33
0.0
 16
1.0
 26
0.0
 36
0.0
 17
0.0
 27
1.0
 37
0.0
 76
     0
330
1F
331
29
  0
MLINESTYLE
  5
18
102
{ACAD_REACTORS
330
17
102
}
330
17
100
AcDbMlineStyle
  2
Standard
 70
     0
  3

 62
   256
 51
90.0
 52
90.0
 71
     2
 49
0.5
 62
   256
  6
BYLAYER
 49
-0.5
 62
   256
  6
BYLAYER
  0
ACDBPLACEHOLDER
  5
F
102
{ACAD_REACTORS
330
E
102
}
330
E
  0
VISUALSTYLE
  5
2F
102
{ACAD_REACTORS
330
2A
102
}
330
2A
100
AcDbVisualStyle
  2
2dWireframe
 70
     4
 71
     0
 72
     2
 73
     0
 90
        0
 40
-0.6
 41
-30.0
 62
     5
 63
     7
 74
     1
 91
        4
 64
     7
 65
   257
 75
     1
175
     1
 42
1.0
 92
        0
 66
   257
 43
1.0
 76
     1
 77
     6
 78
     2
 67
     7
 79
     5
170
     0
171
     0
290
     0
174
     0
 93
        1
 44
0.0
173
     0
291
     0
 45
0.0
1001
ACAD
1000
AcDbSavedByObjectVersion
1070
     0
  0
VISUALSTYLE
  5
31
102
{ACAD_REACTORS
330
2A
102
}
330
2A
100
AcDbVisualStyle
  2
3D Hidden
 70
     6
 71
     1
 72
     2
 73
     2
 90
        0
 40
-0.6
 41
-30.0
 62
     5
 63
     7
 74
     2
 91
        2
 64
     7
 65
   257
 75
     2
175
     1
 42
40.0
 92
        0
 66
   257
 43
1.0
 76
     1
 77
     6
 78
     2
 67
     7
 79
     3
170
     0
171
     0
290
     0
174
     0
 93
        1
 44
0.0
173
     0
291
     0
 45
0.0
1001
ACAD
1000
AcDbSavedByObjectVersion
1070
     0
  0
VISUALSTYLE
  5
30
102
{ACAD_REACTORS
330
2A
102
}
330
2A
100
AcDbVisualStyle
  2
3dWireframe
 70
     5
 71
     0
 72
     2
 73
     0
 90
        0
 40
-0.6
 41
-30.0
 62
     5
 63
     7
 74
     1
 91
        4
 64
     7
 65
   257
 75
     1
175
     1
 42
1.0
 92
        0
 66
   257
 43
1.0
 76
     1
 77
     6
 78
     2
 67
     7
 79
     5
170
     0
171
     0
290
     0
174
     0
 93
        1
 44
0.0
173
     0
291
     0
 45
0.0
1001
ACAD
1000
AcDbSavedByObjectVersion
1070
     0
  0
VISUALSTYLE
  5
32
102
{ACAD_REACTORS
330
2A
102
}
330
2A
100
AcDbVisualStyle
  2
Basic
 70
     7
 71
     1
 72
     0
 73
     1
 90
        0
 40
-0.6
 41
-30.0
 62
     5
 63
     7
 74
     0
 91
        4
 64
     7
 65
   257
 75
     1
175
     1
 42
1.0
 92
        8
 66
     7
 43
1.0
 76
     1
 77
     6
 78
     2
 67
     7
 79
     5
170
     0
171
     0
290
     0
174
     0
 93
        1
 44
0.0
173
     0
291
     1
 45
0.0
1001
ACAD
1000
AcDbSavedByObjectVersion
1070
     0
  0
VISUALSTYLE
  5
36
102
{ACAD_REACTORS
330
2A
102
}
330
2A
100
AcDbVisualStyle
  2
Brighten
 70
    12
 71
     2
 72
     2
 73
     0
 90
        0
 40
-0.6
 41
-30.0
 62
     5
 63
     7
 74
     1
 91
        4
 64
     7
 65
   257
 75
     1
175
     1
 42
1.0
 92
        8
 66
     7
 43
1.0
 76
     1
 77
     6
 78
     2
 67
     7
 79
     5
170
     0
171
     0
290
     0
174
     0
 93
        1
 44
50.0
173
     0
291
     1
 45
0.0
1001
ACAD
1000
AcDbSavedByObjectVersion
1070
     0
  0
VISUALSTYLE
  5
3A
102
{ACAD_REACTORS
330
2A
102
}
330
2A
100
AcDbVisualStyle
  2
ColorChange
 70
    16
 71
     2
 72
     2
 73
     3
 90
        0
 40
-0.6
 41
-30.0
 62
     5
 63
     8
 74
     1
 91
        4
 64
     7
 65
   257
 75
     1
175
     1
 42
1.0
 92
        8
 66
     8
 43
1.0
 76
     1
 77
     6
 78
     2
 67
     7
 79
     5
170
     0
171
     0
290
     0
174
     0
 93
        1
 44
0.0
173
     0
291
     1
 45
0.0
1001
ACAD
1000
AcDbSavedByObjectVersion
1070
     0
  0
VISUALSTYLE
  5
34
102
{ACAD_REACTORS
330
2A
102
}
330
2A
100
AcDbVisualStyle
  2
Conceptual
 70
     9
 71
     3
 72
     2
 73
     0
 90
        0
 40
-0.6
 41
-30.0
 62
     5
 63
     7
 74
     2
 91
        2
 64
     7
 65
   257
 75
     1
175
     1
 42
40.0
 92
        8
 66
     7
 43
1.0
 76
     1
 77
     6
 78
     2
 67
     7
 79
     3
170
     0
171
     0
290
     0
174
     0
 93
        1
 44
0.0
173
     0
291
     0
 45
0.0
1001
ACAD
1000
AcDbSavedByObjectVersion
1070
     0
  0
VISUALSTYLE
  5
35
102
{ACAD_REACTORS
330
2A
102
}
330
2A
100
AcDbVisualStyle
  2
Dim
 70
    11
 71
     2
 72
     2
 73
     0
 90
        0
 40
-0.6
 41
-30.0
 62
     5
 63
     7
 74
     1
 91
        4
 64
     7
 65
   257
 75
     1
175
     1
 42
1.0
 92
        8
 66
     7
 43
1.0
 76
     1
 77
     6
 78
     2
 67
     7
 79
     5
170
     0
171
     0
290
     0
174
     0
 93
        1
 44
-50.0
173
     0
291
     1
 45
0.0
1001
ACAD
1000
AcDbSavedByObjectVersion
1070
     0
  0
VISUALSTYLE
  5
39
102
{ACAD_REACTORS
330
2A
102
}
330
2A
100
AcDbVisualStyle
  2
Facepattern
 70
    15
 71
     2
 72
     2
 73
     0
 90
        0
 40
-0.6
 41
-30.0
 62
     5
 63
     7
 74
     1
 91
        4
 64
     7
 65
   257
 75
     1
175
     1
 42
1.0
 92
        8
 66
     7
 43
1.0
 76
     1
 77
     6
 78
     2
 67
     7
 79
     5
170
     0
171
     0
290
     0
174
     0
 93
        1
 44
0.0
173
     0
291
     1
 45
0.0
1001
ACAD
1000
AcDbSavedByObjectVersion
1070
     0
  0
VISUALSTYLE
  5
2B
102
{ACAD_REACTORS
330
2A
102
}
330
2A
100
AcDbVisualStyle
  2
Flat
 70
     0
 71
     2
 72
     1
 73
     1
 90
        2
 40
-0.6
 41
30.0
 62
     5
 63
     7
 74
     0
 91
        4
 64
     7
 65
   257
 75
     1
175
     1
 42
1.0
 92
        8
 66
     7
 43
1.0
 76
     1
 77
     6
 78
     2
 67
     7
 79
     5
170
     0
171
     0
290
     0
174
     0
 93
       13
 44
0.0
173
     0
291
     1
 45
0.0
1001
ACAD
1000
AcDbSavedByObjectVersion
1070
     0
  0
VISUALSTYLE
  5
2C
102
{ACAD_REACTORS
330
2A
102
}
330
2A
100
AcDbVisualStyle
  2
FlatWithEdges
 70
     1
 71
     2
 72
     1
 73
     1
 90
        2
 40
-0.6
 41
30.0
 62
     5
 63
     7
 74
     1
 91
        4
 64
     7
 65
   257
 75
     1
175
     1
 42
1.0
 92
        0
 66
   257
 43
1.0
 76
     1
 77
     6
 78
     2
 67
     7
 79
     5
170
     0
171
     0
290
     0
174
     0
 93
       13
 44
0.0
173
     0
291
     1
 45
0.0
1001
ACAD
1000
AcDbSavedByObjectVersion
1070
     0
  0
VISUALSTYLE
  5
2D
102
{ACAD_REACTORS
330
2A
102
}
330
2A
100
AcDbVisualStyle
  2
Gouraud
 70
     2
 71
     2
 72
     2
 73
     1
 90
        2
 40
-0.6
 41
30.0
 62
     5
 63
     7
 74
     0
 91
        4
 64
     7
 65
   257
 75
     1
175
     1
 42
1.0
 92
        0
 66
     7
 43
1.0
 76
     1
 77
     6
 78
     2
 67
     7
 79
     5
170
     0
171
     0
290
     0
174
     0
 93
       13
 44
0.0
173
     0
291
     1
 45
0.0
1001
ACAD
1000
AcDbSavedByObjectVersion
1070
     0
  0
VISUALSTYLE
  5
2E
102
{ACAD_REACTORS
330
2A
102
}
330
2A
100
AcDbVisualStyle
  2
GouraudWithEdges
 70
     3
 71
     2
 72
     2
 73
     1
 90
        2
 40
-0.6
 41
30.0
 62
     5
 63
     7
 74
     1
 91
        4
 64
     7
 65
   257
 75
     1
175
     1
 42
1.0
 92
        0
 66
   257
 43
1.0
 76
     1
 77
     6
 78
     2
 67
     7
 79
     5
170
     0
171
     0
290
     0
174
     0
 93
       13
 44
0.0
173
     0
291
     1
 45
0.0
1001
ACAD
1000
AcDbSavedByObjectVersion
1070
     0
  0
VISUALSTYLE
  5
38
102
{ACAD_REACTORS
330
2A
102
}
330
2A
100
AcDbVisualStyle
  2
Linepattern
 70
    14
 71
     2
 72
     2
 73
     0
 90
        0
 40
-0.6
 41
-30.0
 62
     5
 63
     7
 74
     1
 91
        4
 64
     7
 65
   257
 75
     7
175
     7
 42
1.0
 92
        8
 66
     7
 43
1.0
 76
     1
 77
     6
 78
     2
 67
     7
 79
     5
170
     0
171
     0
290
     0
174
     0
 93
        1
 44
0.0
173
     0
291
     1
 45
0.0
1001
ACAD
1000
AcDbSavedByObjectVersion
1070
     0
  0
VISUALSTYLE
  5
33
102
{ACAD_REACTORS
330
2A
102
}
330
2A
100
AcDbVisualStyle
  2
Realistic
 70
     8
 71
     2
 72
     2
 73
     0
 90
        0
 40
-0.6
 41
-30.0
 62
     5
 63
     7
 74
     1
 91
        0
 64
     7
 65
   257
 75
     1
175
     1
 42
1.0
 92
        8
 66
     8
 43
1.0
 76
     1
 77
     6
 78
     2
 67
     7
 79
     5
170
     0
171
     0
290
     0
174
     0
 93
       13
 44
0.0
173
     0
291
     0
 45
0.0
1001
ACAD
1000
AcDbSavedByObjectVersion
1070
     0
  0
VISUALSTYLE
  5
37
102
{ACAD_REACTORS
330
2A
102
}
330
2A
100
AcDbVisualStyle
  2
Thicken
 70
    13
 71
     2
 72
     2
 73
     0
 90
        0
 40
-0.6
 41
-30.0
 62
     5
 63
     7
 74
     1
 91
        4
 64
     7
 65
   257
 75
     1
175
     1
 42
1.0
 92
       12
 66
     7
 43
1.0
 76
     1
 77
     6
 78
     2
 67
     7
 79
     5
170
     0
171
     0
290
     0
174
     0
 93
        1
 44
0.0
173
     0
291
     1
 45
0.0
1001
ACAD
1000
AcDbSavedByObjectVersion
1070
     0
  0
ENDSEC
  0
EOF
