  0
SECTION
  2
HEADER
  9
$ACADVER
  1
AC1021
  9
$ACADMAINTVER
 70
    25
  9
$DWGCODEPAGE
  3
ANSI_1251
  9
$INSBASE
 10
0.0
 20
0.0
 30
0.0
  9
$EXTMIN
 10
1.000000000000000E+20
 20
1.000000000000000E+20
 30
1.000000000000000E+20
  9
$EXTMAX
 10
-1.000000000000000E+20
 20
-1.000000000000000E+20
 30
-1.000000000000000E+20
  9
$LIMMIN
 10
0.0
 20
0.0
  9
$LIMMAX
 10
12.0
 20
9.0
  9
$ORTHOMODE
 70
     0
  9
$REGENMODE
 70
     1
  9
$FILLMODE
 70
     1
  9
$QTEXTMODE
 70
     0
  9
$MIRRTEXT
 70
     1
  9
$LTSCALE
 40
1.0
  9
$ATTMODE
 70
     1
  9
$TEXTSIZE
 40
0.2
  9
$TRACEWID
 40
0.05
  9
$TEXTSTYLE
  7
Standard
  9
$CLAYER
  8
0
  9
$CELTYPE
  6
ByLayer
  9
$CECOLOR
 62
   256
  9
$CELTSCALE
 40
1.0
  9
$DISPSILH
 70
     0
  9
$DIMSCALE
 40
1.0
  9
$DIMASZ
 40
0.18
  9
$DIMEXO
 40
0.0625
  9
$DIMDLI
 40
0.38
  9
$DIMRND
 40
0.0
  9
$DIMDLE
 40
0.0
  9
$DIMEXE
 40
0.18
  9
$DIMTP
 40
0.0
  9
$DIMTM
 40
0.0
  9
$DIMTXT
 40
0.18
  9
$DIMCEN
 40
0.09
  9
$DIMTSZ
 40
0.0
  9
$DIMTOL
 70
     0
  9
$DIMLIM
 70
     0
  9
$DIMTIH
 70
     1
  9
$DIMTOH
 70
     1
  9
$DIMSE1
 70
     0
  9
$DIMSE2
 70
     0
  9
$DIMTAD
 70
     0
  9
$DIMZIN
 70
     0
  9
$DIMBLK
  1

  9
$DIMASO
 70
     1
  9
$DIMSHO
 70
     1
  9
$DIMPOST
  1

  9
$DIMAPOST
  1

  9
$DIMALT
 70
     0
  9
$DIMALTD
 70
     2
  9
$DIMALTF
 40
25.4
  9
$DIMLFAC
 40
1.0
  9
$DIMTOFL
 70
     0
  9
$DIMTVP
 40
0.0
  9
$DIMTIX
 70
     0
  9
$DIMSOXD
 70
     0
  9
$DIMSAH
 70
     0
  9
$DIMBLK1
  1

  9
$DIMBLK2
  1

  9
$DIMSTYLE
  2
Standard
  9
$DIMCLRD
 70
     0
  9
$DIMCLRE
 70
     0
  9
$DIMCLRT
 70
     0
  9
$DIMTFAC
 40
1.0
  9
$DIMGAP
 40
0.09
  9
$DIMJUST
 70
     0
  9
$DIMSD1
 70
     0
  9
$DIMSD2
 70
     0
  9
$DIMTOLJ
 70
     1
  9
$DIMTZIN
 70
     0
  9
$DIMALTZ
 70
     0
  9
$DIMALTTZ
 70
     0
  9
$DIMUPT
 70
     0
  9
$DIMDEC
 70
     4
  9
$DIMTDEC
 70
     4
  9
$DIMALTU
 70
     2
  9
$DIMALTTD
 70
     2
  9
$DIMTXSTY
  7
Standard
  9
$DIMAUNIT
 70
     0
  9
$DIMADEC
 70
     0
  9
$DIMALTRND
 40
0.0
  9
$DIMAZIN
 70
     0
  9
$DIMDSEP
 70
    46
  9
$DIMATFIT
 70
     3
  9
$DIMFRAC
 70
     0
  9
$DIMLDRBLK
  1

  9
$DIMLUNIT
 70
     2
  9
$DIMLWD
 70
    -2
  9
$DIMLWE
 70
    -2
  9
$DIMTMOVE
 70
     0
  9
$DIMFXL
 40
1.0
  9
$DIMFXLON
 70
     0
  9
$DIMJOGANG
 40
0.7853981633974483
  9
$DIMTFILL
 70
     0
  9
$DIMTFILLCLR
 70
     0
  9
$DIMARCSYM
 70
     0
  9
$DIMLTYPE
  6

  9
$DIMLTEX1
  6

  9
$DIMLTEX2
  6

  9
$LUNITS
 70
     2
  9
$LUPREC
 70
     4
  9
$SKETCHINC
 40
0.1
  9
$FILLETRAD
 40
0.5
  9
$AUNITS
 70
     0
  9
$AUPREC
 70
     0
  9
$MENU
  1
.
  9
$ELEVATION
 40
0.0
  9
$PELEVATION
 40
0.0
  9
$THICKNESS
 40
0.0
  9
$LIMCHECK
 70
     0
  9
$CHAMFERA
 40
0.5
  9
$CHAMFERB
 40
0.5
  9
$CHAMFERC
 40
1.0
  9
$CHAMFERD
 40
0.0
  9
$SKPOLY
 70
     0
  9
$TDCREATE
 40
2458847.451293055
  9
$TDUCREATE
 40
2458847.326293055
  9
$TDUPDATE
 40
2458847.451294063
  9
$TDUUPDATE
 40
2458847.326294063
  9
$TDINDWG
 40
0.0000000116
  9
$TDUSRTIMER
 40
0.0000000116
  9
$USRTIMER
 70
     1
  9
$ANGBASE
 50
0.0
  9
$ANGDIR
 70
     0
  9
$PDMODE
 70
     0
  9
$PDSIZE
 40
0.0
  9
$PLINEWID
 40
0.0
  9
$SPLFRAME
 70
     0
  9
$SPLINETYPE
 70
     6
  9
$SPLINESEGS
 70
     8
  9
$HANDSEED
  5
71
  9
$SURFTAB1
 70
     6
  9
$SURFTAB2
 70
     6
  9
$SURFTYPE
 70
     6
  9
$SURFU
 70
     6
  9
$SURFV
 70
     6
  9
$UCSBASE
  2

  9
$UCSNAME
  2

  9
$UCSORG
 10
0.0
 20
0.0
 30
0.0
  9
$UCSXDIR
 10
1.0
 20
0.0
 30
0.0
  9
$UCSYDIR
 10
0.0
 20
1.0
 30
0.0
  9
$UCSORTHOREF
  2

  9
$UCSORTHOVIEW
 70
     0
  9
$UCSORGTOP
 10
0.0
 20
0.0
 30
0.0
  9
$UCSORGBOTTOM
 10
0.0
 20
0.0
 30
0.0
  9
$UCSORGLEFT
 10
0.0
 20
0.0
 30
0.0
  9
$UCSORGRIGHT
 10
0.0
 20
0.0
 30
0.0
  9
$UCSORGFRONT
 10
0.0
 20
0.0
 30
0.0
  9
$UCSORGBACK
 10
0.0
 20
0.0
 30
0.0
  9
$PUCSBASE
  2

  9
$PUCSNAME
  2

  9
$PUCSORG
 10
0.0
 20
0.0
 30
0.0
  9
$PUCSXDIR
 10
1.0
 20
0.0
 30
0.0
  9
$PUCSYDIR
 10
0.0
 20
1.0
 30
0.0
  9
$PUCSORTHOREF
  2

  9
$PUCSORTHOVIEW
 70
     0
  9
$PUCSORGTOP
 10
0.0
 20
0.0
 30
0.0
  9
$PUCSORGBOTTOM
 10
0.0
 20
0.0
 30
0.0
  9
$PUCSORGLEFT
 10
0.0
 20
0.0
 30
0.0
  9
$PUCSORGRIGHT
 10
0.0
 20
0.0
 30
0.0
  9
$PUCSORGFRONT
 10
0.0
 20
0.0
 30
0.0
  9
$PUCSORGBACK
 10
0.0
 20
0.0
 30
0.0
  9
$USERI1
 70
     0
  9
$USERI2
 70
     0
  9
$USERI3
 70
     0
  9
$USERI4
 70
     0
  9
$USERI5
 70
     0
  9
$USERR1
 40
0.0
  9
$USERR2
 40
0.0
  9
$USERR3
 40
0.0
  9
$USERR4
 40
0.0
  9
$USERR5
 40
0.0
  9
$WORLDVIEW
 70
     1
  9
$SHADEDGE
 70
     3
  9
$SHADEDIF
 70
    70
  9
$TILEMODE
 70
     1
  9
$MAXACTVP
 70
    64
  9
$PINSBASE
 10
0.0
 20
0.0
 30
0.0
  9
$PLIMCHECK
 70
     0
  9
$PEXTMIN
 10
1.000000000000000E+20
 20
1.000000000000000E+20
 30
1.000000000000000E+20
  9
$PEXTMAX
 10
-1.000000000000000E+20
 20
-1.000000000000000E+20
 30
-1.000000000000000E+20
  9
$PLIMMIN
 10
0.0
 20
0.0
  9
$PLIMMAX
 10
12.0
 20
9.0
  9
$UNITMODE
 70
     0
  9
$VISRETAIN
 70
     1
  9
$PLINEGEN
 70
     0
  9
$PSLTSCALE
 70
     1
  9
$TREEDEPTH
 70
  3020
  9
$CMLSTYLE
  2
Standard
  9
$CMLJUST
 70
     0
  9
$CMLSCALE
 40
1.0
  9
$PROXYGRAPHICS
 70
     1
  9
$MEASUREMENT
 70
     0
  9
$CELWEIGHT
370
    -1
  9
$ENDCAPS
280
     0
  9
$JOINSTYLE
280
     0
  9
$LWDISPLAY
290
     1
  9
$INSUNITS
 70
     1
  9
$HYPERLINKBASE
  1

  9
$STYLESHEET
  1

  9
$XEDIT
290
     1
  9
$CEPSNTYPE
380
     0
  9
$PSTYLEMODE
290
     1
  9
$FINGERPRINTGUID
  2
{7E029222-E744-47AA-B324-935E6199BCBE}
  9
$VERSIONGUID
  2
{FAEB1C32-E019-11D5-929B-00C0DF256EC4}
  9
$EXTNAMES
290
     1
  9
$PSVPSCALE
 40
0.0
  9
$OLESTARTUP
290
     0
  9
$SORTENTS
280
   127
  9
$INDEXCTL
280
     0
  9
$HIDETEXT
280
     1
  9
$XCLIPFRAME
290
     0
  9
$HALOGAP
280
     0
  9
$OBSCOLOR
 70
   257
  9
$OBSLTYPE
280
     0
  9
$INTERSECTIONDISPLAY
280
     0
  9
$INTERSECTIONCOLOR
 70
   257
  9
$DIMASSOC
280
     2
  9
$PROJECTNAME
  1

  9
$CAMERADISPLAY
290
     0
  9
$LENSLENGTH
 40
50.0
  9
$CAMERAHEIGHT
 40
0.0
  9
$STEPSPERSEC
 40
2.0
  9
$STEPSIZE
 40
6.0
  9
$3DDWFPREC
 40
2.0
  9
$PSOLWIDTH
 40
0.25
  9
$PSOLHEIGHT
 40
4.0
  9
$LOFTANG1
 40
1.570796326794897
  9
$LOFTANG2
 40
1.570796326794897
  9
$LOFTMAG1
 40
0.0
  9
$LOFTMAG2
 40
0.0
  9
$LOFTPARAM
 70
     7
  9
$LOFTNORMALS
280
     1
  9
$LATITUDE
 40
37.795
  9
$LONGITUDE
 40
-122.394
  9
$NORTHDIRECTION
 40
0.0
  9
$TIMEZONE
 70
 -8000
  9
$LIGHTGLYPHDISPLAY
280
     1
  9
$TILEMODELIGHTSYNCH
280
     1
  9
$CMATERIAL
347
3C
  9
$SOLIDHIST
280
     1
  9
$SHOWHIST
280
     1
  9
$DWFFRAME
280
     2
  9
$DGNFRAME
280
     2
  9
$REALWORLDSCALE
290
     1
  9
$INTERFERECOLOR
 62
   256
  9
$CSHADOW
280
     0
  9
$SHADOWPLANELOCATION
 40
0.0
  0
ENDSEC
  0
SECTION
  2
CLASSES
  0
CLASS
  1
ACDBDICTIONARYWDFLT
  2
AcDbDictionaryWithDefault
  3
ObjectDBX Classes
 90
        0
 91
        4
280
     0
281
     0
  0
CLASS
  1
VISUALSTYLE
  2
AcDbVisualStyle
  3
ObjectDBX Classes
 90
     4095
 91
        4
280
     0
281
     0
  0
CLASS
  1
MATERIAL
  2
AcDbMaterial
  3
ObjectDBX Classes
 90
     1153
 91
        4
280
     0
281
     0
  0
CLASS
  1
SUN
  2
AcDbSun
  3
SCENEOE
 90
     1024
 91
        4
280
     0
281
     0
  0
ENDSEC
  0
SECTION
  2
TABLES
  0
TABLE
  2
VPORT
  5
8
330
0
100
AcDbSymbolTable
 70
     1
  0
VPORT
  5
29
330
8
100
AcDbSymbolTableRecord
100
AcDbViewportTableRecord
  2
*Active
 70
     0
 10
0.0
 20
0.0
 11
1.0
 21
1.0
 12
0.0
 22
0.0
 13
0.0
 23
0.0
 14
0.5
 24
0.5
 15
0.5
 25
0.5
 16
0.0
 26
0.0
 36
1.0
 17
1149.999999712503
 27
649.999999837493
 37
0.0
 40
1299.999999674986
 41
1.769230769230794
 42
50.0
 43
0.0
 44
0.0
 50
0.0
 51
0.0
 71
     0
 72
   100
 73
     1
 74
     3
 75
     0
 76
     0
 77
     0
 78
     0
281
     0
 65
     1
110
0.0
120
0.0
130
0.0
111
1.0
121
0.0
131
0.0
112
0.0
122
1.0
132
0.0
 79
     0
146
0.0
 60
     3
 61
     5
292
     1
282
     1
141
0.0
142
0.0
 63
   250
361
3F
  0
ENDTAB
  0
TABLE
  2
LTYPE
  5
5
330
0
100
AcDbSymbolTable
 70
     1
  0
LTYPE
  5
14
330
5
100
AcDbSymbolTableRecord
100
AcDbLinetypeTableRecord
  2
ByBlock
 70
     0
  3

 72
    65
 73
     0
 40
0.0
  0
LTYPE
  5
15
330
5
100
AcDbSymbolTableRecord
100
AcDbLinetypeTableRecord
  2
ByLayer
 70
     0
  3

 72
    65
 73
     0
 40
0.0
  0
LTYPE
  5
16
330
5
100
AcDbSymbolTableRecord
100
AcDbLinetypeTableRecord
  2
Continuous
 70
     0
  3
Solid line
 72
    65
 73
     0
 40
0.0
  0
ENDTAB
  0
TABLE
  2
LAYER
  5
2
330
0
100
AcDbSymbolTable
 70
     2
  0
LAYER
  5
10
330
2
100
AcDbSymbolTableRecord
100
AcDbLayerTableRecord
  2
0
 70
     0
 62
     7
  6
Continuous
370
    -3
390
F
347
3E
  0
LAYER
  5
40
330
2
100
AcDbSymbolTableRecord
100
AcDbLayerTableRecord
  2
_U+0421_U+043B_U+043E_U+0439 1
 70
     0
 62
     7
  6
Continuous
370
    -3
390
F
347
3E
  0
ENDTAB
  0
TABLE
  2
STYLE
  5
3
330
0
100
AcDbSymbolTable
 70
     1
  0
STYLE
  5
11
330
3
100
AcDbSymbolTableRecord
100
AcDbTextStyleTableRecord
  2
Standard
 70
     0
 40
0.0
 41
1.0
 50
0.0
 71
     0
 42
0.2
  3
txt
  4

  0
ENDTAB
  0
TABLE
  2
VIEW
  5
6
330
0
100
AcDbSymbolTable
 70
     0
  0
ENDTAB
  0
TABLE
  2
UCS
  5
7
330
0
100
AcDbSymbolTable
 70
     0
  0
ENDTAB
  0
TABLE
  2
APPID
  5
9
330
0
100
AcDbSymbolTable
 70
     1
  0
APPID
  5
12
330
9
100
AcDbSymbolTableRecord
100
AcDbRegAppTableRecord
  2
ACAD
 70
     0
  0
ENDTAB
  0
TABLE
  2
DIMSTYLE
  5
A
330
0
100
AcDbSymbolTable
 70
     1
100
AcDbDimStyleTable
  0
DIMSTYLE
105
27
330
A
100
AcDbSymbolTableRecord
100
AcDbDimStyleTableRecord
  2
Standard
 70
     0
178
     0
340
11
  0
ENDTAB
  0
TABLE
  2
BLOCK_RECORD
  5
1
330
0
100
AcDbSymbolTable
 70
     1
  0
BLOCK_RECORD
  5
1F
330
1
100
AcDbSymbolTableRecord
100
AcDbBlockTableRecord
  2
*Model_Space
340
22
 70
     0
280
     1
281
     0
  0
BLOCK_RECORD
  5
1B
330
1
100
AcDbSymbolTableRecord
100
AcDbBlockTableRecord
  2
*Paper_Space
340
1E
 70
     0
280
     1
281
     0
  0
BLOCK_RECORD
  5
23
330
1
100
AcDbSymbolTableRecord
100
AcDbBlockTableRecord
  2
*Paper_Space0
340
26
 70
     0
280
     1
281
     0
  0
ENDTAB
  0
ENDSEC
  0
SECTION
  2
BLOCKS
  0
BLOCK
  5
20
330
1F
100
AcDbEntity
  8
0
100
AcDbBlockBegin
  2
*Model_Space
 70
     0
 10
0.0
 20
0.0
 30
0.0
  3
*Model_Space
  1

  0
ENDBLK
  5
21
330
1F
100
AcDbEntity
  8
0
100
AcDbBlockEnd
  0
BLOCK
  5
1C
330
1B
100
AcDbEntity
 67
     1
  8
0
100
AcDbBlockBegin
  2
*Paper_Space
 70
     0
 10
0.0
 20
0.0
 30
0.0
  3
*Paper_Space
  1

  0
ENDBLK
  5
1D
330
1B
100
AcDbEntity
 67
     1
  8
0
100
AcDbBlockEnd
  0
BLOCK
  5
24
330
23
100
AcDbEntity
  8
0
100
AcDbBlockBegin
  2
*Paper_Space0
 70
     0
 10
0.0
 20
0.0
 30
0.0
  3
*Paper_Space0
  1

  0
ENDBLK
  5
25
330
23
100
AcDbEntity
  8
0
100
AcDbBlockEnd
  0
ENDSEC
  0
SECTION
  2
ENTITIES
  0
SPLINE
  5
41
330
1F
100
AcDbEntity
  8
_U+0421_U+043B_U+043E_U+0439 1
 62
     7
370
     5
100
AcDbSpline
210
0.0
220
0.0
230
1.0
 70
    11
 71
     3
 72
  1292
 73
  1288
 74
     0
 42
0.0000000001
 43
0.0000000001
 12
1.0
 22
0.0
 32
0.0
 13
1.0
 23
0.0
 33
0.0
 40
0.0
 40
0.0
 40
0.0
 40
0.0
 40
1.0
 40
1.0
 40
1.0
 40
2.0
 40
2.0
 40
2.0
 40
3.0
 40
3.0
 40
3.0
 40
4.0
 40
4.0
 40
4.0
 40
5.0
 40
5.0
 40
5.0
 40
6.0
 40
6.0
 40
6.0
 40
7.0
 40
7.0
 40
7.0
 40
8.0
 40
8.0
 40
8.0
 40
9.0
 40
9.0
 40
9.0
 40
10.0
 40
10.0
 40
10.0
 40
11.0
 40
11.0
 40
11.0
 40
12.0
 40
12.0
 40
12.0
 40
13.0
 40
13.0
 40
13.0
 40
14.0
 40
14.0
 40
14.0
 40
15.0
 40
15.0
 40
15.0
 40
16.0
 40
16.0
 40
16.0
 40
17.0
 40
17.0
 40
17.0
 40
18.0
 40
18.0
 40
18.0
 40
19.0
 40
19.0
 40
19.0
 40
20.0
 40
20.0
 40
20.0
 40
21.0
 40
21.0
 40
21.0
 40
22.0
 40
22.0
 40
22.0
 40
23.0
 40
23.0
 40
23.0
 40
24.0
 40
24.0
 40
24.0
 40
25.0
 40
25.0
 40
25.0
 40
26.0
 40
26.0
 40
26.0
 40
27.0
 40
27.0
 40
27.0
 40
28.0
 40
28.0
 40
28.0
 40
29.0
 40
29.0
 40
29.0
 40
30.0
 40
30.0
 40
30.0
 40
31.0
 40
31.0
 40
31.0
 40
32.0
 40
32.0
 40
32.0
 40
33.0
 40
33.0
 40
33.0
 40
34.0
 40
34.0
 40
34.0
 40
35.0
 40
35.0
 40
35.0
 40
36.0
 40
36.0
 40
36.0
 40
37.0
 40
37.0
 40
37.0
 40
38.0
 40
38.0
 40
38.0
 40
39.0
 40
39.0
 40
39.0
 40
40.0
 40
40.0
 40
40.0
 40
41.0
 40
41.0
 40
41.0
 40
42.0
 40
42.0
 40
42.0
 40
43.0
 40
43.0
 40
43.0
 40
44.0
 40
44.0
 40
44.0
 40
45.0
 40
45.0
 40
45.0
 40
46.0
 40
46.0
 40
46.0
 40
47.0
 40
47.0
 40
47.0
 40
48.0
 40
48.0
 40
48.0
 40
49.0
 40
49.0
 40
49.0
 40
50.0
 40
50.0
 40
50.0
 40
51.0
 40
51.0
 40
51.0
 40
52.0
 40
52.0
 40
52.0
 40
53.0
 40
53.0
 40
53.0
 40
54.0
 40
54.0
 40
54.0
 40
55.0
 40
55.0
 40
55.0
 40
56.0
 40
56.0
 40
56.0
 40
57.0
 40
57.0
 40
57.0
 40
58.0
 40
58.0
 40
58.0
 40
59.0
 40
59.0
 40
59.0
 40
60.0
 40
60.0
 40
60.0
 40
61.0
 40
61.0
 40
61.0
 40
62.0
 40
62.0
 40
62.0
 40
63.0
 40
63.0
 40
63.0
 40
64.0
 40
64.0
 40
64.0
 40
65.0
 40
65.0
 40
65.0
 40
66.0
 40
66.0
 40
66.0
 40
67.0
 40
67.0
 40
67.0
 40
68.0
 40
68.0
 40
68.0
 40
69.0
 40
69.0
 40
69.0
 40
70.0
 40
70.0
 40
70.0
 40
71.0
 40
71.0
 40
71.0
 40
72.0
 40
72.0
 40
72.0
 40
73.0
 40
73.0
 40
73.0
 40
74.0
 40
74.0
 40
74.0
 40
75.0
 40
75.0
 40
75.0
 40
76.0
 40
76.0
 40
76.0
 40
77.0
 40
77.0
 40
77.0
 40
78.0
 40
78.0
 40
78.0
 40
79.0
 40
79.0
 40
79.0
 40
80.0
 40
80.0
 40
80.0
 40
81.0
 40
81.0
 40
81.0
 40
82.0
 40
82.0
 40
82.0
 40
83.0
 40
83.0
 40
83.0
 40
84.0
 40
84.0
 40
84.0
 40
85.0
 40
85.0
 40
85.0
 40
86.0
 40
86.0
 40
86.0
 40
87.0
 40
87.0
 40
87.0
 40
88.0
 40
88.0
 40
88.0
 40
89.0
 40
89.0
 40
89.0
 40
90.0
 40
90.0
 40
90.0
 40
91.0
 40
91.0
 40
91.0
 40
92.0
 40
92.0
 40
92.0
 40
93.0
 40
93.0
 40
93.0
 40
94.0
 40
94.0
 40
94.0
 40
95.0
 40
95.0
 40
95.0
 40
96.0
 40
96.0
 40
96.0
 40
97.0
 40
97.0
 40
97.0
 40
98.0
 40
98.0
 40
98.0
 40
99.0
 40
99.0
 40
99.0
 40
100.0
 40
100.0
 40
100.0
 40
101.0
 40
101.0
 40
101.0
 40
102.0
 40
102.0
 40
102.0
 40
103.0
 40
103.0
 40
103.0
 40
104.0
 40
104.0
 40
104.0
 40
105.0
 40
105.0
 40
105.0
 40
106.0
 40
106.0
 40
106.0
 40
107.0
 40
107.0
 40
107.0
 40
108.0
 40
108.0
 40
108.0
 40
109.0
 40
109.0
 40
109.0
 40
110.0
 40
110.0
 40
110.0
 40
111.0
 40
111.0
 40
111.0
 40
112.0
 40
112.0
 40
112.0
 40
113.0
 40
113.0
 40
113.0
 40
114.0
 40
114.0
 40
114.0
 40
115.0
 40
115.0
 40
115.0
 40
116.0
 40
116.0
 40
116.0
 40
117.0
 40
117.0
 40
117.0
 40
118.0
 40
118.0
 40
118.0
 40
119.0
 40
119.0
 40
119.0
 40
120.0
 40
120.0
 40
120.0
 40
121.0
 40
121.0
 40
121.0
 40
122.0
 40
122.0
 40
122.0
 40
123.0
 40
123.0
 40
123.0
 40
124.0
 40
124.0
 40
124.0
 40
125.0
 40
125.0
 40
125.0
 40
126.0
 40
126.0
 40
126.0
 40
127.0
 40
127.0
 40
127.0
 40
128.0
 40
128.0
 40
128.0
 40
129.0
 40
129.0
 40
129.0
 40
130.0
 40
130.0
 40
130.0
 40
131.0
 40
131.0
 40
131.0
 40
132.0
 40
132.0
 40
132.0
 40
133.0
 40
133.0
 40
133.0
 40
134.0
 40
134.0
 40
134.0
 40
135.0
 40
135.0
 40
135.0
 40
136.0
 40
136.0
 40
136.0
 40
137.0
 40
137.0
 40
137.0
 40
138.0
 40
138.0
 40
138.0
 40
139.0
 40
139.0
 40
139.0
 40
140.0
 40
140.0
 40
140.0
 40
141.0
 40
141.0
 40
141.0
 40
142.0
 40
142.0
 40
142.0
 40
143.0
 40
143.0
 40
143.0
 40
144.0
 40
144.0
 40
144.0
 40
145.0
 40
145.0
 40
145.0
 40
146.0
 40
146.0
 40
146.0
 40
147.0
 40
147.0
 40
147.0
 40
148.0
 40
148.0
 40
148.0
 40
149.0
 40
149.0
 40
149.0
 40
150.0
 40
150.0
 40
150.0
 40
151.0
 40
151.0
 40
151.0
 40
152.0
 40
152.0
 40
152.0
 40
153.0
 40
153.0
 40
153.0
 40
154.0
 40
154.0
 40
154.0
 40
155.0
 40
155.0
 40
155.0
 40
156.0
 40
156.0
 40
156.0
 40
157.0
 40
157.0
 40
157.0
 40
158.0
 40
158.0
 40
158.0
 40
159.0
 40
159.0
 40
159.0
 40
160.0
 40
160.0
 40
160.0
 40
161.0
 40
161.0
 40
161.0
 40
162.0
 40
162.0
 40
162.0
 40
163.0
 40
163.0
 40
163.0
 40
164.0
 40
164.0
 40
164.0
 40
165.0
 40
165.0
 40
165.0
 40
166.0
 40
166.0
 40
166.0
 40
167.0
 40
167.0
 40
167.0
 40
168.0
 40
168.0
 40
168.0
 40
169.0
 40
169.0
 40
169.0
 40
170.0
 40
170.0
 40
170.0
 40
171.0
 40
171.0
 40
171.0
 40
172.0
 40
172.0
 40
172.0
 40
173.0
 40
173.0
 40
173.0
 40
174.0
 40
174.0
 40
174.0
 40
175.0
 40
175.0
 40
175.0
 40
176.0
 40
176.0
 40
176.0
 40
177.0
 40
177.0
 40
177.0
 40
178.0
 40
178.0
 40
178.0
 40
179.0
 40
179.0
 40
179.0
 40
180.0
 40
180.0
 40
180.0
 40
181.0
 40
181.0
 40
181.0
 40
182.0
 40
182.0
 40
182.0
 40
183.0
 40
183.0
 40
183.0
 40
184.0
 40
184.0
 40
184.0
 40
185.0
 40
185.0
 40
185.0
 40
186.0
 40
186.0
 40
186.0
 40
187.0
 40
187.0
 40
187.0
 40
188.0
 40
188.0
 40
188.0
 40
189.0
 40
189.0
 40
189.0
 40
190.0
 40
190.0
 40
190.0
 40
191.0
 40
191.0
 40
191.0
 40
192.0
 40
192.0
 40
192.0
 40
193.0
 40
193.0
 40
193.0
 40
194.0
 40
194.0
 40
194.0
 40
195.0
 40
195.0
 40
195.0
 40
196.0
 40
196.0
 40
196.0
 40
197.0
 40
197.0
 40
197.0
 40
198.0
 40
198.0
 40
198.0
 40
199.0
 40
199.0
 40
199.0
 40
200.0
 40
200.0
 40
200.0
 40
201.0
 40
201.0
 40
201.0
 40
202.0
 40
202.0
 40
202.0
 40
203.0
 40
203.0
 40
203.0
 40
204.0
 40
204.0
 40
204.0
 40
205.0
 40
205.0
 40
205.0
 40
206.0
 40
206.0
 40
206.0
 40
207.0
 40
207.0
 40
207.0
 40
208.0
 40
208.0
 40
208.0
 40
209.0
 40
209.0
 40
209.0
 40
210.0
 40
210.0
 40
210.0
 40
211.0
 40
211.0
 40
211.0
 40
212.0
 40
212.0
 40
212.0
 40
213.0
 40
213.0
 40
213.0
 40
214.0
 40
214.0
 40
214.0
 40
215.0
 40
215.0
 40
215.0
 40
216.0
 40
216.0
 40
216.0
 40
217.0
 40
217.0
 40
217.0
 40
218.0
 40
218.0
 40
218.0
 40
219.0
 40
219.0
 40
219.0
 40
220.0
 40
220.0
 40
220.0
 40
221.0
 40
221.0
 40
221.0
 40
222.0
 40
222.0
 40
222.0
 40
223.0
 40
223.0
 40
223.0
 40
224.0
 40
224.0
 40
224.0
 40
225.0
 40
225.0
 40
225.0
 40
226.0
 40
226.0
 40
226.0
 40
227.0
 40
227.0
 40
227.0
 40
228.0
 40
228.0
 40
228.0
 40
229.0
 40
229.0
 40
229.0
 40
230.0
 40
230.0
 40
230.0
 40
231.0
 40
231.0
 40
231.0
 40
232.0
 40
232.0
 40
232.0
 40
233.0
 40
233.0
 40
233.0
 40
234.0
 40
234.0
 40
234.0
 40
235.0
 40
235.0
 40
235.0
 40
236.0
 40
236.0
 40
236.0
 40
237.0
 40
237.0
 40
237.0
 40
238.0
 40
238.0
 40
238.0
 40
239.0
 40
239.0
 40
239.0
 40
240.0
 40
240.0
 40
240.0
 40
241.0
 40
241.0
 40
241.0
 40
242.0
 40
242.0
 40
242.0
 40
243.0
 40
243.0
 40
243.0
 40
244.0
 40
244.0
 40
244.0
 40
245.0
 40
245.0
 40
245.0
 40
246.0
 40
246.0
 40
246.0
 40
247.0
 40
247.0
 40
247.0
 40
248.0
 40
248.0
 40
248.0
 40
249.0
 40
249.0
 40
249.0
 40
250.0
 40
250.0
 40
250.0
 40
251.0
 40
251.0
 40
251.0
 40
252.0
 40
252.0
 40
252.0
 40
253.0
 40
253.0
 40
253.0
 40
254.0
 40
254.0
 40
254.0
 40
255.0
 40
255.0
 40
255.0
 40
256.0
 40
256.0
 40
256.0
 40
257.0
 40
257.0
 40
257.0
 40
258.0
 40
258.0
 40
258.0
 40
259.0
 40
259.0
 40
259.0
 40
260.0
 40
260.0
 40
260.0
 40
261.0
 40
261.0
 40
261.0
 40
262.0
 40
262.0
 40
262.0
 40
263.0
 40
263.0
 40
263.0
 40
264.0
 40
264.0
 40
264.0
 40
265.0
 40
265.0
 40
265.0
 40
266.0
 40
266.0
 40
266.0
 40
267.0
 40
267.0
 40
267.0
 40
268.0
 40
268.0
 40
268.0
 40
269.0
 40
269.0
 40
269.0
 40
270.0
 40
270.0
 40
270.0
 40
271.0
 40
271.0
 40
271.0
 40
272.0
 40
272.0
 40
272.0
 40
273.0
 40
273.0
 40
273.0
 40
274.0
 40
274.0
 40
274.0
 40
275.0
 40
275.0
 40
275.0
 40
276.0
 40
276.0
 40
276.0
 40
277.0
 40
277.0
 40
277.0
 40
278.0
 40
278.0
 40
278.0
 40
279.0
 40
279.0
 40
279.0
 40
280.0
 40
280.0
 40
280.0
 40
281.0
 40
281.0
 40
281.0
 40
282.0
 40
282.0
 40
282.0
 40
283.0
 40
283.0
 40
283.0
 40
284.0
 40
284.0
 40
284.0
 40
285.0
 40
285.0
 40
285.0
 40
286.0
 40
286.0
 40
286.0
 40
287.0
 40
287.0
 40
287.0
 40
288.0
 40
288.0
 40
288.0
 40
289.0
 40
289.0
 40
289.0
 40
290.0
 40
290.0
 40
290.0
 40
291.0
 40
291.0
 40
291.0
 40
292.0
 40
292.0
 40
292.0
 40
293.0
 40
293.0
 40
293.0
 40
294.0
 40
294.0
 40
294.0
 40
295.0
 40
295.0
 40
295.0
 40
296.0
 40
296.0
 40
296.0
 40
297.0
 40
297.0
 40
297.0
 40
298.0
 40
298.0
 40
298.0
 40
299.0
 40
299.0
 40
299.0
 40
300.0
 40
300.0
 40
300.0
 40
301.0
 40
301.0
 40
301.0
 40
302.0
 40
302.0
 40
302.0
 40
303.0
 40
303.0
 40
303.0
 40
304.0
 40
304.0
 40
304.0
 40
305.0
 40
305.0
 40
305.0
 40
306.0
 40
306.0
 40
306.0
 40
307.0
 40
307.0
 40
307.0
 40
308.0
 40
308.0
 40
308.0
 40
309.0
 40
309.0
 40
309.0
 40
310.0
 40
310.0
 40
310.0
 40
311.0
 40
311.0
 40
311.0
 40
312.0
 40
312.0
 40
312.0
 40
313.0
 40
313.0
 40
313.0
 40
314.0
 40
314.0
 40
314.0
 40
315.0
 40
315.0
 40
315.0
 40
316.0
 40
316.0
 40
316.0
 40
317.0
 40
317.0
 40
317.0
 40
318.0
 40
318.0
 40
318.0
 40
319.0
 40
319.0
 40
319.0
 40
320.0
 40
320.0
 40
320.0
 40
321.0
 40
321.0
 40
321.0
 40
322.0
 40
322.0
 40
322.0
 40
323.0
 40
323.0
 40
323.0
 40
324.0
 40
324.0
 40
324.0
 40
325.0
 40
325.0
 40
325.0
 40
326.0
 40
326.0
 40
326.0
 40
327.0
 40
327.0
 40
327.0
 40
328.0
 40
328.0
 40
328.0
 40
329.0
 40
329.0
 40
329.0
 40
330.0
 40
330.0
 40
330.0
 40
331.0
 40
331.0
 40
331.0
 40
332.0
 40
332.0
 40
332.0
 40
333.0
 40
333.0
 40
333.0
 40
334.0
 40
334.0
 40
334.0
 40
335.0
 40
335.0
 40
335.0
 40
336.0
 40
336.0
 40
336.0
 40
337.0
 40
337.0
 40
337.0
 40
338.0
 40
338.0
 40
338.0
 40
339.0
 40
339.0
 40
339.0
 40
340.0
 40
340.0
 40
340.0
 40
341.0
 40
341.0
 40
341.0
 40
342.0
 40
342.0
 40
342.0
 40
343.0
 40
343.0
 40
343.0
 40
344.0
 40
344.0
 40
344.0
 40
345.0
 40
345.0
 40
345.0
 40
346.0
 40
346.0
 40
346.0
 40
347.0
 40
347.0
 40
347.0
 40
348.0
 40
348.0
 40
348.0
 40
349.0
 40
349.0
 40
349.0
 40
350.0
 40
350.0
 40
350.0
 40
351.0
 40
351.0
 40
351.0
 40
352.0
 40
352.0
 40
352.0
 40
353.0
 40
353.0
 40
353.0
 40
354.0
 40
354.0
 40
354.0
 40
355.0
 40
355.0
 40
355.0
 40
356.0
 40
356.0
 40
356.0
 40
357.0
 40
357.0
 40
357.0
 40
358.0
 40
358.0
 40
358.0
 40
359.0
 40
359.0
 40
359.0
 40
360.0
 40
360.0
 40
360.0
 40
361.0
 40
361.0
 40
361.0
 40
362.0
 40
362.0
 40
362.0
 40
363.0
 40
363.0
 40
363.0
 40
364.0
 40
364.0
 40
364.0
 40
365.0
 40
365.0
 40
365.0
 40
366.0
 40
366.0
 40
366.0
 40
367.0
 40
367.0
 40
367.0
 40
368.0
 40
368.0
 40
368.0
 40
369.0
 40
369.0
 40
369.0
 40
370.0
 40
370.0
 40
370.0
 40
371.0
 40
371.0
 40
371.0
 40
372.0
 40
372.0
 40
372.0
 40
373.0
 40
373.0
 40
373.0
 40
374.0
 40
374.0
 40
374.0
 40
375.0
 40
375.0
 40
375.0
 40
376.0
 40
376.0
 40
376.0
 40
377.0
 40
377.0
 40
377.0
 40
378.0
 40
378.0
 40
378.0
 40
379.0
 40
379.0
 40
379.0
 40
380.0
 40
380.0
 40
380.0
 40
381.0
 40
381.0
 40
381.0
 40
382.0
 40
382.0
 40
382.0
 40
383.0
 40
383.0
 40
383.0
 40
384.0
 40
384.0
 40
384.0
 40
385.0
 40
385.0
 40
385.0
 40
386.0
 40
386.0
 40
386.0
 40
387.0
 40
387.0
 40
387.0
 40
388.0
 40
388.0
 40
388.0
 40
389.0
 40
389.0
 40
389.0
 40
390.0
 40
390.0
 40
390.0
 40
391.0
 40
391.0
 40
391.0
 40
392.0
 40
392.0
 40
392.0
 40
393.0
 40
393.0
 40
393.0
 40
394.0
 40
394.0
 40
394.0
 40
395.0
 40
395.0
 40
395.0
 40
396.0
 40
396.0
 40
396.0
 40
397.0
 40
397.0
 40
397.0
 40
398.0
 40
398.0
 40
398.0
 40
399.0
 40
399.0
 40
399.0
 40
400.0
 40
400.0
 40
400.0
 40
401.0
 40
401.0
 40
401.0
 40
402.0
 40
402.0
 40
402.0
 40
403.0
 40
403.0
 40
403.0
 40
404.0
 40
404.0
 40
404.0
 40
405.0
 40
405.0
 40
405.0
 40
406.0
 40
406.0
 40
406.0
 40
407.0
 40
407.0
 40
407.0
 40
408.0
 40
408.0
 40
408.0
 40
409.0
 40
409.0
 40
409.0
 40
410.0
 40
410.0
 40
410.0
 40
411.0
 40
411.0
 40
411.0
 40
412.0
 40
412.0
 40
412.0
 40
413.0
 40
413.0
 40
413.0
 40
414.0
 40
414.0
 40
414.0
 40
415.0
 40
415.0
 40
415.0
 40
416.0
 40
416.0
 40
416.0
 40
417.0
 40
417.0
 40
417.0
 40
418.0
 40
418.0
 40
418.0
 40
419.0
 40
419.0
 40
419.0
 40
420.0
 40
420.0
 40
420.0
 40
421.0
 40
421.0
 40
421.0
 40
422.0
 40
422.0
 40
422.0
 40
423.0
 40
423.0
 40
423.0
 40
424.0
 40
424.0
 40
424.0
 40
425.0
 40
425.0
 40
425.0
 40
426.0
 40
426.0
 40
426.0
 40
427.0
 40
427.0
 40
427.0
 40
428.0
 40
428.0
 40
428.0
 40
429.0
 40
429.0
 40
429.0
 40
429.0
 10
1303.33405457868
 20
592.2121722966084
 30
0.0
 10
1301.940599582284
 20
592.7307452945257
 30
0.0
 10
1300.522426025781
 20
593.2387676875194
 30
0.0
 10
1299.076088813686
 20
593.7397276347682
 30
0.0
 10
1295.382429689175
 20
595.0308632952527
 30
0.0
 10
1291.519530248952
 20
596.2655855171663
 30
0.0
 10
1287.494366811373
 20
597.4474255233812
 30
0.0
 10
1286.270238258077
 20
597.8142851288668
 30
0.0
 10
1285.031984813291
 20
598.1705941294288
 30
0.0
 10
1283.776075254143
 20
598.5233719071183
 30
0.0
 10
1278.71014847047
 20
599.9415454636214
 30
0.0
 10
1273.404443041024
 20
601.285606403498
 30
0.0
 10
1267.886950366622
 20
602.5415159626459
 30
0.0
 10
1265.8337595848
 20
603.0107379677369
 30
0.0
 10
1263.748873924514
 20
603.4657920176448
 30
0.0
 10
1261.635738481249
 20
603.9067642397569
 30
0.0
 10
1258.721790592438
 20
604.5205941278413
 30
0.0
 10
1255.751429265055
 20
605.1062172966401
 30
0.0
 10
1252.728099594587
 20
605.6706531282048
 30
0.0
 10
1251.161786932218
 20
605.9669744036298
 30
0.0
 10
1249.58134937836
 20
606.2527450741313
 30
0.0
 10
1247.986786933012
 20
606.531453298888
 30
0.0
 10
1247.341176039076
 20
606.6443232397235
 30
0.0
 10
1246.688588826783
 20
606.7536619576866
 30
0.0
 10
1246.039446709975
 20
606.8665749622156
 30
0.0
 10
1246.392224487664
 20
607.0606199654223
 30
0.0
 10
1246.674463935293
 20
607.3110784072001
 30
0.0
 10
1246.882547702602
 20
607.5297989068198
 30
0.0
 10
1246.96367970128
 20
607.5721305175948
 30
0.0
 10
1247.13300614438
 20
607.6815122992515
 30
0.0
 10
1247.224731811675
 20
607.893127289433
 30
0.0
 10
1247.238856703164
 20
607.921377072412
 30
0.0
 10
1247.260044040398
 20
607.977790510983
 30
0.0
 10
1247.274168931888
 20
608.0519031276094
 30
0.0
 10
1247.327051147587
 20
608.4011496824266
 30
0.0
 10
1247.044811699958
 20
608.6798148434898
 30
0.0
 10
1247.020179267238
 20
608.7045334035964
 30
0.0
 10
1246.970742147025
 20
608.7503962372439
 30
0.0
 10
1246.893141371219
 20
608.7997902937636
 30
0.0
 10
1246.741471042481
 20
608.8985784068032
 30
0.0
 10
1246.741471042481
 20
608.8985784068032
 30
0.0
 10
1246.617964369335
 20
608.9832416283532
 30
0.0
 10
1246.487481377831
 20
609.0502487355412
 30
0.0
 10
1244.797662042316
 20
609.93925562551
 30
0.0
 10
1243.093717815312
 20
610.8035439553721
 30
0.0
 10
1241.396922161439
 20
611.6819571767236
 30
0.0
 10
1240.744248821758
 20
612.0171219037449
 30
0.0
 10
1240.1797699265
 20
612.3522866307661
 30
0.0
 10
1240.063325699099
 20
613.2306998521177
 30
0.0
 10
1240.013974706273
 20
613.5834776298072
 30
0.0
 10
1239.442519492657
 20
614.0385316797152
 30
0.0
 10
1239.036859499269
 20
614.1373197927547
 30
0.0
 10
1237.406984825197
 20
614.528897958347
 30
0.0
 10
1236.052373280397
 20
615.4002487339537
 30
0.0
 10
1234.680019493847
 20
616.2963180696672
 30
0.0
 10
1233.801520145109
 20
616.871347569849
 30
0.0
 10
1232.831381256462
 20
617.523977845836
 30
0.0
 10
1231.840227285356
 20
617.6545039010334
 30
0.0
 10
1229.490672164416
 20
617.964950067948
 30
0.0
 10
1227.109422165011
 20
617.9861374051823
 30
0.0
 10
1224.738679706836
 20
618.1131322375073
 30
0.0
 10
1222.301102396248
 20
618.2436582927047
 30
0.0
 10
1219.852845289655
 20
618.2471895155771
 30
0.0
 10
1217.436283061526
 20
618.5294289632062
 30
0.0
 10
1215.644144390099
 20
618.7375127305153
 30
0.0
 10
1215.125485264795
 20
619.4007797388131
 30
0.0
 10
1214.995088400678
 20
621.1964065694189
 30
0.0
 10
1214.825761957578
 20
623.5670629002063
 30
0.0
 10
1214.79389482434
 20
625.9483128996111
 30
0.0
 10
1214.691575488428
 20
628.3225435169645
 30
0.0
 10
1214.663325705449
 20
628.9328421821765
 30
0.0
 10
1214.970283713184
 20
629.2256322347292
 30
0.0
 10
1215.527700162698
 20
629.1974255154437
 30
0.0
 10
1218.096018846952
 20
629.07745006517
 30
0.0
 10
1218.783832160582
 20
628.9116548449423
 30
0.0
 10
1218.783832160582
 20
628.9116548449423
 30
0.0
 10
1220.508963724821
 20
628.8693232341673
 30
0.0
 10
1221.874255065625
 20
628.7775975668725
 30
0.0
 10
1222.816144171293
 20
628.6964655681949
 30
0.0
 10
1223.436950377735
 20
628.6435402888027
 30
0.0
 10
1224.11081105465
 20
628.5765331816145
 30
0.0
 10
1224.953998174664
 20
628.3507071725564
 30
0.0
 10
1225.641811488294
 20
628.1672989016605
 30
0.0
 10
1226.181657950833
 20
627.9485784020407
 30
0.0
 10
1226.410929055377
 20
627.8533215118736
 30
0.0
 10
1227.084789732291
 20
627.5710820642444
 30
0.0
 10
1227.158859285224
 20
627.4617433462813
 30
0.0
 10
1227.765540600177
 20
627.186566344397
 30
0.0
 10
1228.781499258777
 20
626.7279810716167
 30
0.0
 10
1229.289650842851
 20
626.4986238396862
 30
0.0
 10
1229.832770146101
 20
626.5832870612362
 30
0.0
 10
1230.407928837363
 20
626.6750127285309
 30
0.0
 10
1230.397249041359
 20
627.0137086784246
 30
0.0
 10
1231.614401276298
 20
628.0473665150802
 30
0.0
 10
1232.764374149274
 20
629.0245678494713
 30
0.0
 10
1233.339532840537
 20
629.5184222872819
 30
0.0
 10
1234.119157948849
 20
629.6172104003214
 30
0.0
 10
1234.676574398362
 20
629.6877487303819
 30
0.0
 10
1235.138561702934
 20
629.5748787895465
 30
0.0
 10
1235.385575049227
 20
629.8888561793334
 30
0.0
 10
1235.625525949774
 20
630.1922399005032
 30
0.0
 10
1235.487894385139
 20
630.6578876190283
 30
0.0
 10
1235.442074615185
 20
630.8448701764902
 30
0.0
 10
1235.113929270215
 20
632.1889741800604
 30
0.0
 10
1235.992428618953
 20
633.2719830095423
 30
0.0
 10
1236.768436377006
 20
635.4203876178376
 30
0.0
 10
1237.780949940121
 20
638.2249537249924
 30
0.0
 10
1237.357547704984
 20
640.7297103975433
 30
0.0
 10
1235.184553727662
 20
642.7475889506412
 30
0.0
 10
1233.939151709744
 20
643.9047103967496
 30
0.0
 10
1232.468095937543
 20
644.8501307252892
 30
0.0
 10
1231.007547706571
 20
645.7462000610027
 30
0.0
 10
1229.899949508063
 20
646.4270370562753
 30
0.0
 10
1228.65110239466
 20
646.875071724132
 30
0.0
 10
1227.4621999427
 20
647.4254257279006
 30
0.0
 10
1228.294707266711
 20
647.3513561749677
 30
0.0
 10
1229.645873716026
 20
647.2031740054084
 30
0.0
 10
1231.279193485583
 20
646.8821341698767
 30
0.0
 10
1232.838443702207
 20
646.5787935124005
 30
0.0
 10
1238.038470827643
 20
646.2471600082516
 30
0.0
 10
1245.958314711297
 20
641.0225435137895
 30
0.0
 10
1247.895061265717
 20
639.7454466174074
 30
0.0
 10
1249.757738267205
 20
638.369647735373
 30
0.0
 10
1251.997825479101
 20
637.6111238369081
 30
0.0
 10
1255.663234820633
 20
636.3728703921221
 30
0.0
 10
1259.497884477877
 20
636.1541929561959
 30
0.0
 10
1263.283183142296
 20
635.6638266775641
 30
0.0
 10
1267.047380596867
 20
635.1769916218047
 30
0.0
 10
1270.797367032561
 20
634.7042383938414
 30
0.0
 10
1274.466221469578
 20
633.635354455849
 30
0.0
 10
1276.187821810944
 20
633.1308632857277
 30
0.0
 10
1277.380255485777
 20
632.2136496764736
 30
0.0
 10
1278.315082145699
 20
630.7178753441651
 30
0.0
 10
1278.643141363282
 20
630.1887086776308
 30
0.0
 10
1279.398047911487
 20
629.8570751734819
 30
0.0
 10
1280.026088818448
 20
629.6066167317043
 30
0.0
 10
1280.463443690301
 20
629.4337590657319
 30
0.0
 10
1281.017328916942
 20
629.5889606173424
 30
0.0
 10
1281.514714577625
 20
629.5466720702609
 30
0.0
 10
1283.878394590055
 20
629.3526270670542
 30
0.0
 10
1286.301933136541
 20
629.3949586778292
 30
0.0
 10
1288.587926245778
 20
628.8657920112948
 30
0.0
 10
1291.314977704515
 20
628.2343490725422
 30
0.0
 10
1294.024286921503
 20
627.6522140629221
 30
0.0
 10
1296.811196914296
 20
627.3876307296548
 30
0.0
 10
1297.982443251893
 20
627.2782920116917
 30
0.0
 10
1298.977214573259
 20
627.5816757328615
 30
0.0
 10
1299.915658583441
 20
628.2096305124355
 30
0.0
 10
1300.734127143349
 20
628.7564532933318
 30
0.0
 10
1300.822321587772
 20
629.3878962320845
 30
0.0
 10
1300.088516249414
 20
630.0546513995611
 30
0.0
 10
1299.418186795371
 20
630.664950064773
 30
0.0
 10
1298.691530030145
 20
631.2258977371588
 30
0.0
 10
1297.93300613168
 20
631.7232833978418
 30
0.0
 10
1293.068186796959
 20
634.8912209513032
 30
0.0
 10
1287.610811038775
 20
636.7150975648881
 30
0.0
 10
1282.142755484586
 20
638.4472485111781
 30
0.0
 10
1280.279992355711
 20
639.0398910620282
 30
0.0
 10
1278.219825255532
 20
638.9905400692021
 30
0.0
 10
1276.332429693938
 20
639.5232379586088
 30
0.0
 10
1271.506453810813
 20
640.8884431720262
 30
0.0
 10
1266.708727710667
 20
642.3524795621767
 30
0.0
 10
1261.939165266112
 20
643.8976479510047
 30
0.0
 10
1256.079488482638
 20
645.7991253403949
 30
0.0
 10
1250.586714368343
 20
648.4520211188116
 30
0.0
 10
1245.76426970809
 20
652.3501897240652
 30
0.0
 10
1245.376179701677
 20
652.6676983367246
 30
0.0
 10
1244.885856486739
 20
653.267446397013
 30
0.0
 10
1244.94226992531
 20
653.6660439446564
 30
0.0
 10
1245.224509372939
 20
655.7227659493506
 30
0.0
 10
1244.508360148942
 20
657.4619362776918
 30
0.0
 10
1243.612290813229
 20
659.2328876118845
 30
0.0
 10
1241.481499255602
 20
663.423932397078
 30
0.0
 10
1239.301442832536
 20
667.600766163395
 30
0.0
 10
1237.389414838222
 20
671.8940872208069
 30
0.0
 10
1234.824713504228
 20
677.6514016046757
 30
0.0
 10
1232.436401059078
 20
683.4898910509157
 30
0.0
 10
1230.076338396908
 20
689.3354429429005
 30
0.0
 10
1228.823873933246
 20
692.4433927712251
 30
0.0
 10
1226.029901494708
 20
693.7698406604335
 30
0.0
 10
1222.777214592309
 20
693.2089360517411
 30
0.0
 10
1218.166471049625
 20
692.4116548290673
 30
0.0
 10
1214.730505067411
 20
689.4729883801491
 30
0.0
 10
1211.735339052535
 20
686.2697816616574
 30
0.0
 10
1207.932470401142
 20
682.1987553904313
 30
0.0
 10
1204.633963728789
 20
677.6549328275481
 30
0.0
 10
1201.095506155889
 20
673.3334050508507
 30
0.0
 10
1200.816797931133
 20
672.9912209417782
 30
0.0
 10
1200.386505505025
 20
672.5855609483901
 30
0.0
 10
1200.002032848871
 20
672.5537799425387
 30
0.0
 10
1198.167519502975
 20
672.4056408366729
 30
0.0
 10
1196.65064396082
 20
671.5166339467042
 30
0.0
 10
1195.168908392614
 20
670.5852954459605
 30
0.0
 10
1194.593921956126
 20
670.2219239996538
 30
0.0
 10
1194.198769503968
 20
669.5551688321772
 30
0.0
 10
1193.750734836111
 20
669.0013266692297
 30
0.0
 10
1192.992297065033
 20
668.0629257227413
 30
0.0
 10
1192.371318603817
 20
666.9728544475146
 30
0.0
 10
1191.485929064108
 20
666.1825926068918
 30
0.0
 10
1189.171686171891
 20
664.1153630609678
 30
0.0
 10
1187.280845514812
 20
661.7376442844354
 30
0.0
 10
1186.201324844509
 20
658.8448406691647
 30
0.0
 10
1184.64551972337
 20
654.675026284899
 30
0.0
 10
1183.305033070059
 20
650.424036838262
 30
0.0
 10
1181.826914852113
 20
646.2260157347109
 30
0.0
 10
1181.325825713783
 20
644.7937172867182
 30
0.0
 10
1181.59402639731
 20
643.5201516132086
 30
0.0
 10
1182.303027048174
 20
642.2607538948819
 30
0.0
 10
1183.682443280468
 20
639.8054343425443
 30
0.0
 10
1185.435824627686
 20
637.6499672885042
 30
0.0
 10
1187.443109512167
 20
635.6849709511048
 30
0.0
 10
1189.736165067149
 20
633.4448406755147
 30
0.0
 10
1192.357193712327
 20
631.800884173647
 30
0.0
 10
1195.532193711534
 20
631.134172069864
 30
0.0
 10
1197.063366399953
 20
630.8131322343323
 30
0.0
 10
1198.601429279343
 20
630.5203421817797
 30
0.0
 10
1200.121922171758
 20
630.1428458439834
 30
0.0
 10
1201.275512394994
 20
629.8570751734819
 30
0.0
 10
1201.342519502182
 20
629.6560107882241
 30
0.0
 10
1200.972171737517
 20
628.5624082901251
 30
0.0
 10
1200.019602835846
 20
625.7437172914807
 30
0.0
 10
1199.038956405969
 20
622.9285575157089
 30
0.0
 10
1198.125144828507
 20
620.0957416255751
 30
0.0
 10
1197.32794973322
 20
617.6192347360032
 30
0.0
 10
1197.211505505819
 20
615.139196623559
 30
0.0
 10
1197.909998615453
 20
612.7015331855833
 30
0.0
 10
1194.30108883988
 20
612.9801983466465
 30
0.0
 10
1190.649804389838
 20
613.223637406373
 30
0.0
 10
1186.966825061331
 20
613.435295460248
 30
0.0
 10
1186.582352405177
 20
613.8938807330283
 30
0.0
 10
1186.15895017004
 20
614.3277905093955
 30
0.0
 10
1185.717977947928
 20
614.7335366301708
 30
0.0
 10
1184.278617054191
 20
616.0493908507619
 30
0.0
 10
1183.068699519771
 20
617.5416339601979
 30
0.0
 10
1182.669929717353
 20
619.485442960363
 30
0.0
 10
1181.819852406368
 20
623.634113071088
 30
0.0
 10
1180.782706410534
 20
627.7721895131958
 30
0.0
 10
1180.323991946673
 20
631.9702106167471
 30
0.0
 10
1179.618436391293
 20
638.4401860654334
 30
0.0
 10
1179.410352623984
 20
644.9595125069459
 30
0.0
 10
1178.845873728726
 20
651.4471010063006
 30
0.0
 10
1178.577845299974
 20
654.4951061731819
 30
0.0
 10
1178.397839060869
 20
657.5149046207775
 30
0.0
 10
1178.88118595745
 20
660.5487418324757
 30
0.0
 10
1179.38554793649
 20
663.734335500299
 30
0.0
 10
1179.770192847419
 20
666.9375852824844
 30
0.0
 10
1181.191811499407
 20
669.900884164122
 30
0.0
 10
1182.602922610165
 20
672.8360193901677
 30
0.0
 10
1183.947026613735
 20
675.8028494946778
 30
0.0
 10
1184.275171958706
 20
679.1048873899026
 30
0.0
 10
1184.289296850195
 20
679.249495272896
 30
0.0
 10
1184.359749052868
 20
679.3906149967105
 30
0.0
 10
1184.387998835848
 20
679.5352659433975
 30
0.0
 10
1184.751456409541
 20
681.323873391952
 30
0.0
 10
1185.83442217533
 20
682.516220939397
 30
0.0
 10
1187.478421740891
 20
683.2182452719038
 30
0.0
 10
1188.106290393078
 20
683.4863598280434
 30
0.0
 10
1188.758963732758
 20
683.7051233913568
 30
0.0
 10
1189.415082167924
 20
683.9061877766146
 30
0.0
 10
1190.526297716691
 20
684.2483718856871
 30
0.0
 10
1191.694012831417
 20
684.4459050480726
 30
0.0
 10
1192.755963514745
 20
684.9010021616741
 30
0.0
 10
1195.179415933844
 20
685.9452106032533
 30
0.0
 10
1197.652477727931
 20
686.7919289461406
 30
0.0
 10
1200.241811494644
 20
687.3140331669302
 30
0.0
 10
1202.009317733352
 20
687.6703421674922
 30
0.0
 10
1203.526193275507
 20
688.5205056058647
 30
0.0
 10
1204.887867266052
 20
689.6988143892073
 30
0.0
 10
1208.246318599848
 20
692.6127622780187
 30
0.0
 10
1210.186596377141
 20
696.4051233881818
 30
0.0
 10
1211.714151715301
 20
700.476149659408
 30
0.0
 10
1212.846554601302
 20
703.4923738204377
 30
0.0
 10
1213.121817730574
 20
706.4909849307992
 30
0.0
 10
1211.894157954405
 20
709.5601774349146
 30
0.0
 10
1210.998088618692
 20
711.79324526476
 30
0.0
 10
1211.340186600377
 20
713.9310992681318
 30
0.0
 10
1212.522026606592
 20
716.0054343234943
 30
0.0
 10
1215.037290820373
 20
720.4045628759969
 30
0.0
 10
1216.896436598988
 20
725.1000127039247
 30
0.0
 10
1218.434671733152
 20
729.908418600075
 30
0.0
 10
1219.111977505552
 20
732.0250852662125
 30
0.0
 10
1219.478880174731
 20
734.2545788094919
 30
0.0
 10
1219.828040602161
 20
736.4594399200519
 30
0.0
 10
1220.19494327134
 20
738.787807703758
 30
0.0
 10
1219.35881859707
 20
740.6292973680111
 30
0.0
 10
1217.139832595021
 20
741.6876307010799
 30
0.0
 10
1214.906893956256
 20
742.7530264798934
 30
0.0
 10
1212.709095291441
 20
743.9101479260016
 30
0.0
 10
1210.416039736459
 20
744.8379121401795
 30
0.0
 10
1207.932470401142
 20
745.846894480422
 30
0.0
 10
1205.342964379654
 20
746.6018010286274
 30
0.0
 10
1202.831317516132
 20
747.5437762616818
 30
0.0
 10
1201.921123288929
 20
747.8859603707542
 30
0.0
 10
1201.063811277425
 20
748.4010021457991
 30
0.0
 10
1200.252491290649
 20
748.944293703823
 30
0.0
 10
1199.659762612411
 20
749.3394461559811
 30
0.0
 10
1199.504561060801
 20
750.023814374126
 30
0.0
 10
1199.705582382365
 20
750.7152450380157
 30
0.0
 10
1199.906775958704
 20
751.4172693705225
 30
0.0
 10
1200.495887286682
 20
751.6606653665553
 30
0.0
 10
1201.155623072107
 20
751.7065712638963
 30
0.0
 10
1202.019825274582
 20
751.7629847024673
 30
0.0
 10
1202.887644827316
 20
751.7629847024673
 30
0.0
 10
1203.752019284565
 20
751.8052732495487
 30
0.0
 10
1205.14194305809
 20
751.8688352612515
 30
0.0
 10
1205.667492374364
 20
752.2639015860226
 30
0.0
 10
1206.076769718012
 20
753.6009431438481
 30
0.0
 10
1206.260221052602
 20
754.2006481404429
 30
0.0
 10
1206.387172821233
 20
754.8180092513996
 30
0.0
 10
1206.503617048635
 20
755.4319252668712
 30
0.0
 10
1206.997471486445
 20
757.9754392636312
 30
0.0
 10
1208.292310624576
 20
760.0320751409382
 30
0.0
 10
1210.285470617568
 20
761.6548873692651
 30
0.0
 10
1210.976901281457
 20
762.2192801371361
 30
0.0
 10
1211.74240149828
 20
762.695564587972
 30
0.0
 10
1212.451574403918
 20
763.2423873688682
 30
0.0
 10
1212.970061274448
 20
763.644516139384
 30
0.0
 10
1213.516797927958
 20
764.0361373686699
 30
0.0
 10
1213.92263017612
 20
764.5370542522252
 30
0.0
 10
1214.162408821893
 20
764.8369498142162
 30
0.0
 10
1214.328290169508
 20
765.397897486602
 30
0.0
 10
1214.208400846622
 20
765.7259567041849
 30
0.0
 10
1214.11658905194
 20
765.9764151459625
 30
0.0
 10
1213.492165495238
 20
766.2268735877402
 30
0.0
 10
1213.164020150268
 20
766.1669289262968
 30
0.0
 10
1211.767033930999
 20
765.9093219113873
 30
0.0
 10
1210.236033497354
 20
765.8106199257348
 30
0.0
 10
1209.04006859965
 20
765.1438216945647
 30
0.0
 10
1206.228526174137
 20
763.5810402550683
 30
0.0
 10
1203.370991723897
 20
761.9758841411033
 30
0.0
 10
1200.926179712789
 20
759.9191621364091
 30
0.0
 10
1198.308596163097
 20
757.7179183761087
 30
0.0
 10
1195.740449733617
 20
755.5412209211407
 30
0.0
 10
1192.628839491339
 20
754.0772275946839
 30
0.0
 10
1192.583019721386
 20
754.0560402574496
 30
0.0
 10
1192.551324842921
 20
753.9890331502614
 30
0.0
 10
1192.449005507009
 20
753.8690576999876
 30
0.0
 10
1192.964047282054
 20
753.1952831504599
 30
0.0
 10
1192.452450602495
 20
752.9765195871465
 30
0.0
 10
1191.898651503241
 20
752.6555228153084
 30
0.0
 10
1191.425984402664
 20
752.3838770362964
 30
0.0
 10
1191.041339491736
 20
751.9393735913121
 30
0.0
 10
1190.660484185842
 20
751.5301823750515
 30
0.0
 10
1190.194707276236
 20
751.0327105869815
 30
0.0
 10
1189.845546848806
 20
750.3977794890499
 30
0.0
 10
1189.316380182272
 20
749.9849709225298
 30
0.0
 10
1186.966825061331
 20
748.1470124811491
 30
0.0
 10
1184.617269940391
 20
746.3019915940235
 30
0.0
 10
1182.176075279543
 20
744.5874536984018
 30
0.0
 10
1179.19520641093
 20
742.4919743694986
 30
0.0
 10
1176.133033288866
 20
740.5129392679968
 30
0.0
 10
1173.084985058291
 20
738.516161924746
 30
0.0
 10
1170.94713105492
 20
737.1191757054772
 30
0.0
 10
1169.652464171563
 20
735.2423738125002
 30
0.0
 10
1169.507770161182
 20
732.6424463771693
 30
0.0
 10
1169.437317958509
 20
731.3301233794505
 30
0.0
 10
1169.296241298388
 20
730.0248628274765
 30
0.0
 10
1169.264374165149
 20
728.7124537023706
 30
0.0
 10
1169.246804178174
 20
727.9787344913995
 30
0.0
 10
1168.968095953418
 20
727.8270641626614
 30
0.0
 10
1168.276665289528
 20
727.862290263998
 30
0.0
 10
1162.822734626829
 20
728.1445297116271
 30
0.0
 10
1157.36880396413
 20
728.3773320390428
 30
0.0
 10
1151.918318396916
 20
728.6489778180548
 30
0.0
 10
1149.92171330844
 20
728.7512971539667
 30
0.0
 10
1147.963693289398
 20
728.8676552539811
 30
0.0
 10
1146.185679509461
 20
729.7249672654855
 30
0.0
 10
1146.87711017335
 20
729.5379847080235
 30
0.0
 10
1147.603853065964
 20
729.439196594984
 30
0.0
 10
1148.355228391297
 20
729.439196594984
 30
0.0
 10
1153.008518863224
 20
729.4286029263668
 30
0.0
 10
1156.807770164357
 20
733.1962454764232
 30
0.0
 10
1156.828957501592
 20
737.8423873752182
 30
0.0
 10
1156.853762189085
 20
742.5484739354566
 30
0.0
 10
1153.096713307646
 20
746.3408350456197
 30
0.0
 10
1148.39054062002
 20
746.3654674783393
 30
0.0
 10
1143.751547294357
 20
746.3901860384459
 30
0.0
 10
1139.93799884696
 20
742.6119498197723
 30
0.0
 10
1139.909749063981
 20
737.9658079209773
 30
0.0
 10
1139.909749063981
 20
737.7259431478168
 30
0.0
 10
1139.920428859985
 20
737.4896095975287
 30
0.0
 10
1139.93799884696
 20
737.2531899198534
 30
0.0
 10
1139.909749063981
 20
736.9040294924233
 30
0.0
 10
1139.895624172491
 20
736.5583141604785
 30
0.0
 10
1139.930936401215
 20
736.2195751468913
 30
0.0
 10
1140.241339504436
 20
733.1327695921075
 30
0.0
 10
1142.022970634633
 20
730.7162934913661
 30
0.0
 10
1143.818554401545
 20
728.3808632619152
 30
0.0
 10
1144.898075071849
 20
726.9768145969017
 30
0.0
 10
1146.778408187698
 20
727.1496722628741
 30
0.0
 10
1148.344720850067
 20
726.7475434923583
 30
0.0
 10
1148.489414860447
 20
726.7087000407621
 30
0.0
 10
1148.640999061798
 20
726.6910439264002
 30
0.0
 10
1148.785693072179
 20
726.6558178250635
 30
0.0
 10
1154.67008841576
 20
725.3081825986209
 30
0.0
 10
1160.60374862478
 20
724.2463180426797
 30
0.0
 10
1166.625603278222
 20
723.7206825990178
 30
0.0
 10
1168.068581522219
 20
723.5937308303863
 30
0.0
 10
1168.061519076474
 20
723.6077695944887
 30
0.0
 10
1167.853263054391
 20
722.179045433062
 30
0.0
 10
1167.546477301429
 20
720.0976479319548
 30
0.0
 10
1167.281893968162
 20
718.0233128765923
 30
0.0
 10
1167.232456847949
 20
715.931321706868
 30
0.0
 10
1166.964256164422
 20
715.7408509902272
 30
0.0
 10
1166.717415072904
 20
715.5080055991178
 30
0.0
 10
1166.625603278222
 20
715.2363598201059
 30
0.0
 10
1166.092991516203
 20
713.6806408263542
 30
0.0
 10
1165.122852627556
 20
712.6610648174944
 30
0.0
 10
1164.928721496962
 20
710.9818822142902
 30
0.0
 10
1164.925276401477
 20
710.9395506035152
 30
0.0
 10
1164.889964172753
 20
710.8901565469954
 30
0.0
 10
1164.854651944029
 20
710.8584186048375
 30
0.0
 10
1164.043331957253
 20
710.1599254952031
 30
0.0
 10
1163.404783509062
 20
709.3096759294434
 30
0.0
 10
1162.360575067483
 20
709.1192052128027
 30
0.0
 10
1159.785366192259
 20
708.6535574942776
 30
0.0
 10
1157.171227738051
 20
708.2513425963747
 30
0.0
 10
1154.581893971337
 20
707.8421513801142
 30
0.0
 10
1153.918540835652
 20
707.7363008213298
 30
0.0
 10
1153.223665076277
 20
707.7998197693391
 30
0.0
 10
1152.574436832082
 20
707.6481063769074
 30
0.0
 10
1150.849477522617
 20
707.2459776063916
 30
0.0
 10
1149.42062417011
 20
707.6657624912693
 30
0.0
 10
1147.826061724762
 20
708.4312627080918
 30
0.0
 10
1147.381644407165
 20
708.6464950485329
 30
0.0
 10
1146.947734630798
 20
708.780509262909
 30
0.0
 10
1146.482129975966
 20
708.8969534903105
 30
0.0
 10
1144.742873520238
 20
709.3273320438053
 30
0.0
 10
1143.218935532338
 20
709.8953421619359
 30
0.0
 10
1141.737199964132
 20
711.1124082694876
 30
0.0
 10
1140.128512627294
 20
712.4388561586959
 30
0.0
 10
1138.350498847357
 20
713.3525385450777
 30
0.0
 10
1136.537172838696
 20
714.2450766579188
 30
0.0
 10
1135.637658407497
 20
714.6895370392095
 30
0.0
 10
1134.653394627361
 20
715.134040484194
 30
0.0
 10
1134.043095962149
 20
716.086566322172
 30
0.0
 10
1132.822498631725
 20
717.9915749344344
 30
0.0
 10
1133.224713529628
 20
720.1399795427297
 30
0.0
 10
1134.653394627361
 20
721.7028040459198
 30
0.0
 10
1135.627150866267
 20
722.7681998247333
 30
0.0
 10
1136.346659058361
 20
723.7065577075283
 30
0.0
 10
1136.664296862101
 20
725.2587454784076
 30
0.0
 10
1136.731303969289
 20
725.5939532691224
 30
0.0
 10
1136.840685750946
 20
725.900825149471
 30
0.0
 10
1136.985207506552
 20
726.1901270428449
 30
0.0
 10
1137.517991523346
 20
727.2837726046374
 30
0.0
 10
1137.673193074957
 20
728.3596759246809
 30
0.0
 10
1137.669575724697
 20
729.6014605923392
 30
0.0
 10
1137.666130629212
 20
730.3705781594213
 30
0.0
 10
1137.676638170442
 20
731.0866412560305
 30
0.0
 10
1137.652005737722
 20
731.8522276002401
 30
0.0
 10
1137.613248413513
 20
733.1857379351932
 30
0.0
 10
1137.990658623923
 20
734.0217764820762
 30
0.0
 10
1138.925485283845
 20
734.7803003805411
 30
0.0
 10
1139.133741305928
 20
734.9496268236411
 30
0.0
 10
1139.348887518982
 20
735.231780143883
 30
0.0
 10
1139.387644843191
 20
735.5422693744912
 30
0.0
 10
1139.511151516338
 20
736.5335956003719
 30
0.0
 10
1139.507706420852
 20
737.2814397028325
 30
0.0
 10
1138.985602200063
 20
738.1246268228474
 30
0.0
 10
1138.812658406703
 20
738.3997176973445
 30
0.0
 10
1138.756158840745
 20
738.7561128252936
 30
0.0
 10
1138.632824422373
 20
739.1123356984684
 30
0.0
 10
1138.089532864349
 20
740.7068981438164
 30
0.0
 10
1137.40860974169
 20
741.7405990441656
 30
0.0
 10
1135.916366632254
 20
742.082783153238
 30
0.0
 10
1135.838679729061
 20
742.1004392675999
 30
0.0
 10
1135.768227526388
 20
742.1956961577671
 30
0.0
 10
1135.680033081965
 20
742.1991412532524
 30
0.0
 10
1134.791026191997
 20
742.223859813359
 30
0.0
 10
1133.880831964794
 20
742.1956961577671
 30
0.0
 10
1132.98837997934
 20
742.2062036989971
 30
0.0
 10
1131.626533734021
 20
741.726474152676
 30
0.0
 10
1131.054992393018
 20
740.9362553757469
 30
0.0
 10
1130.913915732897
 20
739.2358423716147
 30
0.0
 10
1130.864650867458
 20
738.6537934893818
 30
0.0
 10
1130.60006753419
 20
738.3574291502631
 30
0.0
 10
1130.042651084677
 20
738.3185856986669
 30
0.0
 10
1128.934880631395
 20
738.2340086045041
 30
0.0
 10
1127.830727528372
 20
738.0152450411906
 30
0.0
 10
1126.864033735211
 20
737.2814397028325
 30
0.0
 10
1126.151415734087
 20
736.741679367681
 30
0.0
 10
1125.36834553029
 20
736.1948565867847
 30
0.0
 10
1124.634540191932
 20
735.764564160677
 30
0.0
 10
1123.350380849805
 20
735.0166339308292
 30
0.0
 10
1122.757824426342
 20
733.7713180402985
 30
0.0
 10
1122.3237423952
 20
732.264950039373
 30
0.0
 10
1121.847630199139
 20
730.6069117097094
 30
0.0
 10
1121.932207293302
 20
729.1076061545286
 30
0.0
 10
1122.098088640917
 20
727.4248492647584
 30
0.0
 10
1122.172158193849
 20
726.6627941434211
 30
0.0
 10
1122.193345531084
 20
725.900825149471
 30
0.0
 10
1122.055713966448
 20
725.1565122698828
 30
0.0
 10
1121.706381284244
 20
723.2655854854163
 30
0.0
 10
1121.784068187436
 20
721.7204601602817
 30
0.0
 10
1122.531998417284
 20
719.9847349274257
 30
0.0
 10
1122.838956425019
 20
719.2721599899953
 30
0.0
 10
1123.128172191006
 20
718.683005598324
 30
0.0
 10
1123.463379981721
 20
717.9104429357568
 30
0.0
 10
1123.872485070594
 20
716.9720419892683
 30
0.0
 10
1124.768554406308
 20
716.5310697671563
 30
0.0
 10
1125.608124176063
 20
717.1202241588276
 30
0.0
 10
1125.735248199469
 20
717.20841860325
 30
0.0
 10
1125.939714616519
 20
717.324819766958
 30
0.0
 10
1126.084408626899
 20
717.2507071503314
 30
0.0
 10
1126.57826306471
 20
717.0002487085538
 30
0.0
 10
1126.945165733889
 20
716.0900975450444
 30
0.0
 10
1126.804089073768
 20
715.5362553820969
 30
0.0
 10
1126.585325510454
 20
714.6825176571584
 30
0.0
 10
1126.126783301368
 20
714.509659991186
 30
0.0
 10
1125.459985070197
 20
714.5308042647267
 30
0.0
 10
1125.156644412721
 20
714.5449291562162
 30
0.0
 10
1124.828499067751
 20
714.6084050405319
 30
0.0
 10
1124.53222085602
 20
714.5202105961096
 30
0.0
 10
1122.828276629015
 20
714.0228249354266
 30
0.0
 10
1121.565304624123
 20
713.0068232131329
 30
0.0
 10
1120.348324643958
 20
711.5427868229824
 30
0.0
 10
1119.981421974779
 20
711.1018146008704
 30
0.0
 10
1119.741471074231
 20
710.572647934336
 30
0.0
 10
1119.346318622073
 20
710.1846009916162
 30
0.0
 10
1118.841956643033
 20
709.6836410443673
 30
0.0
 10
1118.319852422243
 20
709.2144621029698
 30
0.0
 10
1117.720061298261
 20
708.9040159360553
 30
0.0
 10
1116.633478182213
 20
708.3430682636695
 30
0.0
 10
1115.515200187701
 20
707.9480019388984
 30
0.0
 10
1114.414492180164
 20
707.4505732145219
 30
0.0
 10
1114.146463751411
 20
707.3306408279417
 30
0.0
 10
1113.913575296609
 20
707.0872017682152
 30
0.0
 10
1113.652609313601
 20
706.967269381635
 30
0.0
 10
1113.176324862765
 20
706.752037041194
 30
0.0
 10
1112.668345533465
 20
706.4098529321216
 30
0.0
 10
1112.16742864991
 20
706.4133841549939
 30
0.0
 10
1109.320401740899
 20
706.4416339379729
 30
0.0
 10
1106.512304410872
 20
706.4557588294625
 30
0.0
 10
1103.679574648125
 20
706.5933042667111
 30
0.0
 10
1101.897943517928
 20
706.6779674882611
 30
0.0
 10
1100.807915306395
 20
707.6163684347496
 30
0.0
 10
1100.007102860849
 20
709.4719829904923
 30
0.0
 10
1099.936478403401
 20
709.6342900515411
 30
0.0
 10
1099.890658633448
 20
709.8176983224371
 30
0.0
 10
1099.79540174328
 20
709.9552868233793
 30
0.0
 10
1099.492061085804
 20
710.3962590454912
 30
0.0
 10
1099.209907765562
 20
710.3503962118439
 30
0.0
 10
1098.934644636291
 20
709.9094239897319
 30
0.0
 10
1098.765318193191
 20
709.6413094335923
 30
0.0
 10
1098.641811520044
 20
709.3802573231975
 30
0.0
 10
1098.479547522689
 20
709.1156739899303
 30
0.0
 10
1097.523533525532
 20
709.1086546078791
 30
0.0
 10
1096.973179521764
 20
709.5107833783949
 30
0.0
 10
1096.553394636886
 20
710.5267851006887
 30
0.0
 10
1096.503957516673
 20
710.6537799330137
 30
0.0
 10
1096.444012855229
 20
710.7560992689256
 30
0.0
 10
1096.359435761066
 20
710.8407624904756
 30
0.0
 10
1095.851456431766
 20
711.3840540484995
 30
0.0
 10
1095.279915090763
 20
711.5498492687271
 30
0.0
 10
1094.669616425551
 20
711.1441462116454
 30
0.0
 10
1094.669616425551
 20
711.1441462116454
 30
0.0
 10
1094.669616425551
 20
710.5232538778163
 30
0.0
 10
1094.669616425551
 20
710.5232538778163
 30
0.0
 10
1094.89182508435
 20
710.2022140422846
 30
0.0
 10
1095.121096188893
 20
709.8918109390636
 30
0.0
 10
1095.332797306462
 20
709.5637086577871
 30
0.0
 10
1095.91140109321
 20
708.6535574942776
 30
0.0
 10
1096.458137746719
 20
707.7327695984575
 30
0.0
 10
1097.057928870701
 20
706.8332121035652
 30
0.0
 10
1097.202450626307
 20
706.6215540496901
 30
0.0
 10
1097.463588864089
 20
706.5051098222887
 30
0.0
 10
1097.661165090168
 20
706.3710956079125
 30
0.0
 10
1098.021005313602
 20
706.1241253253136
 30
0.0
 10
1098.472485076944
 20
705.831335272761
 30
0.0
 10
1098.814755313404
 20
705.6231653780648
 30
0.0
 10
1099.156853295089
 20
705.4150385470621
 30
0.0
 10
1099.463811302825
 20
705.2033804931871
 30
0.0
 10
1099.79901909354
 20
705.1575176595396
 30
0.0
 10
1101.615790197686
 20
704.9034849311961
 30
0.0
 10
1103.16453287308
 20
704.039196601334
 30
0.0
 10
1104.847289762851
 20
703.3159849315929
 30
0.0
 10
1105.510470643761
 20
703.030257324785
 30
0.0
 10
1106.149019091952
 20
702.7974119336757
 30
0.0
 10
1106.815645068348
 20
702.5434222690257
 30
0.0
 10
1107.486060649778
 20
702.2894326043756
 30
0.0
 10
1108.184553759412
 20
702.0530990540874
 30
0.0
 10
1108.858242181553
 20
701.809659994361
 30
0.0
 10
1109.154692648059
 20
701.7003212763979
 30
0.0
 10
1109.447353509531
 20
701.5168699418083
 30
0.0
 10
1109.754311517266
 20
701.495682604574
 30
0.0
 10
1111.239492180958
 20
701.4039569372793
 30
0.0
 10
1112.714165303419
 20
701.368687772249
 30
0.0
 10
1114.19934596711
 20
701.3192937157293
 30
0.0
 10
1114.400367288674
 20
701.3157624928568
 30
0.0
 10
1114.612068406243
 20
701.3369498300912
 30
0.0
 10
1114.799137091092
 20
701.4145506058964
 30
0.0
 10
1116.351324861971
 20
702.0530990540874
 30
0.0
 10
1117.903512632851
 20
702.7127487121256
 30
0.0
 10
1119.4451928625
 20
703.3654220518063
 30
0.0
 10
1119.716838641512
 20
703.4818232155142
 30
0.0
 10
1119.977804624519
 20
703.6970124922616
 30
0.0
 10
1120.242387957787
 20
703.767550822322
 30
0.0
 10
1121.096082619032
 20
704.0074586591761
 30
0.0
 10
1121.731185971737
 20
703.4923738204377
 30
0.0
 10
1121.565304624123
 20
702.4411029331137
 30
0.0
 10
1121.15258218499
 20
699.7741253269011
 30
0.0
 10
1120.877491310493
 20
697.2164864386516
 30
0.0
 10
1121.000825728864
 20
694.5177278265876
 30
0.0
 10
1121.029075511844
 20
693.8756481555242
 30
0.0
 10
1121.120887306525
 20
693.2054048288688
 30
0.0
 10
1121.346713315583
 20
692.6550508251001
 30
0.0
 10
1122.235547950778
 20
690.4925643890089
 30
0.0
 10
1122.443803972861
 20
688.2947657241937
 30
0.0
 10
1122.411936839623
 20
685.9663979404876
 30
0.0
 10
1122.366117069669
 20
682.5797398874063
 30
0.0
 10
1122.228657759807
 20
679.3412209401907
 30
0.0
 10
1122.059159061933
 20
675.9933632750121
 30
0.0
 10
1122.009894196494
 20
674.9738733935395
 30
0.0
 10
1121.671241310294
 20
674.0142851098168
 30
0.0
 10
1121.501914867194
 20
673.015939501885
 30
0.0
 10
1121.371345748303
 20
672.218658279211
 30
0.0
 10
1121.240776629412
 20
671.4107833879199
 30
0.0
 10
1121.15258218499
 20
670.6064397195012
 30
0.0
 10
1121.096082619032
 20
670.0984603902011
 30
0.0
 10
1121.293658845111
 20
669.8550643941682
 30
0.0
 10
1121.713443729988
 20
669.7421513896392
 30
0.0
 10
1122.489623742815
 20
669.5410439406877
 30
0.0
 10
1123.011727963605
 20
669.2023910544876
 30
0.0
 10
1123.614964183072
 20
668.5250852820875
 30
0.0
 10
1124.105373525397
 20
667.9747312783188
 30
0.0
 10
1124.927373308178
 20
668.0664569456136
 30
0.0
 10
1125.467047515942
 20
668.5321477278322
 30
0.0
 10
1125.696318620486
 20
668.7296808902178
 30
0.0
 10
1125.87270750933
 20
668.934276498348
 30
0.0
 10
1126.095088422903
 20
669.1247902786823
 30
0.0
 10
1126.758269303814
 20
668.6908805023152
 30
0.0
 10
1127.290881065834
 20
668.1369952756742
 30
0.0
 10
1127.516707074892
 20
667.2691757229397
 30
0.0
 10
1127.887054839556
 20
665.8404084978195
 30
0.0
 10
1128.532665733492
 20
664.6198111673954
 30
0.0
 10
1129.199463964662
 20
663.4098075055886
 30
0.0
 10
1129.862644845573
 20
662.2032920029604
 30
0.0
 10
1130.494130848019
 20
661.1202831734786
 30
0.0
 10
1130.906853287152
 20
659.7797103927808
 30
0.0
 10
1131.238443727607
 20
658.7072521682226
 30
0.0
 10
1131.242061077867
 20
657.641856389409
 30
0.0
 10
1131.220873740632
 20
656.4953286119179
 30
0.0
 10
1131.178499066164
 20
653.980064398137
 30
0.0
 10
1130.956290407365
 20
651.5529085013914
 30
0.0
 10
1130.836401084478
 20
648.9917383902695
 30
0.0
 10
1130.77990151852
 20
647.8170038934928
 30
0.0
 10
1131.009172623064
 20
646.6175508366096
 30
0.0
 10
1131.46082464118
 20
645.4780855048632
 30
0.0
 10
1131.64065862551
 20
645.0371132827512
 30
0.0
 10
1131.760547948397
 20
644.4409395090287
 30
0.0
 10
1131.728853069932
 20
643.89058550526
 30
0.0
 10
1131.587776409811
 20
641.3964655650199
 30
0.0
 10
1131.273755956331
 20
639.0116843427428
 30
0.0
 10
1130.547013063717
 20
636.6409849482617
 30
0.0
 10
1130.324804404919
 20
635.9072657372906
 30
0.0
 10
1130.247289756501
 20
635.1029220688719
 30
0.0
 10
1130.039033734417
 20
634.3514606161517
 30
0.0
 10
1129.421672623461
 20
632.1254552320511
 30
0.0
 10
1128.793803971274
 20
629.8041929577834
 30
0.0
 10
1128.112880848614
 20
627.6240073436365
 30
0.0
 10
1127.587331532339
 20
625.9447816767387
 30
0.0
 10
1127.036977528571
 20
624.2232243990658
 30
0.0
 10
1126.366734201915
 20
622.6921809017272
 30
0.0
 10
1125.064832618039
 20
619.7253077335236
 30
0.0
 10
1123.562081967373
 20
617.7321477405322
 30
0.0
 10
1121.194956859458
 20
616.0070161762934
 30
0.0
 10
1120.711609962878
 20
615.6542383986039
 30
0.0
 10
1120.309395064975
 20
615.1815712980275
 30
0.0
 10
1120.027241744733
 20
614.6594240135444
 30
0.0
 10
1119.946109746055
 20
614.5147730668574
 30
0.0
 10
1119.886165084612
 20
614.3807588524812
 30
0.0
 10
1119.833282868913
 20
614.2537209564626
 30
0.0
 10
1119.79797064019
 20
614.2678458479521
 30
0.0
 10
1119.762658411466
 20
614.2784395165693
 30
0.0
 10
1119.727346182742
 20
614.2925644080589
 30
0.0
 10
1119.1065399763
 20
614.5359604040917
 30
0.0
 10
1119.078290193321
 20
614.8640196216746
 30
0.0
 10
1119.487567536969
 20
615.3896550653367
 30
0.0
 10
1119.741471074231
 20
615.7177573466131
 30
0.0
 10
1120.013116853243
 20
616.0493908507619
 30
0.0
 10
1120.175380850598
 20
616.4233129019923
 30
0.0
 10
1120.835116636024
 20
617.9332121257902
 30
0.0
 10
1121.470047733955
 20
619.4571931773839
 30
0.0
 10
1122.091026195172
 20
620.9847485155437
 30
0.0
 10
1122.937658410672
 20
623.0731653987023
 30
0.0
 10
1122.30272731274
 20
625.352096062195
 30
0.0
 10
1120.454089075355
 20
626.6503372321179
 30
0.0
 10
1119.028853073107
 20
627.6522140629221
 30
0.0
 10
1117.864755308641
 20
628.9151860678146
 30
0.0
 10
1116.802804625313
 20
630.2557588485125
 30
0.0
 10
1114.859081752535
 20
632.7181408465948
 30
0.0
 10
1112.947053758222
 20
635.2017101819114
 30
0.0
 10
1111.239492180958
 20
637.8475435145833
 30
0.0
 10
1109.221699755247
 20
640.9695751707038
 30
0.0
 10
1107.655387092878
 20
644.2010316721746
 30
0.0
 10
1107.542387960962
 20
648.0180682787508
 30
0.0
 10
1107.503630636753
 20
649.3233718944183
 30
0.0
 10
1107.277804627694
 20
650.6462885607542
 30
0.0
 10
1106.946214187239
 20
651.9092175019533
 30
0.0
 10
1106.526429302362
 20
653.5037799473012
 30
0.0
 10
1105.587985292179
 20
654.7702831750661
 30
0.0
 10
1104.046477317304
 20
655.5287209461438
 30
0.0
 10
1103.143345535846
 20
655.9732243911283
 30
0.0
 10
1102.275525983112
 20
656.4917973890455
 30
0.0
 10
1101.411151525863
 20
657.0068822277839
 30
0.0
 10
1101.188942867064
 20
657.1409395058537
 30
0.0
 10
1100.991366640985
 20
657.3631481646523
 30
0.0
 10
1100.853735076349
 20
657.5889741737104
 30
0.0
 10
1100.197616641183
 20
658.6579011753963
 30
0.0
 10
1099.862408850468
 20
659.8114483349386
 30
0.0
 10
1099.816589080515
 20
661.0814397218825
 30
0.0
 10
1099.770769310561
 20
662.3585366182646
 30
0.0
 10
1099.763706864816
 20
663.6532035016214
 30
0.0
 10
1099.29103976424
 20
664.8808632777902
 30
0.0
 10
1098.860575083358
 20
665.9921218902512
 30
0.0
 10
1098.409095320016
 20
667.0575176690646
 30
0.0
 10
1097.227255313801
 20
667.629015946374
 30
0.0
 10
1096.719275984501
 20
667.872411942407
 30
0.0
 10
1096.274686412129
 20
668.267564394565
 30
0.0
 10
1095.851456431766
 20
668.652037050719
 30
0.0
 10
1095.38929687242
 20
669.0718649992903
 30
0.0
 10
1094.976574433287
 20
669.5516376093049
 30
0.0
 10
1094.927137313074
 20
670.2254552225261
 30
0.0
 10
1094.853067760141
 20
671.2908510013397
 30
0.0
 10
1094.309776202117
 20
672.0775385553965
 30
0.0
 10
1093.484159069077
 20
672.7019621120979
 30
0.0
 10
1092.288366426147
 20
673.6050508298626
 30
0.0
 10
1090.926520180828
 20
673.5944571612455
 30
0.0
 10
1089.547276203308
 20
673.3757797253193
 30
0.0
 10
1089.120428872685
 20
673.3087295544376
 30
0.0
 10
1088.637081976105
 20
673.1887971678574
 30
0.0
 10
1088.312553981394
 20
672.9277450574625
 30
0.0
 10
1087.825761989328
 20
672.5361238281768
 30
0.0
 10
1087.465921765894
 20
671.9928753338464
 30
0.0
 10
1087.042519530757
 20
671.5201651695766
 30
0.0
 10
1086.2558319767
 20
670.641751948225
 30
0.0
 10
1085.984186197688
 20
669.6716130595787
 30
0.0
 10
1086.481657985758
 20
668.5497607785006
 30
0.0
 10
1086.626179741364
 20
668.228720942969
 30
0.0
 10
1086.58035997141
 20
667.985324946936
 30
0.0
 10
1086.291144205424
 20
667.731335282286
 30
0.0
 10
1084.872970648921
 20
666.4966130603724
 30
0.0
 10
1084.192047526261
 20
664.8491253356324
 30
0.0
 10
1084.146227756307
 20
663.039373613537
 30
0.0
 10
1084.082665744604
 20
660.3900090579928
 30
0.0
 10
1085.179928656657
 20
658.1428163366579
 30
0.0
 10
1087.084894205225
 20
656.1425508342282
 30
0.0
 10
1086.749686414511
 20
655.9590994996387
 30
0.0
 10
1086.467533094269
 20
655.7298283950953
 30
0.0
 10
1086.143005099558
 20
655.6345715049282
 30
0.0
 10
1084.530700412461
 20
655.1582870540924
 30
0.0
 10
1082.872748210185
 20
654.9960230567372
 30
0.0
 10
1081.200498861644
 20
655.1301233985005
 30
0.0
 10
1080.741956652558
 20
655.1653494998371
 30
0.0
 10
1080.241039769002
 20
655.3558632801714
 30
0.0
 10
1079.860012208334
 20
655.6204466134386
 30
0.0
 10
1076.840213760738
 20
657.7229883880866
 30
0.0
 10
1073.852110191606
 20
659.8679048372032
 30
0.0
 10
1070.842991540015
 20
661.9810402804683
 30
0.0
 10
1070.091616214682
 20
662.5102069470026
 30
0.0
 10
1069.315436201855
 20
663.0181862763028
 30
0.0
 10
1068.504116215079
 20
663.438014224874
 30
0.0
 10
1067.847825525139
 20
663.7801983339465
 30
0.0
 10
1067.396345761797
 20
664.2493772753439
 30
0.0
 10
1067.128231205657
 20
664.9197067293865
 30
0.0
 10
1066.92367866122
 20
665.4382797273037
 30
0.0
 10
1066.747289772376
 20
665.9639151709656
 30
0.0
 10
1066.528526209062
 20
666.4754257231381
 30
0.0
 10
1066.228630647071
 20
667.1703876099001
 30
0.0
 10
1066.239224315688
 20
667.8301233953255
 30
0.0
 10
1066.553158641782
 20
668.5286165049599
 30
0.0
 10
1066.708360193392
 20
668.8813942826495
 30
0.0
 10
1066.828421771053
 20
669.318835281889
 30
0.0
 10
1066.771922205095
 20
669.6857379510682
 30
0.0
 10
1066.496745203211
 20
671.4672398901845
 30
0.0
 10
1066.253263079791
 20
673.2593354979178
 30
0.0
 10
1065.812290857679
 20
675.0020370491314
 30
0.0
 10
1065.360811094337
 20
676.7694571604518
 30
0.0
 10
1064.58463108151
 20
678.4204761080642
 30
0.0
 10
1062.89136665051
 20
679.3941462195829
 30
0.0
 10
1062.171686203641
 20
679.8104429452818
 30
0.0
 10
1061.437880865283
 20
680.21610293867
 30
0.0
 10
1060.67238064846
 20
680.5336546150229
 30
0.0
 10
1059.384776210848
 20
681.0628212815573
 30
0.0
 10
1058.047734653023
 20
681.1933042730611
 30
0.0
 10
1056.707161872325
 20
680.7135316630465
 30
0.0
 10
1054.128421774228
 20
679.7927868309199
 30
0.0
 10
1052.325603306797
 20
678.0465540568339
 30
0.0
 10
1051.263824878243
 20
675.5241843336147
 30
0.0
 10
1050.625276430052
 20
674.0107538869444
 30
0.0
 10
1050.455949986952
 20
672.4373787788307
 30
0.0
 10
1051.03093642344
 20
670.9028040586198
 30
0.0
 10
1051.514283320021
 20
669.6151565573141
 30
0.0
 10
1052.205713983911
 20
668.3980473860689
 30
0.0
 10
1052.854769973331
 20
667.177450055645
 30
0.0
 10
1053.0664710909
 20
666.778809444308
 30
0.0
 10
1053.366366652891
 20
666.3308178401447
 30
0.0
 10
1053.7437768633
 20
666.1297103911933
 30
0.0
 10
1054.671713332252
 20
665.6393441125615
 30
0.0
 10
1055.684054640593
 20
665.3041793855404
 30
0.0
 10
1056.64006863775
 20
664.8596759405559
 30
0.0
 10
1057.783151319756
 20
664.3270211148428
 30
0.0
 10
1058.901429314268
 20
663.7519916146609
 30
0.0
 10
1060.026769754525
 20
663.1839814965305
 30
0.0
 10
1060.411328538066
 20
662.9864483341449
 30
0.0
 10
1060.774699984372
 20
662.7465404972909
 30
0.0
 10
1061.159172640526
 20
662.5525385577777
 30
0.0
 10
1062.005890983414
 20
662.1186287814105
 30
0.0
 10
1062.923061528974
 20
661.790526500134
 30
0.0
 10
1063.702686637286
 20
661.2613598335996
 30
0.0
 10
1064.877464197756
 20
660.4676098337981
 30
0.0
 10
1066.009867083758
 20
659.5927278353189
 30
0.0
 10
1067.071817767086
 20
658.6579011753963
 30
0.0
 10
1069.100289988801
 20
656.8692937268418
 30
0.0
 10
1071.058137753069
 20
655.0030855024819
 30
0.0
 10
1073.06542263755
 20
653.1898456212077
 30
0.0
 10
1074.466026207078
 20
651.9233423934428
 30
0.0
 10
1075.92657443805
 20
650.7204011773807
 30
0.0
 10
1077.302373320084
 20
649.429179389509
 30
0.0
 10
1078.251324871496
 20
648.5366843403615
 30
0.0
 10
1079.366157770523
 20
648.3144326178693
 30
0.0
 10
1080.572630209458
 20
648.423814399526
 30
0.0
 10
1084.266117079194
 20
648.7554048399813
 30
0.0
 10
1087.95271375796
 20
649.1681272791143
 30
0.0
 10
1091.649817977956
 20
649.4644916182328
 30
0.0
 10
1092.475262856221
 20
649.531498725421
 30
0.0
 10
1093.142061087392
 20
649.831394287412
 30
0.0
 10
1093.822984210051
 20
650.2017851157699
 30
0.0
 10
1093.939256182678
 20
650.2688352866516
 30
0.0
 10
1094.062762855825
 20
650.3181862794778
 30
0.0
 10
1094.366103513301
 20
650.4628372261647
 30
0.0
 10
1094.277909068878
 20
650.0359898955422
 30
0.0
 10
1094.274463973393
 20
649.7114188371381
 30
0.0
 10
1094.147512204762
 20
649.4503667267434
 30
0.0
 10
1093.561845972269
 20
648.2509567335536
 30
0.0
 10
1092.902110186844
 20
647.0867728417005
 30
0.0
 10
1092.355373533335
 20
645.869706734149
 30
0.0
 10
1092.055477971344
 20
645.2029085029789
 30
0.0
 10
1091.819144421056
 20
644.4691462283141
 30
0.0
 10
1091.755582409353
 20
643.7459776222667
 30
0.0
 10
1091.692192652424
 20
643.0721600090453
 30
0.0
 10
1091.889768878503
 20
642.3736238357174
 30
0.0
 10
1091.984853513896
 20
641.6892556175725
 30
0.0
 10
1092.094235295553
 20
640.9025680635157
 30
0.0
 10
1092.080110404063
 20
640.1758251709023
 30
0.0
 10
1091.565068629018
 20
639.4738008383955
 30
0.0
 10
1090.968894855296
 20
638.6624377879256
 30
0.0
 10
1090.549109970418
 20
637.7452241786714
 30
0.0
 10
1090.372721081573
 20
636.7256481698116
 30
0.0
 10
1090.316221515616
 20
636.3834640607392
 30
0.0
 10
1090.122262639796
 20
636.034217505922
 30
0.0
 10
1089.903499076483
 20
635.7590405040377
 30
0.0
 10
1089.469589300115
 20
635.2017101819114
 30
0.0
 10
1089.120428872685
 20
635.1805228446772
 30
0.0
 10
1088.587644855891
 20
635.6461705632022
 30
0.0
 10
1088.083282876851
 20
636.0942052310589
 30
0.0
 10
1087.585811088781
 20
636.5563217267116
 30
0.0
 10
1087.11658908369
 20
637.0431998461646
 30
0.0
 10
1084.915345323389
 20
639.3397866240192
 30
0.0
 10
1082.558727756704
 20
641.4705351179527
 30
0.0
 10
1080.039846192664
 20
643.4037935131943
 30
0.0
 10
1076.695519750357
 20
645.9719830063673
 30
0.0
 10
1073.266616213888
 20
648.4273456223984
 30
0.0
 10
1069.865790205624
 20
650.9179343397662
 30
0.0
 10
1069.50594998219
 20
651.1825176730334
 30
0.0
 10
1069.110797530031
 20
651.4188942870151
 30
0.0
 10
1068.694629995413
 20
651.5846895072427
 30
0.0
 10
1067.071817767086
 20
652.2408510061022
 30
0.0
 10
1064.82811320493
 20
651.2389741752979
 30
0.0
 10
1064.203689648229
 20
649.6020370554814
 30
0.0
 10
1063.91094265937
 20
648.8400680615314
 30
0.0
 10
1063.639296880358
 20
648.0710366218365
 30
0.0
 10
1063.321745204005
 20
647.3195751691163
 30
0.0
 10
1063.247675651072
 20
647.1361238345268
 30
0.0
 10
1063.04656820212
 20
646.8997902842386
 30
0.0
 10
1062.880772981893
 20
646.8821341698767
 30
0.0
 10
1061.773088655998
 20
646.7445887326281
 30
0.0
 10
1060.958151318962
 20
646.2048283974766
 30
0.0
 10
1060.474804422381
 20
645.2135021715959
 30
0.0
 10
1059.790436204236
 20
643.8094535065824
 30
0.0
 10
1059.060248216138
 20
642.3983423958241
 30
0.0
 10
1059.582352436927
 20
640.7508977347776
 30
0.0
 10
1059.829193528446
 20
639.9782920085167
 30
0.0
 10
1059.748061529768
 20
639.2268736194902
 30
0.0
 10
1059.564610195178
 20
638.4472485111781
 30
0.0
 10
1059.183668761897
 20
636.8103544550553
 30
0.0
 10
1058.67560330521
 20
635.1769916218047
 30
0.0
 10
1058.552268886838
 20
633.5154220692688
 30
0.0
 10
1058.199491109148
 20
628.8269916233922
 30
0.0
 10
1058.019484870044
 20
624.1279675088986
 30
0.0
 10
1057.765495205394
 20
619.4325176809709
 30
0.0
 10
1057.709081766823
 20
618.3777155707745
 30
0.0
 10
1057.811401102735
 20
617.2629257354413
 30
0.0
 10
1057.490318203509
 20
616.2892556239225
 30
0.0
 10
1057.010588657188
 20
614.8464065710064
 30
0.0
 10
1056.44610976193
 20
613.4423148422992
 30
0.0
 10
1056.160339091429
 20
611.9324586821949
 30
0.0
 10
1055.846318637948
 20
610.2708460659653
 30
0.0
 10
1055.437213549075
 20
608.6304638506635
 30
0.0
 10
1055.084435771385
 20
606.9759567438723
 30
0.0
 10
992.6427691203289
 20
596.4102364638532
 30
0.0
 10
950.2317488943866
 20
575.7586546412166
 30
0.0
 10
950.2317488943866
 20
552.0060993086131
 30
0.0
 10
950.2317488943866
 20
551.2934813074892
 30
0.0
 10
950.2705923459828
 20
550.5808633063652
 30
0.0
 10
950.3446618989157
 20
549.8717765281136
 30
0.0
 10
950.9126720170461
 20
544.5871723085147
 30
0.0
 10
953.5831377824376
 20
539.4718945320158
 30
0.0
 10
958.0987966897288
 20
534.6000127515497
 30
0.0
 10
958.0987966897288
 20
534.6000127515497
 30
0.0
 10
1002.44992243819
 20
534.6000127515497
 30
0.0
 10
1002.44992243819
 20
534.6000127515497
 30
0.0
 10
1002.548796678616
 20
534.6000127515497
 30
0.0
 10
1002.647498664269
 20
534.6070751972944
 30
0.0
 10
1002.746286777308
 20
534.6141376430392
 30
0.0
 10
1002.7744504329
 20
534.6106064201668
 30
0.0
 10
1002.809762661624
 20
534.6000127515497
 30
0.0
 10
1002.845074890348
 20
534.6000127515497
 30
0.0
 10
1003.007338887703
 20
534.6000127515497
 30
0.0
 10
1003.162540439314
 20
534.6459186488906
 30
0.0
 10
1003.324804436669
 20
534.7164569789511
 30
0.0
 10
1004.739532897687
 20
535.1010157624921
 30
0.0
 10
1005.787186434751
 20
536.395682645849
 30
0.0
 10
1005.787186434751
 20
537.93025736606
 30
0.0
 10
1005.787186434751
 20
537.93025736606
 30
0.0
 10
1005.787186434751
 20
541.4756481936241
 30
0.0
 10
1005.787186434751
 20
541.4756481936241
 30
0.0
 10
1005.787186434751
 20
541.6274046497495
 30
0.0
 10
1005.783741339266
 20
541.7755437556152
 30
0.0
 10
1005.765999097517
 20
541.9201516386086
 30
0.0
 10
1005.773061543262
 20
542.2553163656298
 30
0.0
 10
1005.787186434751
 20
542.590481092651
 30
0.0
 10
1005.787186434751
 20
542.9326652017235
 30
0.0
 10
1005.787186434751
 20
547.5364324260499
 30
0.0
 10
1004.467887118675
 20
551.2652315245101
 30
0.0
 10
1002.845074890348
 20
551.2652315245101
 30
0.0
 10
1001.603290222689
 20
551.2652315245101
 30
0.0
 10
1000.544956889621
 20
549.0815577511845
 30
0.0
 10
1000.114492208739
 20
545.998283419273
 30
0.0
 10
1000.089859776019
 20
545.8324881990454
 30
0.0
 10
999.9522282113835
 20
545.7125127487716
 30
0.0
 10
999.7935815642877
 20
545.7125127487716
 30
0.0
 10
999.7935815642877
 20
545.7125127487716
 30
0.0
 10
974.097131104132
 20
545.7125127487716
 30
0.0
 10
974.097131104132
 20
545.7125127487716
 30
0.0
 10
971.3701657727825
 20
545.7125127487716
 30
0.0
 10
969.1547971209926
 20
548.0796809203803
 30
0.0
 10
969.1547971209926
 20
551.0006481912429
 30
0.0
 10
969.1547971209926
 20
553.5582870794924
 30
0.0
 10
970.8516789022524
 20
555.6890786371195
 30
0.0
 10
973.1023597827661
 20
556.1829761386235
 30
0.0
 10
973.4022553447571
 20
556.2464950866329
 30
0.0
 10
973.7126584479781
 20
556.2852954745355
 30
0.0
 10
974.0337413472034
 20
556.2852954745355
 30
0.0
 10
974.0408037929482
 20
556.2888266974079
 30
0.0
 10
974.0513113341782
 20
556.2888266974079
 30
0.0
 10
974.0583737799229
 20
556.2888266974079
 30
0.0
 10
977.7308455671993
 20
556.6592175257658
 30
0.0
 10
980.891720674916
 20
556.7086546459791
 30
0.0
 10
981.6995955662071
 20
556.7086546459791
 30
0.0
 10
981.6995955662071
 20
556.7086546459791
 30
0.0
 10
1057.938352871366
 20
556.7086546459791
 30
0.0
 10
1057.938352871366
 20
556.7086546459791
 30
0.0
 10
1058.040672207278
 20
556.7086546459791
 30
0.0
 10
1058.135929097445
 20
556.7156740280303
 30
0.0
 10
1058.231185987612
 20
556.7227364737751
 30
0.0
 10
1058.262880866077
 20
556.7192052509027
 30
0.0
 10
1058.298193094801
 20
556.7086546459791
 30
0.0
 10
1058.333505323524
 20
556.7086546459791
 30
0.0
 10
1058.49576932088
 20
556.7086546459791
 30
0.0
 10
1058.65097087249
 20
556.7544744159329
 30
0.0
 10
1058.80978977436
 20
556.8250127459934
 30
0.0
 10
1060.227963330863
 20
557.2095715295344
 30
0.0
 10
1061.275616867928
 20
558.5007071900189
 30
0.0
 10
1061.275616867928
 20
560.0423874196682
 30
0.0
 10
1061.275616867928
 20
560.0423874196682
 30
0.0
 10
1061.275616867928
 20
564.4873788058183
 30
0.0
 10
1061.275616867928
 20
564.4873788058183
 30
0.0
 10
1061.275616867928
 20
564.5332416394657
 30
0.0
 10
1061.268554422183
 20
564.5825926322918
 30
0.0
 10
1061.265109326698
 20
564.6320297525052
 30
0.0
 10
1061.268554422183
 20
564.7695751897538
 30
0.0
 10
1061.275616867928
 20
564.9036755315171
 30
0.0
 10
1061.275616867928
 20
565.0412209687657
 30
0.0
 10
1061.275616867928
 20
569.6414569702199
 30
0.0
 10
1059.956317551851
 20
573.3738734189395
 30
0.0
 10
1058.333505323524
 20
573.3738734189395
 30
0.0
 10
1057.091720655866
 20
573.3738734189395
 30
0.0
 10
1056.033387322797
 20
571.1901565819204
 30
0.0
 10
1055.602922641915
 20
568.1068822500089
 30
0.0
 10
1055.578290209196
 20
567.9410439660877
 30
0.0
 10
1055.44065864456
 20
567.821154643201
 30
0.0
 10
1055.282011997464
 20
567.821154643201
 30
0.0
 10
1055.282011997464
 20
567.821154643201
 30
0.0
 10
1012.380582429197
 20
567.821154643201
 30
0.0
 10
1012.380582429197
 20
567.821154643201
 30
0.0
 10
1008.507089320356
 20
567.821154643201
 30
0.0
 10
1007.741589103533
 20
573.3103544709303
 30
0.0
 10
1011.470474329381
 20
574.3616253582543
 30
0.0
 10
1028.964755330866
 20
579.296983023036
 30
0.0
 10
1053.5744504202
 20
585.618776302163
 30
0.0
 10
1072.571568199739
 20
588.0599709630111
 30
0.0
 10
1072.585693091229
 20
588.0635021858834
 30
0.0
 10
1072.599817982718
 20
588.0635021858834
 30
0.0
 10
1072.613942874208
 20
588.0635021858834
 30
0.0
 10
1094.581421981129
 20
588.0635021858834
 30
0.0
 10
1116.545283737791
 20
588.0670334087558
 30
0.0
 10
1138.516380194972
 20
588.0670334087558
 30
0.0
 10
1144.84157550589
 20
588.0670334087558
 30
0.0
 10
1146.210484196954
 20
578.940674022474
 30
0.0
 10
1140.100262844315
 20
577.3143736349683
 30
0.0
 10
1139.58883841953
 20
577.1767851340261
 30
0.0
 10
1139.059671752996
 20
577.1062037402721
 30
0.0
 10
1138.509317749227
 20
577.1062037402721
 30
0.0
 10
1138.509317749227
 20
577.1062037402721
 30
0.0
 10
1078.445283747316
 20
577.1062037402721
 30
0.0
 10
1078.445283747316
 20
577.1062037402721
 30
0.0
 10
1078.28663710022
 20
577.1062037402721
 30
0.0
 10
1078.149005535584
 20
577.226179190546
 30
0.0
 10
1078.124373102865
 20
577.3919744107735
 30
0.0
 10
1077.693908421983
 20
580.475248742685
 30
0.0
 10
1076.635575088914
 20
582.6624537388831
 30
0.0
 10
1075.393790421256
 20
582.6624537388831
 30
0.0
 10
1073.770978192929
 20
582.6624537388831
 30
0.0
 10
1072.451678876852
 20
578.9301234175505
 30
0.0
 10
1072.451678876852
 20
574.3298874160964
 30
0.0
 10
1072.451678876852
 20
573.9771096384068
 30
0.0
 10
1072.462186418082
 20
573.6349255293344
 30
0.0
 10
1072.476311309572
 20
573.2962295794407
 30
0.0
 10
1072.462186418082
 20
573.1480474098814
 30
0.0
 10
1072.451678876852
 20
572.9963770811432
 30
0.0
 10
1072.451678876852
 20
572.8411755295327
 30
0.0
 10
1072.451678876852
 20
572.8411755295327
 30
0.0
 10
1072.451678876852
 20
569.327479580433
 30
0.0
 10
1072.451678876852
 20
569.327479580433
 30
0.0
 10
1072.451678876852
 20
567.7893736373495
 30
0.0
 10
1073.499332413917
 20
566.4947067539927
 30
0.0
 10
1074.91750597042
 20
566.1136791933241
 30
0.0
 10
1075.07270752203
 20
566.0431408632636
 30
0.0
 10
1075.227995201028
 20
565.9972349659226
 30
0.0
 10
1075.393790421256
 20
565.9972349659226
 30
0.0
 10
1075.42910264998
 20
565.9972349659226
 30
0.0
 10
1075.460797528444
 20
566.0042974116674
 30
0.0
 10
1075.496109757168
 20
566.0078286345397
 30
0.0
 10
1075.587835424462
 20
566.000766188795
 30
0.0
 10
1075.686623537502
 20
565.9972349659226
 30
0.0
 10
1075.785325523154
 20
565.9972349659226
 30
0.0
 10
1075.785325523154
 20
565.9972349659226
 30
0.0
 10
1139.708727742417
 20
565.9972349659226
 30
0.0
 10
1139.708727742417
 20
565.9972349659226
 30
0.0
 10
1142.432075723507
 20
565.9972349659226
 30
0.0
 10
1144.714623737259
 20
563.7676983589496
 30
0.0
 10
1144.67586641305
 20
561.0407330276001
 30
0.0
 10
1144.630046643096
 20
557.675262311753
 30
0.0
 10
1141.881893974512
 20
554.9623788081996
 30
0.0
 10
1138.509317749227
 20
554.9623788081996
 30
0.0
 10
1138.509317749227
 20
554.9623788081996
 30
0.0
 10
1078.445283747316
 20
554.9623788081996
 30
0.0
 10
1078.445283747316
 20
554.9623788081996
 30
0.0
 10
1078.28663710022
 20
554.9623788081996
 30
0.0
 10
1078.149005535584
 20
555.0858424176522
 30
0.0
 10
1078.124373102865
 20
555.2481064150074
 30
0.0
 10
1077.693908421983
 20
558.3349119697913
 30
0.0
 10
1076.635575088914
 20
560.5186288068105
 30
0.0
 10
1075.393790421256
 20
560.5186288068105
 30
0.0
 10
1073.770978192929
 20
560.5186288068105
 30
0.0
 10
1072.451678876852
 20
556.7862554217844
 30
0.0
 10
1072.451678876852
 20
552.1824881974579
 30
0.0
 10
1072.451678876852
 20
551.8332416426407
 30
0.0
 10
1072.462186418082
 20
551.4910575335682
 30
0.0
 10
1072.476311309572
 20
551.1524046473681
 30
0.0
 10
1072.462186418082
 20
551.0041794141154
 30
0.0
 10
1072.451678876852
 20
550.8525090853772
 30
0.0
 10
1072.451678876852
 20
550.6973075337667
 30
0.0
 10
1072.451678876852
 20
550.6973075337667
 30
0.0
 10
1072.451678876852
 20
547.1871428075392
 30
0.0
 10
1072.451678876852
 20
547.1871428075392
 30
0.0
 10
1072.451678876852
 20
545.6455056415834
 30
0.0
 10
1073.499332413917
 20
544.3508387582266
 30
0.0
 10
1074.91750597042
 20
543.9662799746856
 30
0.0
 10
1075.07270752203
 20
543.8957416446251
 30
0.0
 10
1075.227995201028
 20
543.8498788109777
 30
0.0
 10
1075.393790421256
 20
543.8498788109777
 30
0.0
 10
1075.42910264998
 20
543.8498788109777
 30
0.0
 10
1075.460797528444
 20
543.8604294159012
 30
0.0
 10
1075.496109757168
 20
543.867491861646
 30
0.0
 10
1075.587835424462
 20
543.8568981930289
 30
0.0
 10
1075.686623537502
 20
543.8498788109777
 30
0.0
 10
1075.785325523154
 20
543.8498788109777
 30
0.0
 10
1075.785325523154
 20
543.8498788109777
 30
0.0
 10
1224.671672599648
 20
543.8498788109777
 30
0.0
 10
1224.671672599648
 20
543.8498788109777
 30
0.0
 10
1224.770546840075
 20
543.8498788109777
 30
0.0
 10
1224.869248825727
 20
543.8568981930289
 30
0.0
 10
1224.964505715894
 20
543.867491861646
 30
0.0
 10
1224.996200594359
 20
543.8604294159012
 30
0.0
 10
1225.031512823082
 20
543.8498788109777
 30
0.0
 10
1225.070270147291
 20
543.8498788109777
 30
0.0
 10
1225.229089049162
 20
543.8498788109777
 30
0.0
 10
1225.387907951032
 20
543.8957416446251
 30
0.0
 10
1225.543109502642
 20
543.9662799746856
 30
0.0
 10
1226.961283059145
 20
544.3508387582266
 30
0.0
 10
1228.012553946469
 20
545.6455056415834
 30
0.0
 10
1228.012553946469
 20
547.1871428075392
 30
0.0
 10
1228.012553946469
 20
547.1871428075392
 30
0.0
 10
1228.012553946469
 20
550.6973075337667
 30
0.0
 10
1228.012553946469
 20
550.6973075337667
 30
0.0
 10
1228.012553946469
 20
550.8525090853772
 30
0.0
 10
1227.99481170472
 20
551.0041794141154
 30
0.0
 10
1227.98068681323
 20
551.1524046473681
 30
0.0
 10
1227.99481170472
 20
551.4910575335682
 30
0.0
 10
1228.012553946469
 20
551.8332416426407
 30
0.0
 10
1228.012553946469
 20
552.1824881974579
 30
0.0
 10
1228.012553946469
 20
556.7862554217844
 30
0.0
 10
1226.689637280133
 20
560.5186288068105
 30
0.0
 10
1225.070270147291
 20
560.5186288068105
 30
0.0
 10
1223.825040384148
 20
560.5186288068105
 30
0.0
 10
1222.766707051079
 20
558.3349119697913
 30
0.0
 10
1222.336242370197
 20
555.2481064150074
 30
0.0
 10
1222.311609937478
 20
555.0858424176522
 30
0.0
 10
1222.173978372842
 20
554.9623788081996
 30
0.0
 10
1222.015331725746
 20
554.9623788081996
 30
0.0
 10
1222.015331725746
 20
554.9623788081996
 30
0.0
 10
1161.510325501723
 20
554.9623788081996
 30
0.0
 10
1161.510325501723
 20
554.9623788081996
 30
0.0
 10
1158.529456633111
 20
554.9623788081996
 30
0.0
 10
1155.961137948857
 20
557.2378213125135
 30
0.0
 10
1155.798873951502
 20
560.2081826398959
 30
0.0
 10
1155.622485062657
 20
563.3761201933573
 30
0.0
 10
1158.137749276438
 20
565.9972349659226
 30
0.0
 10
1161.26692950569
 20
565.9972349659226
 30
0.0
 10
1161.26692950569
 20
565.9972349659226
 30
0.0
 10
1224.671672599648
 20
565.9972349659226
 30
0.0
 10
1224.671672599648
 20
565.9972349659226
 30
0.0
 10
1224.770546840075
 20
565.9972349659226
 30
0.0
 10
1224.869248825727
 20
566.000766188795
 30
0.0
 10
1224.964505715894
 20
566.0078286345397
 30
0.0
 10
1224.996200594359
 20
566.0042974116674
 30
0.0
 10
1225.031512823082
 20
565.9972349659226
 30
0.0
 10
1225.070270147291
 20
565.9972349659226
 30
0.0
 10
1225.229089049162
 20
565.9972349659226
 30
0.0
 10
1225.387907951032
 20
566.0431408632636
 30
0.0
 10
1225.543109502642
 20
566.1136791933241
 30
0.0
 10
1226.961283059145
 20
566.4947067539927
 30
0.0
 10
1228.012553946469
 20
567.7893736373495
 30
0.0
 10
1228.012553946469
 20
569.327479580433
 30
0.0
 10
1228.012553946469
 20
569.327479580433
 30
0.0
 10
1228.012553946469
 20
572.8411755295327
 30
0.0
 10
1228.012553946469
 20
572.8411755295327
 30
0.0
 10
1228.012553946469
 20
572.9963770811432
 30
0.0
 10
1227.99481170472
 20
573.1480474098814
 30
0.0
 10
1227.98068681323
 20
573.2962295794407
 30
0.0
 10
1227.99481170472
 20
573.6349255293344
 30
0.0
 10
1228.012553946469
 20
573.9771096384068
 30
0.0
 10
1228.012553946469
 20
574.3298874160964
 30
0.0
 10
1228.012553946469
 20
578.9301234175505
 30
0.0
 10
1226.689637280133
 20
582.6624537388831
 30
0.0
 10
1225.070270147291
 20
582.6624537388831
 30
0.0
 10
1223.825040384148
 20
582.6624537388831
 30
0.0
 10
1222.766707051079
 20
580.475248742685
 30
0.0
 10
1222.336242370197
 20
577.3919744107735
 30
0.0
 10
1222.311609937478
 20
577.226179190546
 30
0.0
 10
1222.173978372842
 20
577.1062037402721
 30
0.0
 10
1222.015331725746
 20
577.1062037402721
 30
0.0
 10
1222.015331725746
 20
577.1062037402721
 30
0.0
 10
1161.951297723835
 20
577.1062037402721
 30
0.0
 10
1161.951297723835
 20
577.1062037402721
 30
0.0
 10
1161.404561070326
 20
577.1062037402721
 30
0.0
 10
1160.871777053532
 20
577.1767851340261
 30
0.0
 10
1160.363797724232
 20
577.3143736349683
 30
0.0
 10
1154.250131276108
 20
578.9371427996017
 30
0.0
 10
1155.619039967172
 20
588.0670334087558
 30
0.0
 10
1161.94423527809
 20
588.0670334087558
 30
0.0
 10
1183.890527047777
 20
588.0670334087558
 30
0.0
 10
1205.840436167724
 20
588.0740958545006
 30
0.0
 10
1227.786727937411
 20
588.0740958545006
 30
0.0
 10
1227.804297924386
 20
588.0740958545006
 30
0.0
 10
1227.81497772039
 20
588.0740958545006
 30
0.0
 10
1227.832547707365
 20
588.0670334087558
 30
0.0
 10
1246.734408596737
 20
585.6434517985762
 30
0.0
 10
1271.34772103633
 20
579.3040454687808
 30
0.0
 10
1288.841915910428
 20
574.3616253582543
 30
0.0
 10
1292.563738690531
 20
573.3068232480579
 30
0.0
 10
1291.805300919453
 20
567.821154643201
 30
0.0
 10
1287.931807810613
 20
567.821154643201
 30
0.0
 10
1287.931807810613
 20
567.821154643201
 30
0.0
 10
1244.988175822651
 20
567.821154643201
 30
0.0
 10
1244.988175822651
 20
567.821154643201
 30
0.0
 10
1244.822380602423
 20
567.821154643201
 30
0.0
 10
1244.68828026066
 20
567.9410439660877
 30
0.0
 10
1244.667092923425
 20
568.1068822500089
 30
0.0
 10
1244.23671436993
 20
571.1901565819204
 30
0.0
 10
1243.178381036862
 20
573.3738734189395
 30
0.0
 10
1241.933065146331
 20
573.3738734189395
 30
0.0
 10
1240.306807822519
 20
573.3738734189395
 30
0.0
 10
1238.9944848248
 20
569.6414569702199
 30
0.0
 10
1238.9944848248
 20
565.0412209687657
 30
0.0
 10
1238.9944848248
 20
564.9036755315171
 30
0.0
 10
1239.001547270545
 20
564.7695751897538
 30
0.0
 10
1239.001547270545
 20
564.6320297525052
 30
0.0
 10
1239.001547270545
 20
564.5825926322918
 30
0.0
 10
1238.9944848248
 20
564.5332416394657
 30
0.0
 10
1238.9944848248
 20
564.4873788058183
 30
0.0
 10
1238.9944848248
 20
564.4873788058183
 30
0.0
 10
1238.9944848248
 20
560.0423874196682
 30
0.0
 10
1238.9944848248
 20
560.0423874196682
 30
0.0
 10
1238.9944848248
 20
558.5007071900189
 30
0.0
 10
1240.038693266379
 20
557.2095715295344
 30
0.0
 10
1241.460398045755
 20
556.8250127459934
 30
0.0
 10
1241.612068374493
 20
556.7544744159329
 30
0.0
 10
1241.770801148976
 20
556.7086546459791
 30
0.0
 10
1241.933065146331
 20
556.7086546459791
 30
0.0
 10
1241.964846152182
 20
556.7086546459791
 30
0.0
 10
1242.000158380906
 20
556.7192052509027
 30
0.0
 10
1242.035384482243
 20
556.7227364737751
 30
0.0
 10
1242.134172595283
 20
556.7156740280303
 30
0.0
 10
1242.232960708322
 20
556.7086546459791
 30
0.0
 10
1242.331748821362
 20
556.7086546459791
 30
0.0
 10
1242.331748821362
 20
556.7086546459791
 30
0.0
 10
1318.567061031035
 20
556.7086546459791
 30
0.0
 10
1318.567061031035
 20
556.7086546459791
 30
0.0
 10
1319.385443463556
 20
556.7086546459791
 30
0.0
 10
1322.616943028721
 20
556.6662799715106
 30
0.0
 10
1326.366929464415
 20
556.2888266974079
 30
0.0
 10
1326.366929464415
 20
556.2888266974079
 30
0.0
 10
1326.391648024522
 20
556.2888266974079
 30
0.0
 10
1326.391648024522
 20
556.2888266974079
 30
0.0
 10
1326.691457459126
 20
556.2888266974079
 30
0.0
 10
1326.987821798244
 20
556.25708875525
 30
0.0
 10
1327.273592468746
 20
556.1935698072407
 30
0.0
 10
1329.570179246601
 20
555.7208596429708
 30
0.0
 10
1331.309349574942
 20
553.4771550808148
 30
0.0
 10
1331.309349574942
 20
550.7819707553167
 30
0.0
 10
1331.309349574942
 20
548.0373493096052
 30
0.0
 10
1329.51014845777
 20
545.7619498689849
 30
0.0
 10
1327.153617018472
 20
545.3421219204137
 30
0.0
 10
1326.899627353822
 20
545.2962590867662
 30
0.0
 10
1326.635044020555
 20
545.2715405266596
 30
0.0
 10
1326.366929464415
 20
545.2715405266596
 30
0.0
 10
1326.098814908276
 20
545.2715405266596
 30
0.0
 10
1325.834231575009
 20
545.2962590867662
 30
0.0
 10
1325.580241910358
 20
545.3421219204137
 30
0.0
 10
1325.580241910358
 20
545.3421219204137
 30
0.0
 10
1300.667033908774
 20
545.3421219204137
 30
0.0
 10
1300.667033908774
 20
545.3421219204137
 30
0.0
 10
1300.508301134291
 20
545.3421219204137
 30
0.0
 10
1300.370755697043
 20
545.4655855298663
 30
0.0
 10
1300.346037136936
 20
545.631380750094
 30
0.0
 10
1299.915658583441
 20
548.7181863048778
 30
0.0
 10
1298.857325250372
 20
550.9019031418969
 30
0.0
 10
1297.615540582714
 20
550.9019031418969
 30
0.0
 10
1295.985665908642
 20
550.9019031418969
 30
0.0
 10
1294.673342910924
 20
547.1695297568708
 30
0.0
 10
1294.673342910924
 20
542.5692937554168
 30
0.0
 10
1294.673342910924
 20
542.223578423472
 30
0.0
 10
1294.680405356668
 20
541.8849255372719
 30
0.0
 10
1294.69806147103
 20
541.5568232559954
 30
0.0
 10
1294.680405356668
 20
541.4086410864361
 30
0.0
 10
1294.673342910924
 20
541.2640332034428
 30
0.0
 10
1294.673342910924
 20
541.1087885881386
 30
0.0
 10
1294.673342910924
 20
541.1087885881386
 30
0.0
 10
1294.673342910924
 20
537.5669289834468
 30
0.0
 10
1294.673342910924
 20
537.5669289834468
 30
0.0
 10
1294.673342910924
 20
536.0252487537975
 30
0.0
 10
1295.721082575375
 20
534.734113093313
 30
0.0
 10
1297.139256131878
 20
534.3530855326444
 30
0.0
 10
1297.298075033749
 20
534.2825472025839
 30
0.0
 10
1297.449745362487
 20
534.2366843689365
 30
0.0
 10
1297.615540582714
 20
534.2366843689365
 30
0.0
 10
1297.643790365693
 20
534.2366843689365
 30
0.0
 10
1297.67901646703
 20
534.2472349738601
 30
0.0
 10
1297.714328695754
 20
534.2507661967325
 30
0.0
 10
1297.809585585921
 20
534.2402155918089
 30
0.0
 10
1297.908373698961
 20
534.2366843689365
 30
0.0
 10
1298.007075684613
 20
534.2366843689365
 30
0.0
 10
1298.007075684613
 20
534.2366843689365
 30
0.0
 10
1342.026783247393
 20
534.2366843689365
 30
0.0
 10
1342.026783247393
 20
534.2366843689365
 30
0.0
 10
1346.746908571733
 20
539.2143736444933
 30
0.0
 10
1349.533818564526
 20
544.4531150304449
 30
0.0
 10
1350.119484797019
 20
549.8682453052413
 30
0.0
 10
1350.193554349952
 20
550.5773320834928
 30
0.0
 10
1350.232311674161
 20
551.2899500846167
 30
0.0
 10
1350.232311674161
 20
552.0060993086131
 30
0.0
 10
1350.232311674161
 20
567.3201516322586
 30
0.0
 10
1332.600485235426
 20
581.3465995182919
 30
0.0
 10
1303.33405457868
 20
592.2121722966084
 30
0.0
  0
SPLINE
  5
42
330
1F
100
AcDbEntity
  8
_U+0421_U+043B_U+043E_U+0439 1
 62
     7
370
     5
100
AcDbSpline
210
0.0
220
0.0
230
1.0
 70
    11
 71
     3
 72
    17
 73
    13
 74
     0
 42
0.0000000001
 43
0.0000000001
 12
1.0
 22
0.0
 32
0.0
 13
1.0
 23
0.0
 33
0.0
 40
0.0
 40
0.0
 40
0.0
 40
0.0
 40
1.0
 40
1.0
 40
1.0
 40
2.0
 40
2.0
 40
2.0
 40
3.0
 40
3.0
 40
3.0
 40
4.0
 40
4.0
 40
4.0
 40
4.0
 10
1078.232032336779
 20
596.7362716878386
 30
0.0
 10
1077.127534724208
 20
596.7362716878386
 30
0.0
 10
1076.232068280204
 20
597.6316950681485
 30
0.0
 10
1076.232068280204
 20
598.7362357444132
 30
0.0
 10
1076.232068280204
 20
599.8408194843714
 30
0.0
 10
1077.127534724208
 20
600.736285928375
 30
0.0
 10
1078.232032336779
 20
600.736285928375
 30
0.0
 10
1079.336616076737
 20
600.736285928375
 30
0.0
 10
1080.232082520741
 20
599.8408194843714
 30
0.0
 10
1080.232082520741
 20
598.7362357444132
 30
0.0
 10
1080.232082520741
 20
597.6316950681485
 30
0.0
 10
1079.336616076737
 20
596.7362716878386
 30
0.0
 10
1078.232032336779
 20
596.7362716878386
 30
0.0
  0
SPLINE
  5
43
330
1F
100
AcDbEntity
  8
_U+0421_U+043B_U+043E_U+0439 1
 62
     7
370
     5
100
AcDbSpline
210
0.0
220
0.0
230
1.0
 70
    11
 71
     3
 72
    50
 73
    46
 74
     0
 42
0.0000000001
 43
0.0000000001
 12
1.0
 22
0.0
 32
0.0
 13
1.0
 23
0.0
 33
0.0
 40
0.0
 40
0.0
 40
0.0
 40
0.0
 40
1.0
 40
1.0
 40
1.0
 40
2.0
 40
2.0
 40
2.0
 40
3.0
 40
3.0
 40
3.0
 40
4.0
 40
4.0
 40
4.0
 40
5.0
 40
5.0
 40
5.0
 40
6.0
 40
6.0
 40
6.0
 40
7.0
 40
7.0
 40
7.0
 40
8.0
 40
8.0
 40
8.0
 40
9.0
 40
9.0
 40
9.0
 40
10.0
 40
10.0
 40
10.0
 40
11.0
 40
11.0
 40
11.0
 40
12.0
 40
12.0
 40
12.0
 40
13.0
 40
13.0
 40
13.0
 40
14.0
 40
14.0
 40
14.0
 40
15.0
 40
15.0
 40
15.0
 40
15.0
 10
1074.529502091394
 20
609.8616548497048
 30
0.0
 10
1074.522439645649
 20
609.8581236268324
 30
0.0
 10
1074.515463327291
 20
609.8581236268324
 30
0.0
 10
1074.508400881547
 20
609.8581236268324
 30
0.0
 10
1070.278512644757
 20
609.3183632916808
 30
0.0
 10
1066.126311311159
 20
608.7292519637032
 30
0.0
 10
1062.04473443501
 20
608.1012971841292
 30
0.0
 10
1062.662095545966
 20
609.328956960298
 30
0.0
 10
1063.575734868655
 20
610.3273456319234
 30
0.0
 10
1064.651724316085
 20
611.2092900761473
 30
0.0
 10
1065.075040423835
 20
611.5585366309646
 30
0.0
 10
1065.389060877316
 20
612.041797400158
 30
0.0
 10
1065.822970653683
 20
612.3734309043068
 30
0.0
 10
1066.489768884853
 20
612.8814532973005
 30
0.0
 10
1066.708360193392
 20
613.2447816799137
 30
0.0
 10
1066.443776860125
 20
614.0561877940771
 30
0.0
 10
1066.08755398695
 20
615.1603839607933
 30
0.0
 10
1065.777150883729
 20
616.3069117382844
 30
0.0
 10
1065.219734434216
 20
617.312319791961
 30
0.0
 10
1064.634068201723
 20
618.3671219021574
 30
0.0
 10
1064.75395752461
 20
619.185547398372
 30
0.0
 10
1065.314991324383
 20
620.1909985157422
 30
0.0
 10
1066.345074874473
 20
622.0360194028677
 30
0.0
 10
1067.188261994488
 20
623.9868908487776
 30
0.0
 10
1068.190095761598
 20
625.8495678502651
 30
0.0
 10
1068.835706655534
 20
627.0454466205824
 30
0.0
 10
1069.47770019921
 20
628.2272866267974
 30
0.0
 10
1069.745900882737
 20
629.5748787895465
 30
0.0
 10
1069.81997043567
 20
629.9382071721595
 30
0.0
 10
1070.031585425852
 20
630.0228703937096
 30
0.0
 10
1070.296168759119
 20
629.8112554035281
 30
0.0
 10
1070.588915747978
 20
629.5784100124188
 30
0.0
 10
1070.885366214484
 20
629.3138266791516
 30
0.0
 10
1071.082856313176
 20
629.0033805122371
 30
0.0
 10
1072.599817982718
 20
626.6009431755981
 30
0.0
 10
1073.823946536015
 20
624.0115663451907
 30
0.0
 10
1075.672498646012
 20
621.817298903248
 30
0.0
 10
1076.198134089675
 20
621.1928753465464
 30
0.0
 10
1076.688457304613
 20
620.5402450705594
 30
0.0
 10
1077.185929092683
 20
619.898165399496
 30
0.0
 10
1079.771817763911
 20
616.5609014029344
 30
0.0
 10
1082.516353082236
 20
613.3964950723454
 30
0.0
 10
1086.213457302232
 20
611.219840681071
 30
0.0
 10
1082.262449544973
 20
610.8035439553721
 30
0.0
 10
1078.364151748638
 20
610.3520211283364
 30
0.0
 10
1074.529502091394
 20
609.8616548497048
 30
0.0
  0
SPLINE
  5
44
330
1F
100
AcDbEntity
  8
_U+0421_U+043B_U+043E_U+0439 1
 62
     7
370
     5
100
AcDbSpline
210
0.0
220
0.0
230
1.0
 70
    11
 71
     3
 72
    59
 73
    55
 74
     0
 42
0.0000000001
 43
0.0000000001
 12
1.0
 22
0.0
 32
0.0
 13
1.0
 23
0.0
 33
0.0
 40
0.0
 40
0.0
 40
0.0
 40
0.0
 40
1.0
 40
1.0
 40
1.0
 40
2.0
 40
2.0
 40
2.0
 40
3.0
 40
3.0
 40
3.0
 40
4.0
 40
4.0
 40
4.0
 40
5.0
 40
5.0
 40
5.0
 40
6.0
 40
6.0
 40
6.0
 40
7.0
 40
7.0
 40
7.0
 40
8.0
 40
8.0
 40
8.0
 40
9.0
 40
9.0
 40
9.0
 40
10.0
 40
10.0
 40
10.0
 40
11.0
 40
11.0
 40
11.0
 40
12.0
 40
12.0
 40
12.0
 40
13.0
 40
13.0
 40
13.0
 40
14.0
 40
14.0
 40
14.0
 40
15.0
 40
15.0
 40
15.0
 40
16.0
 40
16.0
 40
16.0
 40
17.0
 40
17.0
 40
17.0
 40
18.0
 40
18.0
 40
18.0
 40
18.0
 10
1115.561019957655
 20
621.5632661749044
 30
0.0
 10
1115.497630200726
 20
621.0658805142214
 30
0.0
 10
1115.423560647793
 20
620.5614324077937
 30
0.0
 10
1115.278866637413
 20
620.0851479569579
 30
0.0
 10
1114.971908629677
 20
619.0726774575365
 30
0.0
 10
1114.56263128603
 20
618.0884567410942
 30
0.0
 10
1114.298047952762
 20
617.0653495093621
 30
0.0
 10
1114.068776848219
 20
616.1798738422658
 30
0.0
 10
1113.991262199801
 20
615.2591720738328
 30
0.0
 10
1113.825380852186
 20
614.3595715152469
 30
0.0
 10
1113.768881286228
 20
614.0596759532559
 30
0.0
 10
1113.740803758023
 20
613.7280855128006
 30
0.0
 10
1113.648991963341
 20
613.4458460651715
 30
0.0
 10
1109.877818190413
 20
613.2271686292453
 30
0.0
 10
1106.145401741693
 20
612.9801983466465
 30
0.0
 10
1102.451914871956
 20
612.6980019627109
 30
0.0
 10
1101.068881289403
 20
612.5921514039267
 30
0.0
 10
1099.689637311883
 20
612.4792383993976
 30
0.0
 10
1098.317283525334
 20
612.3663684585621
 30
0.0
 10
1099.036963972203
 20
612.8249537313424
 30
0.0
 10
1099.714269744603
 20
613.375307735111
 30
0.0
 10
1100.275131289601
 20
613.9926688460679
 30
0.0
 10
1101.587540414707
 20
615.4284985169328
 30
0.0
 10
1102.504797087655
 20
617.1676688452741
 30
0.0
 10
1103.316117074432
 20
618.9386201794667
 30
0.0
 10
1103.414991314858
 20
619.1573406790866
 30
0.0
 10
1103.492505963276
 20
619.4007797388131
 30
0.0
 10
1103.51731065077
 20
619.6371132891012
 30
0.0
 10
1103.679574648125
 20
621.3057452873819
 30
0.0
 10
1103.989977751346
 20
622.9073701784746
 30
0.0
 10
1104.942546653018
 20
624.3643441228803
 30
0.0
 10
1105.55284531823
 20
625.295682623624
 30
0.0
 10
1105.348206646406
 20
625.877731505857
 30
0.0
 10
1104.508464621876
 20
626.6115368442152
 30
0.0
 10
1104.339138178776
 20
626.7596759500809
 30
0.0
 10
1104.183936627166
 20
626.9255142340022
 30
0.0
 10
1104.011165088581
 20
627.0701651806891
 30
0.0
 10
1103.704207080845
 20
627.3206236224668
 30
0.0
 10
1103.598442649448
 20
627.6240073436365
 30
0.0
 10
1103.774831538292
 20
627.9873787899433
 30
0.0
 10
1104.409762636224
 20
629.2961705647897
 30
0.0
 10
1104.977686626967
 20
630.6437627275387
 30
0.0
 10
1105.72217176133
 20
631.885547395197
 30
0.0
 10
1106.364165305006
 20
632.9615368426277
 30
0.0
 10
1106.766380202909
 20
632.9474119511382
 30
0.0
 10
1107.658832188363
 20
632.0584050611694
 30
0.0
 10
1108.247943516341
 20
631.4728249560641
 30
0.0
 10
1108.741797954151
 20
630.7813942921745
 30
0.0
 10
1109.362776415368
 20
630.2345715112782
 30
0.0
 10
1111.013838426674
 20
628.7740663440001
 30
0.0
 10
1112.618908413252
 20
627.2747607888193
 30
0.0
 10
1113.998324645546
 20
625.5426098425293
 30
0.0
 10
1114.933151305468
 20
624.3678753457526
 30
0.0
 10
1115.769275979738
 20
623.1719535117418
 30
0.0
 10
1115.561019957655
 20
621.5632661749044
 30
0.0
  0
SPLINE
  5
45
330
1F
100
AcDbEntity
  8
_U+0421_U+043B_U+043E_U+0439 1
 62
     7
370
     5
100
AcDbSpline
210
0.0
220
0.0
230
1.0
 70
    11
 71
     3
 72
    32
 73
    28
 74
     0
 42
0.0000000001
 43
0.0000000001
 12
1.0
 22
0.0
 32
0.0
 13
1.0
 23
0.0
 33
0.0
 40
0.0
 40
0.0
 40
0.0
 40
0.0
 40
1.0
 40
1.0
 40
1.0
 40
2.0
 40
2.0
 40
2.0
 40
3.0
 40
3.0
 40
3.0
 40
4.0
 40
4.0
 40
4.0
 40
5.0
 40
5.0
 40
5.0
 40
6.0
 40
6.0
 40
6.0
 40
7.0
 40
7.0
 40
7.0
 40
8.0
 40
8.0
 40
8.0
 40
9.0
 40
9.0
 40
9.0
 40
9.0
 10
1189.482089275112
 20
703.2736963845115
 30
0.0
 10
1189.245755724824
 20
703.3654220518063
 30
0.0
 10
1188.959985054322
 20
703.4006481531429
 30
0.0
 10
1188.787213515737
 20
703.5594239913194
 30
0.0
 10
1186.480033069266
 20
705.686684326074
 30
0.0
 10
1184.066915936622
 20
707.6692937141418
 30
0.0
 10
1181.488261965913
 20
709.4649205447475
 30
0.0
 10
1180.020651289196
 20
710.4844534899137
 30
0.0
 10
1179.833582604347
 20
712.2130732133313
 30
0.0
 10
1179.731435523209
 20
714.1498197677516
 30
0.0
 10
1179.812567521887
 20
714.5731789391953
 30
0.0
 10
1179.932456844774
 20
715.246953488723
 30
0.0
 10
1180.07008840941
 20
715.9137086561996
 30
0.0
 10
1180.193422827782
 20
716.5099254936156
 30
0.0
 10
1180.518123077266
 20
716.6227954344511
 30
0.0
 10
1181.043672393541
 20
716.326474159026
 30
0.0
 10
1182.394838842856
 20
715.5679933242548
 30
0.0
 10
1183.760130183661
 20
714.8306998267177
 30
0.0
 10
1185.111296632976
 20
714.068687769074
 30
0.0
 10
1186.988012398566
 20
713.0138425951841
 30
0.0
 10
1188.159172608776
 20
711.3840540484995
 30
0.0
 10
1188.670769288336
 20
709.3343944895502
 30
0.0
 10
1189.101061714444
 20
707.605817829826
 30
0.0
 10
1189.36926239797
 20
705.8348664956334
 30
0.0
 10
1189.676220405706
 20
704.0745088300578
 30
0.0
 10
1189.7184228254
 20
703.8240073245865
 30
0.0
 10
1189.55271373256
 20
703.5418109406511
 30
0.0
 10
1189.482089275112
 20
703.2736963845115
 30
0.0
  0
SPLINE
  5
46
330
1F
100
AcDbEntity
  8
_U+0421_U+043B_U+043E_U+0439 1
 62
     7
370
     5
100
AcDbSpline
210
0.0
220
0.0
230
1.0
 70
    11
 71
     3
 72
    65
 73
    61
 74
     0
 42
0.0000000001
 43
0.0000000001
 12
1.0
 22
0.0
 32
0.0
 13
1.0
 23
0.0
 33
0.0
 40
0.0
 40
0.0
 40
0.0
 40
0.0
 40
1.0
 40
1.0
 40
1.0
 40
2.0
 40
2.0
 40
2.0
 40
3.0
 40
3.0
 40
3.0
 40
4.0
 40
4.0
 40
4.0
 40
5.0
 40
5.0
 40
5.0
 40
6.0
 40
6.0
 40
6.0
 40
7.0
 40
7.0
 40
7.0
 40
8.0
 40
8.0
 40
8.0
 40
9.0
 40
9.0
 40
9.0
 40
10.0
 40
10.0
 40
10.0
 40
11.0
 40
11.0
 40
11.0
 40
12.0
 40
12.0
 40
12.0
 40
13.0
 40
13.0
 40
13.0
 40
14.0
 40
14.0
 40
14.0
 40
15.0
 40
15.0
 40
15.0
 40
16.0
 40
16.0
 40
16.0
 40
17.0
 40
17.0
 40
17.0
 40
18.0
 40
18.0
 40
18.0
 40
19.0
 40
19.0
 40
19.0
 40
20.0
 40
20.0
 40
20.0
 40
20.0
 10
1191.221345730841
 20
741.6453421539984
 30
0.0
 10
1192.325498833863
 20
743.4656444810173
 30
0.0
 10
1193.715422607387
 20
744.9861373734324
 30
0.0
 10
1195.648637938935
 20
745.9562762620786
 30
0.0
 10
1196.678721489025
 20
746.4713180371235
 30
0.0
 10
1197.765304605073
 20
746.5206690299498
 30
0.0
 10
1198.756630830953
 20
745.9844399176706
 30
0.0
 10
1201.638797713913
 20
744.428720923919
 30
0.0
 10
1204.531644392878
 20
742.880064375912
 30
0.0
 10
1207.315109290185
 20
741.1619952574179
 30
0.0
 10
1208.824922386596
 20
740.2306998203677
 30
0.0
 10
1210.186596377141
 20
739.0241412540461
 30
0.0
 10
1211.506067947992
 20
737.821200037984
 30
0.0
 10
1213.150067513553
 20
736.3254257056756
 30
0.0
 10
1213.24170705346
 20
735.1435856994607
 30
0.0
 10
1212.40919972945
 20
733.0763561535365
 30
0.0
 10
1211.566012609435
 20
730.9843219201185
 30
0.0
 10
1210.818082379587
 20
728.8430228212615
 30
0.0
 10
1210.147839052932
 20
726.6875127035278
 30
0.0
 10
1209.69635928959
 20
725.234113045688
 30
0.0
 10
1206.189768849928
 20
719.3920923765756
 30
0.0
 10
1205.738116831812
 20
718.3549463807411
 30
0.0
 10
1205.4664710528
 20
717.7234603782948
 30
0.0
 10
1205.11731062537
 20
717.7128667096778
 30
0.0
 10
1204.676338403258
 20
718.1856199376411
 30
0.0
 10
1204.658596161509
 20
718.2102954340543
 30
0.0
 10
1204.633963728789
 20
718.2279084847225
 30
0.0
 10
1204.612776391555
 20
718.2490958219569
 30
0.0
 10
1202.788942841664
 20
720.0129847104048
 30
0.0
 10
1203.11691593186
 20
721.3676823825922
 30
0.0
 10
1205.533478159988
 20
722.0767260971501
 30
0.0
 10
1205.568790388712
 20
722.0873197657672
 30
0.0
 10
1205.702804603088
 20
722.12612015367
 30
0.0
 10
1205.893318383423
 20
722.1895960379857
 30
0.0
 10
1206.48604706166
 20
722.3871722640647
 30
0.0
 10
1206.782325273391
 20
722.4824291542319
 30
0.0
 10
1206.863457272069
 20
722.5388425928028
 30
0.0
 10
1207.403303734608
 20
722.9269325992162
 30
0.0
 10
1206.47192217017
 20
724.3909259256732
 30
0.0
 10
1206.493109507405
 20
726.6945751492726
 30
0.0
 10
1206.500171953149
 20
727.5588634791346
 30
0.0
 10
1206.503617048635
 20
727.9927732555018
 30
0.0
 10
1206.637631263011
 20
728.4937762664443
 30
0.0
 10
1206.838824839349
 20
729.2592764832668
 30
0.0
 10
1207.159907738575
 20
729.7179048197407
 30
0.0
 10
1206.934081729516
 20
730.0742138203027
 30
0.0
 10
1206.778880177906
 20
730.3246722620803
 30
0.0
 10
1206.48604706166
 20
730.321141039208
 30
0.0
 10
1206.186151499669
 20
730.4305228208647
 30
0.0
 10
1205.223075056767
 20
730.772706929937
 30
0.0
 10
1204.824477509124
 20
732.0074291518506
 30
0.0
 10
1204.637408824275
 20
732.5436582641297
 30
0.0
 10
1203.318109508198
 20
736.2937308272113
 30
0.0
 10
1200.097289739038
 20
738.9113143769041
 30
0.0
 10
1196.110797498281
 20
739.0523910370251
 30
0.0
 10
1194.336401068603
 20
739.115953048728
 30
0.0
 10
1192.893422824607
 20
739.7967900440005
 30
0.0
 10
1191.468186822359
 20
740.6893281568416
 30
0.0
 10
1191.044956841996
 20
740.9539114901088
 30
0.0
 10
1190.967269938803
 20
741.2326197148655
 30
0.0
 10
1191.221345730841
 20
741.6453421539984
 30
0.0
  0
SPLINE
  5
47
330
1F
100
AcDbEntity
  8
_U+0421_U+043B_U+043E_U+0439 1
 62
     7
370
     5
100
AcDbSpline
210
0.0
220
0.0
230
1.0
 70
    11
 71
     3
 72
    41
 73
    37
 74
     0
 42
0.0000000001
 43
0.0000000001
 12
1.0
 22
0.0
 32
0.0
 13
1.0
 23
0.0
 33
0.0
 40
0.0
 40
0.0
 40
0.0
 40
0.0
 40
1.0
 40
1.0
 40
1.0
 40
2.0
 40
2.0
 40
2.0
 40
3.0
 40
3.0
 40
3.0
 40
4.0
 40
4.0
 40
4.0
 40
5.0
 40
5.0
 40
5.0
 40
6.0
 40
6.0
 40
6.0
 40
7.0
 40
7.0
 40
7.0
 40
8.0
 40
8.0
 40
8.0
 40
9.0
 40
9.0
 40
9.0
 40
10.0
 40
10.0
 40
10.0
 40
11.0
 40
11.0
 40
11.0
 40
12.0
 40
12.0
 40
12.0
 40
12.0
 10
1181.512894398632
 20
733.7501307030642
 30
0.0
 10
1183.019262399558
 20
734.7485193746896
 30
0.0
 10
1184.659644614859
 20
735.5422693744912
 30
0.0
 10
1186.250761964722
 20
736.413620150098
 30
0.0
 10
1186.772866185512
 20
736.6993908205995
 30
0.0
 10
1187.122026612942
 20
736.5018145945204
 30
0.0
 10
1187.418304824673
 20
736.0008977109651
 30
0.0
 10
1188.247367053199
 20
734.5933178230791
 30
0.0
 10
1188.977727296072
 20
733.1998628266828
 30
0.0
 10
1188.684894179825
 20
731.4535439252096
 30
0.0
 10
1188.593082385143
 20
730.9102523671856
 30
0.0
 10
1188.818908394202
 20
730.2787663647393
 30
0.0
 10
1189.012867270021
 20
729.7249672654855
 30
0.0
 10
1189.637290826723
 20
727.9575471541651
 30
0.0
 10
1190.882692844641
 20
726.624036819212
 30
0.0
 10
1192.187867269227
 20
725.3398774770852
 30
0.0
 10
1193.524908827053
 20
724.0205781610088
 30
0.0
 10
1194.392728379787
 20
722.4612418169976
 30
0.0
 10
1194.660929063314
 20
720.5844829877142
 30
0.0
 10
1194.812685519439
 20
719.5050053811046
 30
0.0
 10
1194.643186821565
 20
719.3321477151322
 30
0.0
 10
1193.574345947266
 20
719.677863047077
 30
0.0
 10
1192.727713731766
 20
719.9495088260891
 30
0.0
 10
1191.859894179032
 20
720.2457870378205
 30
0.0
 10
1191.104901503439
 20
720.7044153742944
 30
0.0
 10
1189.139991293427
 20
721.8968490491266
 30
0.0
 10
1187.058464601239
 20
722.5670923757818
 30
0.0
 10
1184.740776613537
 20
722.5106789372109
 30
0.0
 10
1184.088103273856
 20
722.493022822849
 30
0.0
 10
1183.424922392946
 20
722.5564987071647
 30
0.0
 10
1182.77931149901
 20
722.6729429345662
 30
0.0
 10
1179.75245060567
 20
723.2091720468453
 30
0.0
 10
1178.239020158999
 20
724.6026270432417
 30
0.0
 10
1178.510665938011
 20
727.8799463783599
 30
0.0
 10
1178.274332387723
 20
730.2858288104841
 30
0.0
 10
1179.367977949516
 20
732.3284259236888
 30
0.0
 10
1181.512894398632
 20
733.7501307030642
 30
0.0
  0
SPLINE
  5
48
330
1F
100
AcDbEntity
  8
_U+0421_U+043B_U+043E_U+0439 1
 62
     7
370
     5
100
AcDbSpline
210
0.0
220
0.0
230
1.0
 70
    11
 71
     3
 72
    65
 73
    61
 74
     0
 42
0.0000000001
 43
0.0000000001
 12
1.0
 22
0.0
 32
0.0
 13
1.0
 23
0.0
 33
0.0
 40
0.0
 40
0.0
 40
0.0
 40
0.0
 40
1.0
 40
1.0
 40
1.0
 40
2.0
 40
2.0
 40
2.0
 40
3.0
 40
3.0
 40
3.0
 40
4.0
 40
4.0
 40
4.0
 40
5.0
 40
5.0
 40
5.0
 40
6.0
 40
6.0
 40
6.0
 40
7.0
 40
7.0
 40
7.0
 40
8.0
 40
8.0
 40
8.0
 40
9.0
 40
9.0
 40
9.0
 40
10.0
 40
10.0
 40
10.0
 40
11.0
 40
11.0
 40
11.0
 40
12.0
 40
12.0
 40
12.0
 40
13.0
 40
13.0
 40
13.0
 40
14.0
 40
14.0
 40
14.0
 40
15.0
 40
15.0
 40
15.0
 40
16.0
 40
16.0
 40
16.0
 40
17.0
 40
17.0
 40
17.0
 40
18.0
 40
18.0
 40
18.0
 40
19.0
 40
19.0
 40
19.0
 40
20.0
 40
20.0
 40
20.0
 40
20.0
 10
1129.555686837837
 20
614.1549328434231
 30
0.0
 10
1129.583936620816
 20
614.1937762950193
 30
0.0
 10
1129.615803754054
 20
614.2255142371772
 30
0.0
 10
1129.647498632519
 20
614.2643146250798
 30
0.0
 10
1129.926206857275
 20
614.6241548485141
 30
0.0
 10
1129.979089072974
 20
615.2273910679813
 30
0.0
 10
1130.031971288673
 20
615.7353703972815
 30
0.0
 10
1130.173047948794
 20
617.1112554067031
 30
0.0
 10
1130.201297731773
 20
618.4553163465798
 30
0.0
 10
1130.324804404919
 20
619.8699586802105
 30
0.0
 10
1130.423678645345
 20
621.0129552348293
 30
0.0
 10
1130.79040905975
 20
622.071288567898
 30
0.0
 10
1131.369012846498
 20
623.0308768516207
 30
0.0
 10
1132.822498631725
 20
625.436759283745
 30
0.0
 10
1134.046713312408
 20
628.079104457238
 30
0.0
 10
1135.105046645477
 20
630.7319571719611
 30
0.0
 10
1136.106880412588
 20
633.2473075131292
 30
0.0
 10
1136.921817749624
 20
635.6461705632022
 30
0.0
 10
1137.659068183467
 20
638.2637971765886
 30
0.0
 10
1138.078853068345
 20
639.7454466174074
 30
0.0
 10
1138.100040405579
 20
641.2447521725882
 30
0.0
 10
1137.849581963801
 20
642.7758387336203
 30
0.0
 10
1137.803762193848
 20
643.0580351175558
 30
0.0
 10
1137.778957506354
 20
643.4354883916585
 30
0.0
 10
1137.789637302358
 20
643.6859898971297
 30
0.0
 10
1137.789637302358
 20
643.7495088451391
 30
0.0
 10
1137.923651516734
 20
643.7812037236033
 30
0.0
 10
1137.948283949454
 20
643.7353839536495
 30
0.0
 10
1138.025970852646
 20
643.6048148347586
 30
0.0
 10
1138.159985067022
 20
643.2732243943033
 30
0.0
 10
1138.234054619955
 20
643.1144916198203
 30
0.0
 10
1138.311741523148
 20
642.9522276224651
 30
0.0
 10
1138.463325724499
 20
642.6100435133926
 30
0.0
 10
1138.576324856415
 20
642.5817937304137
 30
0.0
 10
1139.228998196096
 20
642.4124672873136
 30
0.0
 10
1139.267755520305
 20
641.8868318436516
 30
0.0
 10
1139.479456637873
 20
641.2624082869501
 30
0.0
 10
1140.502477742218
 20
638.2496722850991
 30
0.0
 10
1141.557193725027
 20
635.3075176770021
 30
0.0
 10
1142.612081962611
 20
632.3018441208959
 30
0.0
 10
1142.802595742945
 20
631.7585956265656
 30
0.0
 10
1142.971922186045
 20
631.2329601829036
 30
0.0
 10
1143.187068399099
 20
630.6367433454875
 30
0.0
 10
1143.402214612153
 20
630.0440577309439
 30
0.0
 10
1143.684540187169
 20
629.2785575141214
 30
0.0
 10
1143.931381278687
 20
628.6576651802922
 30
0.0
 10
1144.002005736135
 20
628.4812762914474
 30
0.0
 10
1144.139637300771
 20
628.2942937339855
 30
0.0
 10
1144.192519516469
 20
628.1179048451407
 30
0.0
 10
1144.679311508535
 20
626.5551234056443
 30
0.0
 10
1145.162658405116
 20
624.685383958412
 30
0.0
 10
1145.674255084675
 20
623.2142851225168
 30
0.0
 10
1146.471450179962
 20
620.9106789626109
 30
0.0
 10
1146.944117280538
 20
618.6246427896798
 30
0.0
 10
1148.129574637013
 20
616.6385021787397
 30
0.0
 10
1148.626874170309
 20
615.8024205681631
 30
0.0
 10
1149.163103282588
 20
615.1003962356564
 30
0.0
 10
1149.755831960825
 20
614.486566347572
 30
0.0
 10
1142.933164861836
 20
614.4830351246995
 30
0.0
 10
1136.198519952496
 20
614.3666339609917
 30
0.0
 10
1129.555686837837
 20
614.1549328434231
 30
0.0
  0
SPLINE
  5
49
330
1F
100
AcDbEntity
  8
_U+0421_U+043B_U+043E_U+0439 1
 62
     7
370
     5
100
AcDbSpline
210
0.0
220
0.0
230
1.0
 70
    11
 71
     3
 72
   194
 73
   190
 74
     0
 42
0.0000000001
 43
0.0000000001
 12
1.0
 22
0.0
 32
0.0
 13
1.0
 23
0.0
 33
0.0
 40
0.0
 40
0.0
 40
0.0
 40
0.0
 40
1.0
 40
1.0
 40
1.0
 40
2.0
 40
2.0
 40
2.0
 40
3.0
 40
3.0
 40
3.0
 40
4.0
 40
4.0
 40
4.0
 40
5.0
 40
5.0
 40
5.0
 40
6.0
 40
6.0
 40
6.0
 40
7.0
 40
7.0
 40
7.0
 40
8.0
 40
8.0
 40
8.0
 40
9.0
 40
9.0
 40
9.0
 40
10.0
 40
10.0
 40
10.0
 40
11.0
 40
11.0
 40
11.0
 40
12.0
 40
12.0
 40
12.0
 40
13.0
 40
13.0
 40
13.0
 40
14.0
 40
14.0
 40
14.0
 40
15.0
 40
15.0
 40
15.0
 40
16.0
 40
16.0
 40
16.0
 40
17.0
 40
17.0
 40
17.0
 40
18.0
 40
18.0
 40
18.0
 40
19.0
 40
19.0
 40
19.0
 40
20.0
 40
20.0
 40
20.0
 40
21.0
 40
21.0
 40
21.0
 40
22.0
 40
22.0
 40
22.0
 40
23.0
 40
23.0
 40
23.0
 40
24.0
 40
24.0
 40
24.0
 40
25.0
 40
25.0
 40
25.0
 40
26.0
 40
26.0
 40
26.0
 40
27.0
 40
27.0
 40
27.0
 40
28.0
 40
28.0
 40
28.0
 40
29.0
 40
29.0
 40
29.0
 40
30.0
 40
30.0
 40
30.0
 40
31.0
 40
31.0
 40
31.0
 40
32.0
 40
32.0
 40
32.0
 40
33.0
 40
33.0
 40
33.0
 40
34.0
 40
34.0
 40
34.0
 40
35.0
 40
35.0
 40
35.0
 40
36.0
 40
36.0
 40
36.0
 40
37.0
 40
37.0
 40
37.0
 40
38.0
 40
38.0
 40
38.0
 40
39.0
 40
39.0
 40
39.0
 40
40.0
 40
40.0
 40
40.0
 40
41.0
 40
41.0
 40
41.0
 40
42.0
 40
42.0
 40
42.0
 40
43.0
 40
43.0
 40
43.0
 40
44.0
 40
44.0
 40
44.0
 40
45.0
 40
45.0
 40
45.0
 40
46.0
 40
46.0
 40
46.0
 40
47.0
 40
47.0
 40
47.0
 40
48.0
 40
48.0
 40
48.0
 40
49.0
 40
49.0
 40
49.0
 40
50.0
 40
50.0
 40
50.0
 40
51.0
 40
51.0
 40
51.0
 40
52.0
 40
52.0
 40
52.0
 40
53.0
 40
53.0
 40
53.0
 40
54.0
 40
54.0
 40
54.0
 40
55.0
 40
55.0
 40
55.0
 40
56.0
 40
56.0
 40
56.0
 40
57.0
 40
57.0
 40
57.0
 40
58.0
 40
58.0
 40
58.0
 40
59.0
 40
59.0
 40
59.0
 40
60.0
 40
60.0
 40
60.0
 40
61.0
 40
61.0
 40
61.0
 40
62.0
 40
62.0
 40
62.0
 40
63.0
 40
63.0
 40
63.0
 40
63.0
 10
1155.802491301761
 20
614.4618908511588
 30
0.0
 10
1155.375643971139
 20
614.8146686288485
 30
0.0
 10
1154.948796640516
 20
615.1780400751552
 30
0.0
 10
1154.546581742613
 20
615.5907625142881
 30
0.0
 10
1153.925603281397
 20
616.2328421853515
 30
0.0
 10
1153.336491953419
 20
616.744352737524
 30
0.0
 10
1152.818005082889
 20
617.6121722902584
 30
0.0
 10
1152.302963307844
 20
618.4799918429928
 30
0.0
 10
1152.458164859455
 20
619.9510906788881
 30
0.0
 10
1153.029533945684
 20
620.8612418423976
 30
0.0
 10
1153.601075286687
 20
621.774967292473
 30
0.0
 10
1153.953853064376
 20
622.5757797380193
 30
0.0
 10
1153.657574852645
 20
623.7681272854643
 30
0.0
 10
1153.49169350503
 20
624.4384567395067
 30
0.0
 10
1153.170782860579
 20
624.8229293956606
 30
0.0
 10
1152.627491302555
 20
625.1757071733502
 30
0.0
 10
1151.854928639988
 20
625.6731789614203
 30
0.0
 10
1151.159880625838
 20
626.0435697897782
 30
0.0
 10
1150.383700613012
 20
626.7138561801271
 30
0.0
 10
1149.607692854959
 20
627.3840995067825
 30
0.0
 10
1149.216157753061
 20
628.4742138457027
 30
0.0
 10
1149.029089068212
 20
629.67009261602
 30
0.0
 10
1148.870270166341
 20
630.6684812876454
 30
0.0
 10
1148.584671750614
 20
631.7938217279022
 30
0.0
 10
1148.355228391297
 20
632.8063352910171
 30
0.0
 10
1148.214151731176
 20
633.4272276248463
 30
0.0
 10
1148.058950179565
 20
634.0727954550886
 30
0.0
 10
1147.92131861493
 20
634.6971759480965
 30
0.0
 10
1147.55803329601
 20
636.334113067913
 30
0.0
 10
1147.20525551832
 20
637.9921513975767
 30
0.0
 10
1146.855922836116
 20
639.6219830079548
 30
0.0
 10
1146.799595524932
 20
639.886566341222
 30
0.0
 10
1146.70778373025
 20
640.1617433431063
 30
0.0
 10
1146.679533947271
 20
640.4016511799604
 30
0.0
 10
1146.365685748565
 20
642.9027905022517
 30
0.0
 10
1145.480123954081
 20
645.2276270630855
 30
0.0
 10
1144.308963743871
 20
647.1996427825361
 30
0.0
 10
1143.134186183401
 20
649.1716585019866
 30
0.0
 10
1142.29806150913
 20
650.9003212890979
 30
0.0
 10
1141.539623738053
 20
653.0204761144142
 30
0.0
 10
1141.211478393083
 20
653.9447521694132
 30
0.0
 10
1140.809435749954
 20
654.6785575077714
 30
0.0
 10
1140.410665947536
 20
655.5322521690163
 30
0.0
 10
1140.319026407629
 20
655.7333596179677
 30
0.0
 10
1140.255464395926
 20
655.937955226098
 30
0.0
 10
1140.227214612947
 20
656.1425508342282
 30
0.0
 10
1140.128512627294
 20
656.9151565604891
 30
0.0
 10
1140.072013061336
 20
657.7229883880866
 30
0.0
 10
1139.923873955471
 20
658.4638561721896
 30
0.0
 10
1139.556971286291
 20
660.2630142256678
 30
0.0
 10
1139.560588636551
 20
661.9845715033407
 30
0.0
 10
1139.888561726747
 20
663.7484603917886
 30
0.0
 10
1140.213261976231
 20
665.5123492802365
 30
0.0
 10
1140.403603501792
 20
667.1139741713292
 30
0.0
 10
1140.879887952627
 20
668.8143441117678
 30
0.0
 10
1141.1022688662
 20
669.6045628886969
 30
0.0
 10
1141.028027058493
 20
670.5217764979512
 30
0.0
 10
1141.077464178706
 20
671.3437762807318
 30
0.0
 10
1141.133963744664
 20
672.2997902778886
 30
0.0
 10
1141.426796860911
 20
672.4338475559584
 30
0.0
 10
1142.174554835984
 20
672.2398456164452
 30
0.0
 10
1143.141248629145
 20
671.9858128881017
 30
0.0
 10
1143.737422402868
 20
671.9928753338464
 30
0.0
 10
1144.358400864084
 20
672.998283387523
 30
0.0
 10
1144.707561291514
 20
673.5627622827813
 30
0.0
 10
1145.116838635162
 20
674.0566167205918
 30
0.0
 10
1145.476678858596
 20
674.6387086665183
 30
0.0
 10
1146.009290620616
 20
675.4889151685844
 30
0.0
 10
1145.87165905598
 20
676.3496722755741
 30
0.0
 10
1145.152150863886
 20
676.9917519466375
 30
0.0
 10
1144.84519285615
 20
677.2669289485218
 30
0.0
 10
1144.340658622335
 20
677.4080056086428
 30
0.0
 10
1144.499477524205
 20
677.9830351088245
 30
0.0
 10
1144.66174152156
 20
678.5580646090064
 30
0.0
 10
1145.102713743672
 20
678.3816757201615
 30
0.0
 10
1145.525943724035
 20
678.3958006116511
 30
0.0
 10
1145.945900863687
 20
678.4063942802683
 30
0.0
 10
1146.510207504171
 20
678.3781444972892
 30
0.0
 10
1146.908977306589
 20
678.5333460488997
 30
0.0
 10
1147.473283947073
 20
678.7521096122131
 30
0.0
 10
1147.674477523411
 20
679.2142261078658
 30
0.0
 10
1147.138248411132
 20
679.6939987178804
 30
0.0
 10
1146.605464394338
 20
680.1702831687162
 30
0.0
 10
1145.935221067683
 20
680.540673997074
 30
0.0
 10
1145.261360390768
 20
680.7947067254177
 30
0.0
 10
1144.404220634038
 20
681.1192347201282
 30
0.0
 10
1143.525721285299
 20
681.2356789475297
 30
0.0
 10
1142.82016572992
 20
681.990585495735
 30
0.0
 10
1142.728526190012
 20
682.0858423859022
 30
0.0
 10
1142.580387084147
 20
682.1669743845798
 30
0.0
 10
1142.460325506486
 20
682.177568053197
 30
0.0
 10
1141.370297294953
 20
682.2834186119812
 30
0.0
 10
1140.428408189285
 20
682.7102659426038
 30
0.0
 10
1139.539401299317
 20
683.4264151666
 30
0.0
 10
1138.869157972661
 20
683.9626442788791
 30
0.0
 10
1138.23060952447
 20
684.5058927732094
 30
0.0
 10
1137.652005737722
 20
685.144398157707
 30
0.0
 10
1136.650171970612
 20
686.2556998338614
 30
0.0
 10
1136.163379978546
 20
687.5892101688146
 30
0.0
 10
1135.680033081965
 20
689.0990663289189
 30
0.0
 10
1135.366012628485
 20
690.0832870453612
 30
0.0
 10
1135.489519301631
 20
691.1592764927918
 30
0.0
 10
1135.630595961752
 20
692.1999537114987
 30
0.0
 10
1135.902241740764
 20
694.224937774035
 30
0.0
 10
1136.403158624319
 20
696.098165380446
 30
0.0
 10
1137.186401082891
 20
697.9361238218268
 30
0.0
 10
1137.38035995871
 20
698.3912209354282
 30
0.0
 10
1137.436859524669
 20
698.923918824835
 30
0.0
 10
1137.584998630534
 20
699.4037344985431
 30
0.0
 10
1137.800144843588
 20
700.0951651624329
 30
0.0
 10
1138.06128308137
 20
700.78306460345
 30
0.0
 10
1138.290554185914
 20
701.467432821595
 30
0.0
 10
1138.406998413315
 20
701.8202105992846
 30
0.0
 10
1138.516380194972
 20
702.2047693828256
 30
0.0
 10
1138.586832397645
 20
702.5610783833876
 30
0.0
 10
1138.837290839423
 20
703.8592764896168
 30
0.0
 10
1139.200748413117
 20
704.2861238202393
 30
0.0
 10
1140.27665173316
 20
703.6722939321548
 30
0.0
 10
1141.874831528767
 20
702.7621427686454
 30
0.0
 10
1143.652845308705
 20
702.6386791591927
 30
0.0
 10
1145.33904729396
 20
702.0460366083427
 30
0.0
 10
1148.023637950841
 20
701.1041044389818
 30
0.0
 10
1150.570769297861
 20
701.0758977196963
 30
0.0
 10
1153.325984412189
 20
701.5309517696043
 30
0.0
 10
1154.51126951389
 20
701.7284849319898
 30
0.0
 10
1155.587172833933
 20
702.335295438023
 30
0.0
 10
1156.684435745985
 20
702.8538684359402
 30
0.0
 10
1158.134304180953
 20
703.5418109406511
 30
0.0
 10
1159.57004772443
 20
704.268510769571
 30
0.0
 10
1160.935339065235
 20
705.1469239909225
 30
0.0
 10
1162.480464390369
 20
706.1488008217267
 30
0.0
 10
1164.078644185977
 20
706.8684812685954
 30
0.0
 10
1165.711963955534
 20
707.6304933262392
 30
0.0
 10
1166.428027052143
 20
707.9656149895668
 30
0.0
 10
1167.098442633573
 20
708.4030990524999
 30
0.0
 10
1167.765068609968
 20
708.8546218795356
 30
0.0
 10
1168.029651943236
 20
706.1065122746453
 30
0.0
 10
1168.237907965319
 20
703.3512971603167
 30
0.0
 10
1168.52367863582
 20
700.6031444917329
 30
0.0
 10
1168.597748188753
 20
699.8834640448642
 30
0.0
 10
1168.929338629209
 20
699.1849709352298
 30
0.0
 10
1169.165672179497
 20
698.4864778255954
 30
0.0
 10
1169.3985606343
 20
697.8127032760677
 30
0.0
 10
1169.835915506152
 20
697.1600299363871
 30
0.0
 10
1169.881735276106
 20
696.4756617182422
 30
0.0
 10
1170.08637394793
 20
693.2336546118479
 30
0.0
 10
1170.259317741289
 20
689.9845419960152
 30
0.0
 10
1170.301520160984
 20
686.7354293801825
 30
0.0
 10
1170.336832389708
 20
684.0508387233016
 30
0.0
 10
1170.153381055118
 20
681.3626307161611
 30
0.0
 10
1170.089991298189
 20
678.6780400592802
 30
0.0
 10
1170.008859299512
 20
675.0338180549829
 30
0.0
 10
1169.924109950575
 20
671.393127273558
 30
0.0
 10
1169.885352626366
 20
667.7489483329543
 30
0.0
 10
1169.860547938872
 20
665.1842900626536
 30
0.0
 10
1169.9065399636
 20
662.6195887286593
 30
0.0
 10
1169.920664855089
 20
660.0548873946651
 30
0.0
 10
1169.924109950575
 20
658.7143146139673
 30
0.0
 10
1169.948742383294
 20
657.3737418332695
 30
0.0
 10
1169.920664855089
 20
656.0332121162652
 30
0.0
 10
1169.857102843386
 20
653.3167973898393
 30
0.0
 10
1169.765463303479
 20
650.6039569499792
 30
0.0
 10
1169.680713954542
 20
647.8875852872469
 30
0.0
 10
1169.634894184588
 20
646.3635611719595
 30
0.0
 10
1170.149935959633
 20
645.0583006199854
 30
0.0
 10
1170.982443283643
 20
643.7847349464757
 30
0.0
 10
1171.638561718809
 20
642.7793699564927
 30
0.0
 10
1172.241797938276
 20
641.6539864525423
 30
0.0
 10
1172.524123513293
 20
640.496865006434
 30
0.0
 10
1173.240186609902
 20
637.5405855068475
 30
0.0
 10
1173.772970626696
 20
634.5349119507413
 30
0.0
 10
1174.369144400418
 20
631.5504257318694
 30
0.0
 10
1174.813561718015
 20
629.3138266791516
 30
0.0
 10
1174.884186175463
 20
627.1054343457193
 30
0.0
 10
1173.868227516863
 20
624.9711546289135
 30
0.0
 10
1173.381435524797
 20
623.9515786200539
 30
0.0
 10
1173.511832388914
 20
622.9250262928365
 30
0.0
 10
1174.298519942971
 20
622.1454011845244
 30
0.0
 10
1175.180464387194
 20
621.2704761223516
 30
0.0
 10
1176.1542206261
 20
620.4661755176265
 30
0.0
 10
1177.17379663496
 20
619.7535575165026
 30
0.0
 10
1178.71185951435
 20
618.6846305148167
 30
0.0
 10
1179.734880618695
 20
617.312319791961
 30
0.0
 10
1180.278172176719
 20
615.5131617384828
 30
0.0
 10
1180.479193498283
 20
614.8464065710064
 30
0.0
 10
1180.863838409211
 20
614.2466585107179
 30
0.0
 10
1181.361137942507
 20
613.7351479585454
 30
0.0
 10
1173.003853059614
 20
614.1443822384995
 30
0.0
 10
1164.470179287875
 20
614.387821298226
 30
0.0
 10
1155.802491301761
 20
614.4618908511588
 30
0.0
  0
SPLINE
  5
4A
330
1F
100
AcDbEntity
  8
_U+0421_U+043B_U+043E_U+0439 1
 62
     7
370
     5
100
AcDbSpline
210
0.0
220
0.0
230
1.0
 70
    11
 71
     3
 72
    29
 73
    25
 74
     0
 42
0.0000000001
 43
0.0000000001
 12
1.0
 22
0.0
 32
0.0
 13
1.0
 23
0.0
 33
0.0
 40
0.0
 40
0.0
 40
0.0
 40
0.0
 40
1.0
 40
1.0
 40
1.0
 40
2.0
 40
2.0
 40
2.0
 40
3.0
 40
3.0
 40
3.0
 40
4.0
 40
4.0
 40
4.0
 40
5.0
 40
5.0
 40
5.0
 40
6.0
 40
6.0
 40
6.0
 40
7.0
 40
7.0
 40
7.0
 40
8.0
 40
8.0
 40
8.0
 40
8.0
 10
1217.111755066816
 20
665.5370678403432
 30
0.0
 10
1218.194720832604
 20
667.2268441121647
 30
0.0
 10
1219.274241502907
 20
668.9201516068586
 30
0.0
 10
1220.403027038649
 20
670.5747017773433
 30
0.0
 10
1221.493227504957
 20
672.176326668436
 30
0.0
 10
1222.350367261687
 20
673.8484898895891
 30
0.0
 10
1222.428054164879
 20
675.9051688305897
 30
0.0
 10
1224.745742152581
 20
672.5220420003808
 30
0.0
 10
1227.991366609235
 20
670.1231789503078
 30
0.0
 10
1230.654769928881
 20
667.177450055645
 30
0.0
 10
1231.589768843578
 20
666.1473665055552
 30
0.0
 10
1232.323401927162
 20
664.9126442836416
 30
0.0
 10
1233.018449941311
 20
663.6955351123964
 30
0.0
 10
1233.702818159456
 20
662.4996132783856
 30
0.0
 10
1233.618241065293
 20
661.3142851129918
 30
0.0
 10
1232.796241282513
 20
660.0936877825677
 30
0.0
 10
1231.490894603152
 20
658.1498787824027
 30
0.0
 10
1231.55790171034
 20
658.1075471716276
 30
0.0
 10
1229.374227937014
 20
658.9577106100002
 30
0.0
 10
1225.518304815148
 20
660.4570161651809
 30
0.0
 10
1221.662553948057
 20
661.9492592746169
 30
0.0
 10
1217.806630826191
 20
663.4485648297976
 30
0.0
 10
1216.367269932453
 20
664.0059812793111
 30
0.0
 10
1216.282692838291
 20
664.2458460524715
 30
0.0
 10
1217.111755066816
 20
665.5370678403432
 30
0.0
  0
SPLINE
  5
4B
330
1F
100
AcDbEntity
  8
_U+0421_U+043B_U+043E_U+0439 1
 62
     7
370
     5
100
AcDbSpline
210
0.0
220
0.0
230
1.0
 70
    11
 71
     3
 72
    11
 73
     7
 74
     0
 42
0.0000000001
 43
0.0000000001
 12
1.0
 22
0.0
 32
0.0
 13
1.0
 23
0.0
 33
0.0
 40
0.0
 40
0.0
 40
0.0
 40
0.0
 40
1.0
 40
1.0
 40
1.0
 40
2.0
 40
2.0
 40
2.0
 40
2.0
 10
1206.097957055246
 20
616.885429397645
 30
0.0
 10
1206.288470835581
 20
618.8010316785246
 30
0.0
 10
1206.475367265655
 20
620.7025090679147
 30
0.0
 10
1206.66588104599
 20
622.6463180680797
 30
0.0
 10
1208.814414845366
 20
620.0534100148001
 30
0.0
 10
1208.440449730442
 20
617.2735194040583
 30
0.0
 10
1206.097957055246
 20
616.885429397645
 30
0.0
  0
SPLINE
  5
4C
330
1F
100
AcDbEntity
  8
_U+0421_U+043B_U+043E_U+0439 1
 62
     7
370
     5
100
AcDbSpline
210
0.0
220
0.0
230
1.0
 70
    11
 71
     3
 72
    41
 73
    37
 74
     0
 42
0.0000000001
 43
0.0000000001
 12
1.0
 22
0.0
 32
0.0
 13
1.0
 23
0.0
 33
0.0
 40
0.0
 40
0.0
 40
0.0
 40
0.0
 40
1.0
 40
1.0
 40
1.0
 40
2.0
 40
2.0
 40
2.0
 40
3.0
 40
3.0
 40
3.0
 40
4.0
 40
4.0
 40
4.0
 40
5.0
 40
5.0
 40
5.0
 40
6.0
 40
6.0
 40
6.0
 40
7.0
 40
7.0
 40
7.0
 40
8.0
 40
8.0
 40
8.0
 40
9.0
 40
9.0
 40
9.0
 40
10.0
 40
10.0
 40
10.0
 40
11.0
 40
11.0
 40
11.0
 40
12.0
 40
12.0
 40
12.0
 40
12.0
 10
1213.545047710937
 20
641.6045923960224
 30
0.0
 10
1212.05642195176
 20
642.5041929546084
 30
0.0
 10
1210.472367047642
 20
643.0897730597137
 30
0.0
 10
1208.779102616642
 20
643.5272140589533
 30
0.0
 10
1205.97806773236
 20
644.246894505822
 30
0.0
 10
1203.900158390431
 20
646.0249082857595
 30
0.0
 10
1202.42548526797
 20
648.508477621076
 30
0.0
 10
1202.270283716359
 20
648.7695297314708
 30
0.0
 10
1202.167964380448
 20
649.0623197840235
 30
0.0
 10
1201.963325708624
 20
649.5138426110591
 30
0.0
 10
1204.626901283045
 20
649.429179389509
 30
0.0
 10
1206.895324405308
 20
650.2829601781411
 30
0.0
 10
1209.213012393009
 20
650.9320161675622
 30
0.0
 10
1210.003145042551
 20
651.1543109537479
 30
0.0
 10
1210.89215193252
 20
651.1048738335346
 30
0.0
 10
1211.72827660679
 20
651.069647732198
 30
0.0
 10
1212.980741070453
 20
651.0131481662398
 30
0.0
 10
1214.233033279341
 20
650.8932588433531
 30
0.0
 10
1215.481880392744
 20
650.7485648329726
 30
0.0
 10
1216.81892195057
 20
650.5968945042345
 30
0.0
 10
1217.086950379322
 20
649.9301824004515
 30
0.0
 10
1216.272013042286
 20
648.8612553987656
 30
0.0
 10
1215.894602831877
 20
648.3638266743891
 30
0.0
 10
1215.47120059674
 20
647.8946477329916
 30
0.0
 10
1215.104297927561
 20
647.386625339998
 30
0.0
 10
1214.621123285754
 20
646.7163389496491
 30
0.0
 10
1214.695192838687
 20
646.0954466158199
 30
0.0
 10
1215.372498611087
 20
645.5874672865199
 30
0.0
 10
1215.891157736392
 20
645.195846057234
 30
0.0
 10
1216.416707052667
 20
644.8149046239525
 30
0.0
 10
1217.019943272134
 20
644.3668699560958
 30
0.0
 10
1216.088561707697
 20
643.3967310674494
 30
0.0
 10
1215.241929492197
 20
642.4794743945017
 30
0.0
 10
1214.342415060998
 20
641.6222485103845
 30
0.0
 10
1214.197721050617
 20
641.4811287865698
 30
0.0
 10
1213.742623937016
 20
641.4811287865698
 30
0.0
 10
1213.545047710937
 20
641.6045923960224
 30
0.0
  0
SPLINE
  5
4D
330
1F
100
AcDbEntity
  8
_U+0421_U+043B_U+043E_U+0439 1
 62
     7
370
     5
100
AcDbSpline
210
0.0
220
0.0
230
1.0
 70
    11
 71
     3
 72
    17
 73
    13
 74
     0
 42
0.0000000001
 43
0.0000000001
 12
1.0
 22
0.0
 32
0.0
 13
1.0
 23
0.0
 33
0.0
 40
0.0
 40
0.0
 40
0.0
 40
0.0
 40
1.0
 40
1.0
 40
1.0
 40
2.0
 40
2.0
 40
2.0
 40
3.0
 40
3.0
 40
3.0
 40
4.0
 40
4.0
 40
4.0
 40
4.0
 10
1222.232028231768
 20
596.7362716878386
 30
0.0
 10
1221.127530619197
 20
596.7362716878386
 30
0.0
 10
1220.232064175194
 20
597.6316950681485
 30
0.0
 10
1220.232064175194
 20
598.7362357444132
 30
0.0
 10
1220.232064175194
 20
599.8408194843714
 30
0.0
 10
1221.127530619197
 20
600.736285928375
 30
0.0
 10
1222.232028231768
 20
600.736285928375
 30
0.0
 10
1223.336698099114
 20
600.736285928375
 30
0.0
 10
1224.23207841573
 20
599.8408194843714
 30
0.0
 10
1224.23207841573
 20
598.7362357444132
 30
0.0
 10
1224.23207841573
 20
597.6316950681485
 30
0.0
 10
1223.336698099114
 20
596.7362716878386
 30
0.0
 10
1222.232028231768
 20
596.7362716878386
 30
0.0
  0
HATCH
  5
4E
330
1F
100
AcDbEntity
  8
_U+0421_U+043B_U+043E_U+0439 1
 62
     7
100
AcDbHatch
 10
0.0
 20
0.0
 30
0.0
210
0.0
220
0.0
230
1.0
  2
SOLID
 70
     1
 71
     0
 91
       13
 92
        1
 93
        1
 72
     4
 94
        3
 73
     0
 74
     1
 95
     1292
 96
     1288
 40
0.0
 40
0.0
 40
0.0
 40
0.0
 40
1.0
 40
1.0
 40
1.0
 40
2.0
 40
2.0
 40
2.0
 40
3.0
 40
3.0
 40
3.0
 40
4.0
 40
4.0
 40
4.0
 40
5.0
 40
5.0
 40
5.0
 40
6.0
 40
6.0
 40
6.0
 40
7.0
 40
7.0
 40
7.0
 40
8.0
 40
8.0
 40
8.0
 40
9.0
 40
9.0
 40
9.0
 40
10.0
 40
10.0
 40
10.0
 40
11.0
 40
11.0
 40
11.0
 40
12.0
 40
12.0
 40
12.0
 40
13.0
 40
13.0
 40
13.0
 40
14.0
 40
14.0
 40
14.0
 40
15.0
 40
15.0
 40
15.0
 40
16.0
 40
16.0
 40
16.0
 40
17.0
 40
17.0
 40
17.0
 40
18.0
 40
18.0
 40
18.0
 40
19.0
 40
19.0
 40
19.0
 40
20.0
 40
20.0
 40
20.0
 40
21.0
 40
21.0
 40
21.0
 40
22.0
 40
22.0
 40
22.0
 40
23.0
 40
23.0
 40
23.0
 40
24.0
 40
24.0
 40
24.0
 40
25.0
 40
25.0
 40
25.0
 40
26.0
 40
26.0
 40
26.0
 40
27.0
 40
27.0
 40
27.0
 40
28.0
 40
28.0
 40
28.0
 40
29.0
 40
29.0
 40
29.0
 40
30.0
 40
30.0
 40
30.0
 40
31.0
 40
31.0
 40
31.0
 40
32.0
 40
32.0
 40
32.0
 40
33.0
 40
33.0
 40
33.0
 40
34.0
 40
34.0
 40
34.0
 40
35.0
 40
35.0
 40
35.0
 40
36.0
 40
36.0
 40
36.0
 40
37.0
 40
37.0
 40
37.0
 40
38.0
 40
38.0
 40
38.0
 40
39.0
 40
39.0
 40
39.0
 40
40.0
 40
40.0
 40
40.0
 40
41.0
 40
41.0
 40
41.0
 40
42.0
 40
42.0
 40
42.0
 40
43.0
 40
43.0
 40
43.0
 40
44.0
 40
44.0
 40
44.0
 40
45.0
 40
45.0
 40
45.0
 40
46.0
 40
46.0
 40
46.0
 40
47.0
 40
47.0
 40
47.0
 40
48.0
 40
48.0
 40
48.0
 40
49.0
 40
49.0
 40
49.0
 40
50.0
 40
50.0
 40
50.0
 40
51.0
 40
51.0
 40
51.0
 40
52.0
 40
52.0
 40
52.0
 40
53.0
 40
53.0
 40
53.0
 40
54.0
 40
54.0
 40
54.0
 40
55.0
 40
55.0
 40
55.0
 40
56.0
 40
56.0
 40
56.0
 40
57.0
 40
57.0
 40
57.0
 40
58.0
 40
58.0
 40
58.0
 40
59.0
 40
59.0
 40
59.0
 40
60.0
 40
60.0
 40
60.0
 40
61.0
 40
61.0
 40
61.0
 40
62.0
 40
62.0
 40
62.0
 40
63.0
 40
63.0
 40
63.0
 40
64.0
 40
64.0
 40
64.0
 40
65.0
 40
65.0
 40
65.0
 40
66.0
 40
66.0
 40
66.0
 40
67.0
 40
67.0
 40
67.0
 40
68.0
 40
68.0
 40
68.0
 40
69.0
 40
69.0
 40
69.0
 40
70.0
 40
70.0
 40
70.0
 40
71.0
 40
71.0
 40
71.0
 40
72.0
 40
72.0
 40
72.0
 40
73.0
 40
73.0
 40
73.0
 40
74.0
 40
74.0
 40
74.0
 40
75.0
 40
75.0
 40
75.0
 40
76.0
 40
76.0
 40
76.0
 40
77.0
 40
77.0
 40
77.0
 40
78.0
 40
78.0
 40
78.0
 40
79.0
 40
79.0
 40
79.0
 40
80.0
 40
80.0
 40
80.0
 40
81.0
 40
81.0
 40
81.0
 40
82.0
 40
82.0
 40
82.0
 40
83.0
 40
83.0
 40
83.0
 40
84.0
 40
84.0
 40
84.0
 40
85.0
 40
85.0
 40
85.0
 40
86.0
 40
86.0
 40
86.0
 40
87.0
 40
87.0
 40
87.0
 40
88.0
 40
88.0
 40
88.0
 40
89.0
 40
89.0
 40
89.0
 40
90.0
 40
90.0
 40
90.0
 40
91.0
 40
91.0
 40
91.0
 40
92.0
 40
92.0
 40
92.0
 40
93.0
 40
93.0
 40
93.0
 40
94.0
 40
94.0
 40
94.0
 40
95.0
 40
95.0
 40
95.0
 40
96.0
 40
96.0
 40
96.0
 40
97.0
 40
97.0
 40
97.0
 40
98.0
 40
98.0
 40
98.0
 40
99.0
 40
99.0
 40
99.0
 40
100.0
 40
100.0
 40
100.0
 40
101.0
 40
101.0
 40
101.0
 40
102.0
 40
102.0
 40
102.0
 40
103.0
 40
103.0
 40
103.0
 40
104.0
 40
104.0
 40
104.0
 40
105.0
 40
105.0
 40
105.0
 40
106.0
 40
106.0
 40
106.0
 40
107.0
 40
107.0
 40
107.0
 40
108.0
 40
108.0
 40
108.0
 40
109.0
 40
109.0
 40
109.0
 40
110.0
 40
110.0
 40
110.0
 40
111.0
 40
111.0
 40
111.0
 40
112.0
 40
112.0
 40
112.0
 40
113.0
 40
113.0
 40
113.0
 40
114.0
 40
114.0
 40
114.0
 40
115.0
 40
115.0
 40
115.0
 40
116.0
 40
116.0
 40
116.0
 40
117.0
 40
117.0
 40
117.0
 40
118.0
 40
118.0
 40
118.0
 40
119.0
 40
119.0
 40
119.0
 40
120.0
 40
120.0
 40
120.0
 40
121.0
 40
121.0
 40
121.0
 40
122.0
 40
122.0
 40
122.0
 40
123.0
 40
123.0
 40
123.0
 40
124.0
 40
124.0
 40
124.0
 40
125.0
 40
125.0
 40
125.0
 40
126.0
 40
126.0
 40
126.0
 40
127.0
 40
127.0
 40
127.0
 40
128.0
 40
128.0
 40
128.0
 40
129.0
 40
129.0
 40
129.0
 40
130.0
 40
130.0
 40
130.0
 40
131.0
 40
131.0
 40
131.0
 40
132.0
 40
132.0
 40
132.0
 40
133.0
 40
133.0
 40
133.0
 40
134.0
 40
134.0
 40
134.0
 40
135.0
 40
135.0
 40
135.0
 40
136.0
 40
136.0
 40
136.0
 40
137.0
 40
137.0
 40
137.0
 40
138.0
 40
138.0
 40
138.0
 40
139.0
 40
139.0
 40
139.0
 40
140.0
 40
140.0
 40
140.0
 40
141.0
 40
141.0
 40
141.0
 40
142.0
 40
142.0
 40
142.0
 40
143.0
 40
143.0
 40
143.0
 40
144.0
 40
144.0
 40
144.0
 40
145.0
 40
145.0
 40
145.0
 40
146.0
 40
146.0
 40
146.0
 40
147.0
 40
147.0
 40
147.0
 40
148.0
 40
148.0
 40
148.0
 40
149.0
 40
149.0
 40
149.0
 40
150.0
 40
150.0
 40
150.0
 40
151.0
 40
151.0
 40
151.0
 40
152.0
 40
152.0
 40
152.0
 40
153.0
 40
153.0
 40
153.0
 40
154.0
 40
154.0
 40
154.0
 40
155.0
 40
155.0
 40
155.0
 40
156.0
 40
156.0
 40
156.0
 40
157.0
 40
157.0
 40
157.0
 40
158.0
 40
158.0
 40
158.0
 40
159.0
 40
159.0
 40
159.0
 40
160.0
 40
160.0
 40
160.0
 40
161.0
 40
161.0
 40
161.0
 40
162.0
 40
162.0
 40
162.0
 40
163.0
 40
163.0
 40
163.0
 40
164.0
 40
164.0
 40
164.0
 40
165.0
 40
165.0
 40
165.0
 40
166.0
 40
166.0
 40
166.0
 40
167.0
 40
167.0
 40
167.0
 40
168.0
 40
168.0
 40
168.0
 40
169.0
 40
169.0
 40
169.0
 40
170.0
 40
170.0
 40
170.0
 40
171.0
 40
171.0
 40
171.0
 40
172.0
 40
172.0
 40
172.0
 40
173.0
 40
173.0
 40
173.0
 40
174.0
 40
174.0
 40
174.0
 40
175.0
 40
175.0
 40
175.0
 40
176.0
 40
176.0
 40
176.0
 40
177.0
 40
177.0
 40
177.0
 40
178.0
 40
178.0
 40
178.0
 40
179.0
 40
179.0
 40
179.0
 40
180.0
 40
180.0
 40
180.0
 40
181.0
 40
181.0
 40
181.0
 40
182.0
 40
182.0
 40
182.0
 40
183.0
 40
183.0
 40
183.0
 40
184.0
 40
184.0
 40
184.0
 40
185.0
 40
185.0
 40
185.0
 40
186.0
 40
186.0
 40
186.0
 40
187.0
 40
187.0
 40
187.0
 40
188.0
 40
188.0
 40
188.0
 40
189.0
 40
189.0
 40
189.0
 40
190.0
 40
190.0
 40
190.0
 40
191.0
 40
191.0
 40
191.0
 40
192.0
 40
192.0
 40
192.0
 40
193.0
 40
193.0
 40
193.0
 40
194.0
 40
194.0
 40
194.0
 40
195.0
 40
195.0
 40
195.0
 40
196.0
 40
196.0
 40
196.0
 40
197.0
 40
197.0
 40
197.0
 40
198.0
 40
198.0
 40
198.0
 40
199.0
 40
199.0
 40
199.0
 40
200.0
 40
200.0
 40
200.0
 40
201.0
 40
201.0
 40
201.0
 40
202.0
 40
202.0
 40
202.0
 40
203.0
 40
203.0
 40
203.0
 40
204.0
 40
204.0
 40
204.0
 40
205.0
 40
205.0
 40
205.0
 40
206.0
 40
206.0
 40
206.0
 40
207.0
 40
207.0
 40
207.0
 40
208.0
 40
208.0
 40
208.0
 40
209.0
 40
209.0
 40
209.0
 40
210.0
 40
210.0
 40
210.0
 40
211.0
 40
211.0
 40
211.0
 40
212.0
 40
212.0
 40
212.0
 40
213.0
 40
213.0
 40
213.0
 40
214.0
 40
214.0
 40
214.0
 40
215.0
 40
215.0
 40
215.0
 40
216.0
 40
216.0
 40
216.0
 40
217.0
 40
217.0
 40
217.0
 40
218.0
 40
218.0
 40
218.0
 40
219.0
 40
219.0
 40
219.0
 40
220.0
 40
220.0
 40
220.0
 40
221.0
 40
221.0
 40
221.0
 40
222.0
 40
222.0
 40
222.0
 40
223.0
 40
223.0
 40
223.0
 40
224.0
 40
224.0
 40
224.0
 40
225.0
 40
225.0
 40
225.0
 40
226.0
 40
226.0
 40
226.0
 40
227.0
 40
227.0
 40
227.0
 40
228.0
 40
228.0
 40
228.0
 40
229.0
 40
229.0
 40
229.0
 40
230.0
 40
230.0
 40
230.0
 40
231.0
 40
231.0
 40
231.0
 40
232.0
 40
232.0
 40
232.0
 40
233.0
 40
233.0
 40
233.0
 40
234.0
 40
234.0
 40
234.0
 40
235.0
 40
235.0
 40
235.0
 40
236.0
 40
236.0
 40
236.0
 40
237.0
 40
237.0
 40
237.0
 40
238.0
 40
238.0
 40
238.0
 40
239.0
 40
239.0
 40
239.0
 40
240.0
 40
240.0
 40
240.0
 40
241.0
 40
241.0
 40
241.0
 40
242.0
 40
242.0
 40
242.0
 40
243.0
 40
243.0
 40
243.0
 40
244.0
 40
244.0
 40
244.0
 40
245.0
 40
245.0
 40
245.0
 40
246.0
 40
246.0
 40
246.0
 40
247.0
 40
247.0
 40
247.0
 40
248.0
 40
248.0
 40
248.0
 40
249.0
 40
249.0
 40
249.0
 40
250.0
 40
250.0
 40
250.0
 40
251.0
 40
251.0
 40
251.0
 40
252.0
 40
252.0
 40
252.0
 40
253.0
 40
253.0
 40
253.0
 40
254.0
 40
254.0
 40
254.0
 40
255.0
 40
255.0
 40
255.0
 40
256.0
 40
256.0
 40
256.0
 40
257.0
 40
257.0
 40
257.0
 40
258.0
 40
258.0
 40
258.0
 40
259.0
 40
259.0
 40
259.0
 40
260.0
 40
260.0
 40
260.0
 40
261.0
 40
261.0
 40
261.0
 40
262.0
 40
262.0
 40
262.0
 40
263.0
 40
263.0
 40
263.0
 40
264.0
 40
264.0
 40
264.0
 40
265.0
 40
265.0
 40
265.0
 40
266.0
 40
266.0
 40
266.0
 40
267.0
 40
267.0
 40
267.0
 40
268.0
 40
268.0
 40
268.0
 40
269.0
 40
269.0
 40
269.0
 40
270.0
 40
270.0
 40
270.0
 40
271.0
 40
271.0
 40
271.0
 40
272.0
 40
272.0
 40
272.0
 40
273.0
 40
273.0
 40
273.0
 40
274.0
 40
274.0
 40
274.0
 40
275.0
 40
275.0
 40
275.0
 40
276.0
 40
276.0
 40
276.0
 40
277.0
 40
277.0
 40
277.0
 40
278.0
 40
278.0
 40
278.0
 40
279.0
 40
279.0
 40
279.0
 40
280.0
 40
280.0
 40
280.0
 40
281.0
 40
281.0
 40
281.0
 40
282.0
 40
282.0
 40
282.0
 40
283.0
 40
283.0
 40
283.0
 40
284.0
 40
284.0
 40
284.0
 40
285.0
 40
285.0
 40
285.0
 40
286.0
 40
286.0
 40
286.0
 40
287.0
 40
287.0
 40
287.0
 40
288.0
 40
288.0
 40
288.0
 40
289.0
 40
289.0
 40
289.0
 40
290.0
 40
290.0
 40
290.0
 40
291.0
 40
291.0
 40
291.0
 40
292.0
 40
292.0
 40
292.0
 40
293.0
 40
293.0
 40
293.0
 40
294.0
 40
294.0
 40
294.0
 40
295.0
 40
295.0
 40
295.0
 40
296.0
 40
296.0
 40
296.0
 40
297.0
 40
297.0
 40
297.0
 40
298.0
 40
298.0
 40
298.0
 40
299.0
 40
299.0
 40
299.0
 40
300.0
 40
300.0
 40
300.0
 40
301.0
 40
301.0
 40
301.0
 40
302.0
 40
302.0
 40
302.0
 40
303.0
 40
303.0
 40
303.0
 40
304.0
 40
304.0
 40
304.0
 40
305.0
 40
305.0
 40
305.0
 40
306.0
 40
306.0
 40
306.0
 40
307.0
 40
307.0
 40
307.0
 40
308.0
 40
308.0
 40
308.0
 40
309.0
 40
309.0
 40
309.0
 40
310.0
 40
310.0
 40
310.0
 40
311.0
 40
311.0
 40
311.0
 40
312.0
 40
312.0
 40
312.0
 40
313.0
 40
313.0
 40
313.0
 40
314.0
 40
314.0
 40
314.0
 40
315.0
 40
315.0
 40
315.0
 40
316.0
 40
316.0
 40
316.0
 40
317.0
 40
317.0
 40
317.0
 40
318.0
 40
318.0
 40
318.0
 40
319.0
 40
319.0
 40
319.0
 40
320.0
 40
320.0
 40
320.0
 40
321.0
 40
321.0
 40
321.0
 40
322.0
 40
322.0
 40
322.0
 40
323.0
 40
323.0
 40
323.0
 40
324.0
 40
324.0
 40
324.0
 40
325.0
 40
325.0
 40
325.0
 40
326.0
 40
326.0
 40
326.0
 40
327.0
 40
327.0
 40
327.0
 40
328.0
 40
328.0
 40
328.0
 40
329.0
 40
329.0
 40
329.0
 40
330.0
 40
330.0
 40
330.0
 40
331.0
 40
331.0
 40
331.0
 40
332.0
 40
332.0
 40
332.0
 40
333.0
 40
333.0
 40
333.0
 40
334.0
 40
334.0
 40
334.0
 40
335.0
 40
335.0
 40
335.0
 40
336.0
 40
336.0
 40
336.0
 40
337.0
 40
337.0
 40
337.0
 40
338.0
 40
338.0
 40
338.0
 40
339.0
 40
339.0
 40
339.0
 40
340.0
 40
340.0
 40
340.0
 40
341.0
 40
341.0
 40
341.0
 40
342.0
 40
342.0
 40
342.0
 40
343.0
 40
343.0
 40
343.0
 40
344.0
 40
344.0
 40
344.0
 40
345.0
 40
345.0
 40
345.0
 40
346.0
 40
346.0
 40
346.0
 40
347.0
 40
347.0
 40
347.0
 40
348.0
 40
348.0
 40
348.0
 40
349.0
 40
349.0
 40
349.0
 40
350.0
 40
350.0
 40
350.0
 40
351.0
 40
351.0
 40
351.0
 40
352.0
 40
352.0
 40
352.0
 40
353.0
 40
353.0
 40
353.0
 40
354.0
 40
354.0
 40
354.0
 40
355.0
 40
355.0
 40
355.0
 40
356.0
 40
356.0
 40
356.0
 40
357.0
 40
357.0
 40
357.0
 40
358.0
 40
358.0
 40
358.0
 40
359.0
 40
359.0
 40
359.0
 40
360.0
 40
360.0
 40
360.0
 40
361.0
 40
361.0
 40
361.0
 40
362.0
 40
362.0
 40
362.0
 40
363.0
 40
363.0
 40
363.0
 40
364.0
 40
364.0
 40
364.0
 40
365.0
 40
365.0
 40
365.0
 40
366.0
 40
366.0
 40
366.0
 40
367.0
 40
367.0
 40
367.0
 40
368.0
 40
368.0
 40
368.0
 40
369.0
 40
369.0
 40
369.0
 40
370.0
 40
370.0
 40
370.0
 40
371.0
 40
371.0
 40
371.0
 40
372.0
 40
372.0
 40
372.0
 40
373.0
 40
373.0
 40
373.0
 40
374.0
 40
374.0
 40
374.0
 40
375.0
 40
375.0
 40
375.0
 40
376.0
 40
376.0
 40
376.0
 40
377.0
 40
377.0
 40
377.0
 40
378.0
 40
378.0
 40
378.0
 40
379.0
 40
379.0
 40
379.0
 40
380.0
 40
380.0
 40
380.0
 40
381.0
 40
381.0
 40
381.0
 40
382.0
 40
382.0
 40
382.0
 40
383.0
 40
383.0
 40
383.0
 40
384.0
 40
384.0
 40
384.0
 40
385.0
 40
385.0
 40
385.0
 40
386.0
 40
386.0
 40
386.0
 40
387.0
 40
387.0
 40
387.0
 40
388.0
 40
388.0
 40
388.0
 40
389.0
 40
389.0
 40
389.0
 40
390.0
 40
390.0
 40
390.0
 40
391.0
 40
391.0
 40
391.0
 40
392.0
 40
392.0
 40
392.0
 40
393.0
 40
393.0
 40
393.0
 40
394.0
 40
394.0
 40
394.0
 40
395.0
 40
395.0
 40
395.0
 40
396.0
 40
396.0
 40
396.0
 40
397.0
 40
397.0
 40
397.0
 40
398.0
 40
398.0
 40
398.0
 40
399.0
 40
399.0
 40
399.0
 40
400.0
 40
400.0
 40
400.0
 40
401.0
 40
401.0
 40
401.0
 40
402.0
 40
402.0
 40
402.0
 40
403.0
 40
403.0
 40
403.0
 40
404.0
 40
404.0
 40
404.0
 40
405.0
 40
405.0
 40
405.0
 40
406.0
 40
406.0
 40
406.0
 40
407.0
 40
407.0
 40
407.0
 40
408.0
 40
408.0
 40
408.0
 40
409.0
 40
409.0
 40
409.0
 40
410.0
 40
410.0
 40
410.0
 40
411.0
 40
411.0
 40
411.0
 40
412.0
 40
412.0
 40
412.0
 40
413.0
 40
413.0
 40
413.0
 40
414.0
 40
414.0
 40
414.0
 40
415.0
 40
415.0
 40
415.0
 40
416.0
 40
416.0
 40
416.0
 40
417.0
 40
417.0
 40
417.0
 40
418.0
 40
418.0
 40
418.0
 40
419.0
 40
419.0
 40
419.0
 40
420.0
 40
420.0
 40
420.0
 40
421.0
 40
421.0
 40
421.0
 40
422.0
 40
422.0
 40
422.0
 40
423.0
 40
423.0
 40
423.0
 40
424.0
 40
424.0
 40
424.0
 40
425.0
 40
425.0
 40
425.0
 40
426.0
 40
426.0
 40
426.0
 40
427.0
 40
427.0
 40
427.0
 40
428.0
 40
428.0
 40
428.0
 40
429.0
 40
429.0
 40
429.0
 40
429.0
 10
1303.33405457868
 20
592.2121722966084
 10
1301.940599582284
 20
592.7307452945257
 10
1300.522426025781
 20
593.2387676875194
 10
1299.076088813686
 20
593.7397276347682
 10
1295.382429689175
 20
595.0308632952527
 10
1291.519530248952
 20
596.2655855171663
 10
1287.494366811373
 20
597.4474255233812
 10
1286.270238258077
 20
597.8142851288668
 10
1285.031984813291
 20
598.1705941294288
 10
1283.776075254143
 20
598.5233719071183
 10
1278.71014847047
 20
599.9415454636214
 10
1273.404443041024
 20
601.285606403498
 10
1267.886950366622
 20
602.5415159626459
 10
1265.8337595848
 20
603.0107379677369
 10
1263.748873924514
 20
603.4657920176448
 10
1261.635738481249
 20
603.9067642397569
 10
1258.721790592438
 20
604.5205941278413
 10
1255.751429265055
 20
605.1062172966401
 10
1252.728099594587
 20
605.6706531282048
 10
1251.161786932218
 20
605.9669744036298
 10
1249.58134937836
 20
606.2527450741313
 10
1247.986786933012
 20
606.531453298888
 10
1247.341176039076
 20
606.6443232397235
 10
1246.688588826783
 20
606.7536619576866
 10
1246.039446709975
 20
606.8665749622156
 10
1246.392224487664
 20
607.0606199654223
 10
1246.674463935293
 20
607.3110784072001
 10
1246.882547702602
 20
607.5297989068198
 10
1246.96367970128
 20
607.5721305175948
 10
1247.13300614438
 20
607.6815122992515
 10
1247.224731811675
 20
607.893127289433
 10
1247.238856703164
 20
607.921377072412
 10
1247.260044040398
 20
607.977790510983
 10
1247.274168931888
 20
608.0519031276094
 10
1247.327051147587
 20
608.4011496824266
 10
1247.044811699958
 20
608.6798148434898
 10
1247.020179267238
 20
608.7045334035964
 10
1246.970742147025
 20
608.7503962372439
 10
1246.893141371219
 20
608.7997902937636
 10
1246.741471042481
 20
608.8985784068032
 10
1246.741471042481
 20
608.8985784068032
 10
1246.617964369335
 20
608.9832416283532
 10
1246.487481377831
 20
609.0502487355412
 10
1244.797662042316
 20
609.93925562551
 10
1243.093717815312
 20
610.8035439553721
 10
1241.396922161439
 20
611.6819571767236
 10
1240.744248821758
 20
612.0171219037449
 10
1240.1797699265
 20
612.3522866307661
 10
1240.063325699099
 20
613.2306998521177
 10
1240.013974706273
 20
613.5834776298072
 10
1239.442519492657
 20
614.0385316797152
 10
1239.036859499269
 20
614.1373197927547
 10
1237.406984825197
 20
614.528897958347
 10
1236.052373280397
 20
615.4002487339537
 10
1234.680019493847
 20
616.2963180696672
 10
1233.801520145109
 20
616.871347569849
 10
1232.831381256462
 20
617.523977845836
 10
1231.840227285356
 20
617.6545039010334
 10
1229.490672164416
 20
617.964950067948
 10
1227.109422165011
 20
617.9861374051823
 10
1224.738679706836
 20
618.1131322375073
 10
1222.301102396248
 20
618.2436582927047
 10
1219.852845289655
 20
618.2471895155771
 10
1217.436283061526
 20
618.5294289632062
 10
1215.644144390099
 20
618.7375127305153
 10
1215.125485264795
 20
619.4007797388131
 10
1214.995088400678
 20
621.1964065694189
 10
1214.825761957578
 20
623.5670629002063
 10
1214.79389482434
 20
625.9483128996111
 10
1214.691575488428
 20
628.3225435169645
 10
1214.663325705449
 20
628.9328421821765
 10
1214.970283713184
 20
629.2256322347292
 10
1215.527700162698
 20
629.1974255154437
 10
1218.096018846952
 20
629.07745006517
 10
1218.783832160582
 20
628.9116548449423
 10
1218.783832160582
 20
628.9116548449423
 10
1220.508963724821
 20
628.8693232341673
 10
1221.874255065625
 20
628.7775975668725
 10
1222.816144171293
 20
628.6964655681949
 10
1223.436950377735
 20
628.6435402888027
 10
1224.11081105465
 20
628.5765331816145
 10
1224.953998174664
 20
628.3507071725564
 10
1225.641811488294
 20
628.1672989016605
 10
1226.181657950833
 20
627.9485784020407
 10
1226.410929055377
 20
627.8533215118736
 10
1227.084789732291
 20
627.5710820642444
 10
1227.158859285224
 20
627.4617433462813
 10
1227.765540600177
 20
627.186566344397
 10
1228.781499258777
 20
626.7279810716167
 10
1229.289650842851
 20
626.4986238396862
 10
1229.832770146101
 20
626.5832870612362
 10
1230.407928837363
 20
626.6750127285309
 10
1230.397249041359
 20
627.0137086784246
 10
1231.614401276298
 20
628.0473665150802
 10
1232.764374149274
 20
629.0245678494713
 10
1233.339532840537
 20
629.5184222872819
 10
1234.119157948849
 20
629.6172104003214
 10
1234.676574398362
 20
629.6877487303819
 10
1235.138561702934
 20
629.5748787895465
 10
1235.385575049227
 20
629.8888561793334
 10
1235.625525949774
 20
630.1922399005032
 10
1235.487894385139
 20
630.6578876190283
 10
1235.442074615185
 20
630.8448701764902
 10
1235.113929270215
 20
632.1889741800604
 10
1235.992428618953
 20
633.2719830095423
 10
1236.768436377006
 20
635.4203876178376
 10
1237.780949940121
 20
638.2249537249924
 10
1237.357547704984
 20
640.7297103975433
 10
1235.184553727662
 20
642.7475889506412
 10
1233.939151709744
 20
643.9047103967496
 10
1232.468095937543
 20
644.8501307252892
 10
1231.007547706571
 20
645.7462000610027
 10
1229.899949508063
 20
646.4270370562753
 10
1228.65110239466
 20
646.875071724132
 10
1227.4621999427
 20
647.4254257279006
 10
1228.294707266711
 20
647.3513561749677
 10
1229.645873716026
 20
647.2031740054084
 10
1231.279193485583
 20
646.8821341698767
 10
1232.838443702207
 20
646.5787935124005
 10
1238.038470827643
 20
646.2471600082516
 10
1245.958314711297
 20
641.0225435137895
 10
1247.895061265717
 20
639.7454466174074
 10
1249.757738267205
 20
638.369647735373
 10
1251.997825479101
 20
637.6111238369081
 10
1255.663234820633
 20
636.3728703921221
 10
1259.497884477877
 20
636.1541929561959
 10
1263.283183142296
 20
635.6638266775641
 10
1267.047380596867
 20
635.1769916218047
 10
1270.797367032561
 20
634.7042383938414
 10
1274.466221469578
 20
633.635354455849
 10
1276.187821810944
 20
633.1308632857277
 10
1277.380255485777
 20
632.2136496764736
 10
1278.315082145699
 20
630.7178753441651
 10
1278.643141363282
 20
630.1887086776308
 10
1279.398047911487
 20
629.8570751734819
 10
1280.026088818448
 20
629.6066167317043
 10
1280.463443690301
 20
629.4337590657319
 10
1281.017328916942
 20
629.5889606173424
 10
1281.514714577625
 20
629.5466720702609
 10
1283.878394590055
 20
629.3526270670542
 10
1286.301933136541
 20
629.3949586778292
 10
1288.587926245778
 20
628.8657920112948
 10
1291.314977704515
 20
628.2343490725422
 10
1294.024286921503
 20
627.6522140629221
 10
1296.811196914296
 20
627.3876307296548
 10
1297.982443251893
 20
627.2782920116917
 10
1298.977214573259
 20
627.5816757328615
 10
1299.915658583441
 20
628.2096305124355
 10
1300.734127143349
 20
628.7564532933318
 10
1300.822321587772
 20
629.3878962320845
 10
1300.088516249414
 20
630.0546513995611
 10
1299.418186795371
 20
630.664950064773
 10
1298.691530030145
 20
631.2258977371588
 10
1297.93300613168
 20
631.7232833978418
 10
1293.068186796959
 20
634.8912209513032
 10
1287.610811038775
 20
636.7150975648881
 10
1282.142755484586
 20
638.4472485111781
 10
1280.279992355711
 20
639.0398910620282
 10
1278.219825255532
 20
638.9905400692021
 10
1276.332429693938
 20
639.5232379586088
 10
1271.506453810813
 20
640.8884431720262
 10
1266.708727710667
 20
642.3524795621767
 10
1261.939165266112
 20
643.8976479510047
 10
1256.079488482638
 20
645.7991253403949
 10
1250.586714368343
 20
648.4520211188116
 10
1245.76426970809
 20
652.3501897240652
 10
1245.376179701677
 20
652.6676983367246
 10
1244.885856486739
 20
653.267446397013
 10
1244.94226992531
 20
653.6660439446564
 10
1245.224509372939
 20
655.7227659493506
 10
1244.508360148942
 20
657.4619362776918
 10
1243.612290813229
 20
659.2328876118845
 10
1241.481499255602
 20
663.423932397078
 10
1239.301442832536
 20
667.600766163395
 10
1237.389414838222
 20
671.8940872208069
 10
1234.824713504228
 20
677.6514016046757
 10
1232.436401059078
 20
683.4898910509157
 10
1230.076338396908
 20
689.3354429429005
 10
1228.823873933246
 20
692.4433927712251
 10
1226.029901494708
 20
693.7698406604335
 10
1222.777214592309
 20
693.2089360517411
 10
1218.166471049625
 20
692.4116548290673
 10
1214.730505067411
 20
689.4729883801491
 10
1211.735339052535
 20
686.2697816616574
 10
1207.932470401142
 20
682.1987553904313
 10
1204.633963728789
 20
677.6549328275481
 10
1201.095506155889
 20
673.3334050508507
 10
1200.816797931133
 20
672.9912209417782
 10
1200.386505505025
 20
672.5855609483901
 10
1200.002032848871
 20
672.5537799425387
 10
1198.167519502975
 20
672.4056408366729
 10
1196.65064396082
 20
671.5166339467042
 10
1195.168908392614
 20
670.5852954459605
 10
1194.593921956126
 20
670.2219239996538
 10
1194.198769503968
 20
669.5551688321772
 10
1193.750734836111
 20
669.0013266692297
 10
1192.992297065033
 20
668.0629257227413
 10
1192.371318603817
 20
666.9728544475146
 10
1191.485929064108
 20
666.1825926068918
 10
1189.171686171891
 20
664.1153630609678
 10
1187.280845514812
 20
661.7376442844354
 10
1186.201324844509
 20
658.8448406691647
 10
1184.64551972337
 20
654.675026284899
 10
1183.305033070059
 20
650.424036838262
 10
1181.826914852113
 20
646.2260157347109
 10
1181.325825713783
 20
644.7937172867182
 10
1181.59402639731
 20
643.5201516132086
 10
1182.303027048174
 20
642.2607538948819
 10
1183.682443280468
 20
639.8054343425443
 10
1185.435824627686
 20
637.6499672885042
 10
1187.443109512167
 20
635.6849709511048
 10
1189.736165067149
 20
633.4448406755147
 10
1192.357193712327
 20
631.800884173647
 10
1195.532193711534
 20
631.134172069864
 10
1197.063366399953
 20
630.8131322343323
 10
1198.601429279343
 20
630.5203421817797
 10
1200.121922171758
 20
630.1428458439834
 10
1201.275512394994
 20
629.8570751734819
 10
1201.342519502182
 20
629.6560107882241
 10
1200.972171737517
 20
628.5624082901251
 10
1200.019602835846
 20
625.7437172914807
 10
1199.038956405969
 20
622.9285575157089
 10
1198.125144828507
 20
620.0957416255751
 10
1197.32794973322
 20
617.6192347360032
 10
1197.211505505819
 20
615.139196623559
 10
1197.909998615453
 20
612.7015331855833
 10
1194.30108883988
 20
612.9801983466465
 10
1190.649804389838
 20
613.223637406373
 10
1186.966825061331
 20
613.435295460248
 10
1186.582352405177
 20
613.8938807330283
 10
1186.15895017004
 20
614.3277905093955
 10
1185.717977947928
 20
614.7335366301708
 10
1184.278617054191
 20
616.0493908507619
 10
1183.068699519771
 20
617.5416339601979
 10
1182.669929717353
 20
619.485442960363
 10
1181.819852406368
 20
623.634113071088
 10
1180.782706410534
 20
627.7721895131958
 10
1180.323991946673
 20
631.9702106167471
 10
1179.618436391293
 20
638.4401860654334
 10
1179.410352623984
 20
644.9595125069459
 10
1178.845873728726
 20
651.4471010063006
 10
1178.577845299974
 20
654.4951061731819
 10
1178.397839060869
 20
657.5149046207775
 10
1178.88118595745
 20
660.5487418324757
 10
1179.38554793649
 20
663.734335500299
 10
1179.770192847419
 20
666.9375852824844
 10
1181.191811499407
 20
669.900884164122
 10
1182.602922610165
 20
672.8360193901677
 10
1183.947026613735
 20
675.8028494946778
 10
1184.275171958706
 20
679.1048873899026
 10
1184.289296850195
 20
679.249495272896
 10
1184.359749052868
 20
679.3906149967105
 10
1184.387998835848
 20
679.5352659433975
 10
1184.751456409541
 20
681.323873391952
 10
1185.83442217533
 20
682.516220939397
 10
1187.478421740891
 20
683.2182452719038
 10
1188.106290393078
 20
683.4863598280434
 10
1188.758963732758
 20
683.7051233913568
 10
1189.415082167924
 20
683.9061877766146
 10
1190.526297716691
 20
684.2483718856871
 10
1191.694012831417
 20
684.4459050480726
 10
1192.755963514745
 20
684.9010021616741
 10
1195.179415933844
 20
685.9452106032533
 10
1197.652477727931
 20
686.7919289461406
 10
1200.241811494644
 20
687.3140331669302
 10
1202.009317733352
 20
687.6703421674922
 10
1203.526193275507
 20
688.5205056058647
 10
1204.887867266052
 20
689.6988143892073
 10
1208.246318599848
 20
692.6127622780187
 10
1210.186596377141
 20
696.4051233881818
 10
1211.714151715301
 20
700.476149659408
 10
1212.846554601302
 20
703.4923738204377
 10
1213.121817730574
 20
706.4909849307992
 10
1211.894157954405
 20
709.5601774349146
 10
1210.998088618692
 20
711.79324526476
 10
1211.340186600377
 20
713.9310992681318
 10
1212.522026606592
 20
716.0054343234943
 10
1215.037290820373
 20
720.4045628759969
 10
1216.896436598988
 20
725.1000127039247
 10
1218.434671733152
 20
729.908418600075
 10
1219.111977505552
 20
732.0250852662125
 10
1219.478880174731
 20
734.2545788094919
 10
1219.828040602161
 20
736.4594399200519
 10
1220.19494327134
 20
738.787807703758
 10
1219.35881859707
 20
740.6292973680111
 10
1217.139832595021
 20
741.6876307010799
 10
1214.906893956256
 20
742.7530264798934
 10
1212.709095291441
 20
743.9101479260016
 10
1210.416039736459
 20
744.8379121401795
 10
1207.932470401142
 20
745.846894480422
 10
1205.342964379654
 20
746.6018010286274
 10
1202.831317516132
 20
747.5437762616818
 10
1201.921123288929
 20
747.8859603707542
 10
1201.063811277425
 20
748.4010021457991
 10
1200.252491290649
 20
748.944293703823
 10
1199.659762612411
 20
749.3394461559811
 10
1199.504561060801
 20
750.023814374126
 10
1199.705582382365
 20
750.7152450380157
 10
1199.906775958704
 20
751.4172693705225
 10
1200.495887286682
 20
751.6606653665553
 10
1201.155623072107
 20
751.7065712638963
 10
1202.019825274582
 20
751.7629847024673
 10
1202.887644827316
 20
751.7629847024673
 10
1203.752019284565
 20
751.8052732495487
 10
1205.14194305809
 20
751.8688352612515
 10
1205.667492374364
 20
752.2639015860226
 10
1206.076769718012
 20
753.6009431438481
 10
1206.260221052602
 20
754.2006481404429
 10
1206.387172821233
 20
754.8180092513996
 10
1206.503617048635
 20
755.4319252668712
 10
1206.997471486445
 20
757.9754392636312
 10
1208.292310624576
 20
760.0320751409382
 10
1210.285470617568
 20
761.6548873692651
 10
1210.976901281457
 20
762.2192801371361
 10
1211.74240149828
 20
762.695564587972
 10
1212.451574403918
 20
763.2423873688682
 10
1212.970061274448
 20
763.644516139384
 10
1213.516797927958
 20
764.0361373686699
 10
1213.92263017612
 20
764.5370542522252
 10
1214.162408821893
 20
764.8369498142162
 10
1214.328290169508
 20
765.397897486602
 10
1214.208400846622
 20
765.7259567041849
 10
1214.11658905194
 20
765.9764151459625
 10
1213.492165495238
 20
766.2268735877402
 10
1213.164020150268
 20
766.1669289262968
 10
1211.767033930999
 20
765.9093219113873
 10
1210.236033497354
 20
765.8106199257348
 10
1209.04006859965
 20
765.1438216945647
 10
1206.228526174137
 20
763.5810402550683
 10
1203.370991723897
 20
761.9758841411033
 10
1200.926179712789
 20
759.9191621364091
 10
1198.308596163097
 20
757.7179183761087
 10
1195.740449733617
 20
755.5412209211407
 10
1192.628839491339
 20
754.0772275946839
 10
1192.583019721386
 20
754.0560402574496
 10
1192.551324842921
 20
753.9890331502614
 10
1192.449005507009
 20
753.8690576999876
 10
1192.964047282054
 20
753.1952831504599
 10
1192.452450602495
 20
752.9765195871465
 10
1191.898651503241
 20
752.6555228153084
 10
1191.425984402664
 20
752.3838770362964
 10
1191.041339491736
 20
751.9393735913121
 10
1190.660484185842
 20
751.5301823750515
 10
1190.194707276236
 20
751.0327105869815
 10
1189.845546848806
 20
750.3977794890499
 10
1189.316380182272
 20
749.9849709225298
 10
1186.966825061331
 20
748.1470124811491
 10
1184.617269940391
 20
746.3019915940235
 10
1182.176075279543
 20
744.5874536984018
 10
1179.19520641093
 20
742.4919743694986
 10
1176.133033288866
 20
740.5129392679968
 10
1173.084985058291
 20
738.516161924746
 10
1170.94713105492
 20
737.1191757054772
 10
1169.652464171563
 20
735.2423738125002
 10
1169.507770161182
 20
732.6424463771693
 10
1169.437317958509
 20
731.3301233794505
 10
1169.296241298388
 20
730.0248628274765
 10
1169.264374165149
 20
728.7124537023706
 10
1169.246804178174
 20
727.9787344913995
 10
1168.968095953418
 20
727.8270641626614
 10
1168.276665289528
 20
727.862290263998
 10
1162.822734626829
 20
728.1445297116271
 10
1157.36880396413
 20
728.3773320390428
 10
1151.918318396916
 20
728.6489778180548
 10
1149.92171330844
 20
728.7512971539667
 10
1147.963693289398
 20
728.8676552539811
 10
1146.185679509461
 20
729.7249672654855
 10
1146.87711017335
 20
729.5379847080235
 10
1147.603853065964
 20
729.439196594984
 10
1148.355228391297
 20
729.439196594984
 10
1153.008518863224
 20
729.4286029263668
 10
1156.807770164357
 20
733.1962454764232
 10
1156.828957501592
 20
737.8423873752182
 10
1156.853762189085
 20
742.5484739354566
 10
1153.096713307646
 20
746.3408350456197
 10
1148.39054062002
 20
746.3654674783393
 10
1143.751547294357
 20
746.3901860384459
 10
1139.93799884696
 20
742.6119498197723
 10
1139.909749063981
 20
737.9658079209773
 10
1139.909749063981
 20
737.7259431478168
 10
1139.920428859985
 20
737.4896095975287
 10
1139.93799884696
 20
737.2531899198534
 10
1139.909749063981
 20
736.9040294924233
 10
1139.895624172491
 20
736.5583141604785
 10
1139.930936401215
 20
736.2195751468913
 10
1140.241339504436
 20
733.1327695921075
 10
1142.022970634633
 20
730.7162934913661
 10
1143.818554401545
 20
728.3808632619152
 10
1144.898075071849
 20
726.9768145969017
 10
1146.778408187698
 20
727.1496722628741
 10
1148.344720850067
 20
726.7475434923583
 10
1148.489414860447
 20
726.7087000407621
 10
1148.640999061798
 20
726.6910439264002
 10
1148.785693072179
 20
726.6558178250635
 10
1154.67008841576
 20
725.3081825986209
 10
1160.60374862478
 20
724.2463180426797
 10
1166.625603278222
 20
723.7206825990178
 10
1168.068581522219
 20
723.5937308303863
 10
1168.061519076474
 20
723.6077695944887
 10
1167.853263054391
 20
722.179045433062
 10
1167.546477301429
 20
720.0976479319548
 10
1167.281893968162
 20
718.0233128765923
 10
1167.232456847949
 20
715.931321706868
 10
1166.964256164422
 20
715.7408509902272
 10
1166.717415072904
 20
715.5080055991178
 10
1166.625603278222
 20
715.2363598201059
 10
1166.092991516203
 20
713.6806408263542
 10
1165.122852627556
 20
712.6610648174944
 10
1164.928721496962
 20
710.9818822142902
 10
1164.925276401477
 20
710.9395506035152
 10
1164.889964172753
 20
710.8901565469954
 10
1164.854651944029
 20
710.8584186048375
 10
1164.043331957253
 20
710.1599254952031
 10
1163.404783509062
 20
709.3096759294434
 10
1162.360575067483
 20
709.1192052128027
 10
1159.785366192259
 20
708.6535574942776
 10
1157.171227738051
 20
708.2513425963747
 10
1154.581893971337
 20
707.8421513801142
 10
1153.918540835652
 20
707.7363008213298
 10
1153.223665076277
 20
707.7998197693391
 10
1152.574436832082
 20
707.6481063769074
 10
1150.849477522617
 20
707.2459776063916
 10
1149.42062417011
 20
707.6657624912693
 10
1147.826061724762
 20
708.4312627080918
 10
1147.381644407165
 20
708.6464950485329
 10
1146.947734630798
 20
708.780509262909
 10
1146.482129975966
 20
708.8969534903105
 10
1144.742873520238
 20
709.3273320438053
 10
1143.218935532338
 20
709.8953421619359
 10
1141.737199964132
 20
711.1124082694876
 10
1140.128512627294
 20
712.4388561586959
 10
1138.350498847357
 20
713.3525385450777
 10
1136.537172838696
 20
714.2450766579188
 10
1135.637658407497
 20
714.6895370392095
 10
1134.653394627361
 20
715.134040484194
 10
1134.043095962149
 20
716.086566322172
 10
1132.822498631725
 20
717.9915749344344
 10
1133.224713529628
 20
720.1399795427297
 10
1134.653394627361
 20
721.7028040459198
 10
1135.627150866267
 20
722.7681998247333
 10
1136.346659058361
 20
723.7065577075283
 10
1136.664296862101
 20
725.2587454784076
 10
1136.731303969289
 20
725.5939532691224
 10
1136.840685750946
 20
725.900825149471
 10
1136.985207506552
 20
726.1901270428449
 10
1137.517991523346
 20
727.2837726046374
 10
1137.673193074957
 20
728.3596759246809
 10
1137.669575724697
 20
729.6014605923392
 10
1137.666130629212
 20
730.3705781594213
 10
1137.676638170442
 20
731.0866412560305
 10
1137.652005737722
 20
731.8522276002401
 10
1137.613248413513
 20
733.1857379351932
 10
1137.990658623923
 20
734.0217764820762
 10
1138.925485283845
 20
734.7803003805411
 10
1139.133741305928
 20
734.9496268236411
 10
1139.348887518982
 20
735.231780143883
 10
1139.387644843191
 20
735.5422693744912
 10
1139.511151516338
 20
736.5335956003719
 10
1139.507706420852
 20
737.2814397028325
 10
1138.985602200063
 20
738.1246268228474
 10
1138.812658406703
 20
738.3997176973445
 10
1138.756158840745
 20
738.7561128252936
 10
1138.632824422373
 20
739.1123356984684
 10
1138.089532864349
 20
740.7068981438164
 10
1137.40860974169
 20
741.7405990441656
 10
1135.916366632254
 20
742.082783153238
 10
1135.838679729061
 20
742.1004392675999
 10
1135.768227526388
 20
742.1956961577671
 10
1135.680033081965
 20
742.1991412532524
 10
1134.791026191997
 20
742.223859813359
 10
1133.880831964794
 20
742.1956961577671
 10
1132.98837997934
 20
742.2062036989971
 10
1131.626533734021
 20
741.726474152676
 10
1131.054992393018
 20
740.9362553757469
 10
1130.913915732897
 20
739.2358423716147
 10
1130.864650867458
 20
738.6537934893818
 10
1130.60006753419
 20
738.3574291502631
 10
1130.042651084677
 20
738.3185856986669
 10
1128.934880631395
 20
738.2340086045041
 10
1127.830727528372
 20
738.0152450411906
 10
1126.864033735211
 20
737.2814397028325
 10
1126.151415734087
 20
736.741679367681
 10
1125.36834553029
 20
736.1948565867847
 10
1124.634540191932
 20
735.764564160677
 10
1123.350380849805
 20
735.0166339308292
 10
1122.757824426342
 20
733.7713180402985
 10
1122.3237423952
 20
732.264950039373
 10
1121.847630199139
 20
730.6069117097094
 10
1121.932207293302
 20
729.1076061545286
 10
1122.098088640917
 20
727.4248492647584
 10
1122.172158193849
 20
726.6627941434211
 10
1122.193345531084
 20
725.900825149471
 10
1122.055713966448
 20
725.1565122698828
 10
1121.706381284244
 20
723.2655854854163
 10
1121.784068187436
 20
721.7204601602817
 10
1122.531998417284
 20
719.9847349274257
 10
1122.838956425019
 20
719.2721599899953
 10
1123.128172191006
 20
718.683005598324
 10
1123.463379981721
 20
717.9104429357568
 10
1123.872485070594
 20
716.9720419892683
 10
1124.768554406308
 20
716.5310697671563
 10
1125.608124176063
 20
717.1202241588276
 10
1125.735248199469
 20
717.20841860325
 10
1125.939714616519
 20
717.324819766958
 10
1126.084408626899
 20
717.2507071503314
 10
1126.57826306471
 20
717.0002487085538
 10
1126.945165733889
 20
716.0900975450444
 10
1126.804089073768
 20
715.5362553820969
 10
1126.585325510454
 20
714.6825176571584
 10
1126.126783301368
 20
714.509659991186
 10
1125.459985070197
 20
714.5308042647267
 10
1125.156644412721
 20
714.5449291562162
 10
1124.828499067751
 20
714.6084050405319
 10
1124.53222085602
 20
714.5202105961096
 10
1122.828276629015
 20
714.0228249354266
 10
1121.565304624123
 20
713.0068232131329
 10
1120.348324643958
 20
711.5427868229824
 10
1119.981421974779
 20
711.1018146008704
 10
1119.741471074231
 20
710.572647934336
 10
1119.346318622073
 20
710.1846009916162
 10
1118.841956643033
 20
709.6836410443673
 10
1118.319852422243
 20
709.2144621029698
 10
1117.720061298261
 20
708.9040159360553
 10
1116.633478182213
 20
708.3430682636695
 10
1115.515200187701
 20
707.9480019388984
 10
1114.414492180164
 20
707.4505732145219
 10
1114.146463751411
 20
707.3306408279417
 10
1113.913575296609
 20
707.0872017682152
 10
1113.652609313601
 20
706.967269381635
 10
1113.176324862765
 20
706.752037041194
 10
1112.668345533465
 20
706.4098529321216
 10
1112.16742864991
 20
706.4133841549939
 10
1109.320401740899
 20
706.4416339379729
 10
1106.512304410872
 20
706.4557588294625
 10
1103.679574648125
 20
706.5933042667111
 10
1101.897943517928
 20
706.6779674882611
 10
1100.807915306395
 20
707.6163684347496
 10
1100.007102860849
 20
709.4719829904923
 10
1099.936478403401
 20
709.6342900515411
 10
1099.890658633448
 20
709.8176983224371
 10
1099.79540174328
 20
709.9552868233793
 10
1099.492061085804
 20
710.3962590454912
 10
1099.209907765562
 20
710.3503962118439
 10
1098.934644636291
 20
709.9094239897319
 10
1098.765318193191
 20
709.6413094335923
 10
1098.641811520044
 20
709.3802573231975
 10
1098.479547522689
 20
709.1156739899303
 10
1097.523533525532
 20
709.1086546078791
 10
1096.973179521764
 20
709.5107833783949
 10
1096.553394636886
 20
710.5267851006887
 10
1096.503957516673
 20
710.6537799330137
 10
1096.444012855229
 20
710.7560992689256
 10
1096.359435761066
 20
710.8407624904756
 10
1095.851456431766
 20
711.3840540484995
 10
1095.279915090763
 20
711.5498492687271
 10
1094.669616425551
 20
711.1441462116454
 10
1094.669616425551
 20
711.1441462116454
 10
1094.669616425551
 20
710.5232538778163
 10
1094.669616425551
 20
710.5232538778163
 10
1094.89182508435
 20
710.2022140422846
 10
1095.121096188893
 20
709.8918109390636
 10
1095.332797306462
 20
709.5637086577871
 10
1095.91140109321
 20
708.6535574942776
 10
1096.458137746719
 20
707.7327695984575
 10
1097.057928870701
 20
706.8332121035652
 10
1097.202450626307
 20
706.6215540496901
 10
1097.463588864089
 20
706.5051098222887
 10
1097.661165090168
 20
706.3710956079125
 10
1098.021005313602
 20
706.1241253253136
 10
1098.472485076944
 20
705.831335272761
 10
1098.814755313404
 20
705.6231653780648
 10
1099.156853295089
 20
705.4150385470621
 10
1099.463811302825
 20
705.2033804931871
 10
1099.79901909354
 20
705.1575176595396
 10
1101.615790197686
 20
704.9034849311961
 10
1103.16453287308
 20
704.039196601334
 10
1104.847289762851
 20
703.3159849315929
 10
1105.510470643761
 20
703.030257324785
 10
1106.149019091952
 20
702.7974119336757
 10
1106.815645068348
 20
702.5434222690257
 10
1107.486060649778
 20
702.2894326043756
 10
1108.184553759412
 20
702.0530990540874
 10
1108.858242181553
 20
701.809659994361
 10
1109.154692648059
 20
701.7003212763979
 10
1109.447353509531
 20
701.5168699418083
 10
1109.754311517266
 20
701.495682604574
 10
1111.239492180958
 20
701.4039569372793
 10
1112.714165303419
 20
701.368687772249
 10
1114.19934596711
 20
701.3192937157293
 10
1114.400367288674
 20
701.3157624928568
 10
1114.612068406243
 20
701.3369498300912
 10
1114.799137091092
 20
701.4145506058964
 10
1116.351324861971
 20
702.0530990540874
 10
1117.903512632851
 20
702.7127487121256
 10
1119.4451928625
 20
703.3654220518063
 10
1119.716838641512
 20
703.4818232155142
 10
1119.977804624519
 20
703.6970124922616
 10
1120.242387957787
 20
703.767550822322
 10
1121.096082619032
 20
704.0074586591761
 10
1121.731185971737
 20
703.4923738204377
 10
1121.565304624123
 20
702.4411029331137
 10
1121.15258218499
 20
699.7741253269011
 10
1120.877491310493
 20
697.2164864386516
 10
1121.000825728864
 20
694.5177278265876
 10
1121.029075511844
 20
693.8756481555242
 10
1121.120887306525
 20
693.2054048288688
 10
1121.346713315583
 20
692.6550508251001
 10
1122.235547950778
 20
690.4925643890089
 10
1122.443803972861
 20
688.2947657241937
 10
1122.411936839623
 20
685.9663979404876
 10
1122.366117069669
 20
682.5797398874063
 10
1122.228657759807
 20
679.3412209401907
 10
1122.059159061933
 20
675.9933632750121
 10
1122.009894196494
 20
674.9738733935395
 10
1121.671241310294
 20
674.0142851098168
 10
1121.501914867194
 20
673.015939501885
 10
1121.371345748303
 20
672.218658279211
 10
1121.240776629412
 20
671.4107833879199
 10
1121.15258218499
 20
670.6064397195012
 10
1121.096082619032
 20
670.0984603902011
 10
1121.293658845111
 20
669.8550643941682
 10
1121.713443729988
 20
669.7421513896392
 10
1122.489623742815
 20
669.5410439406877
 10
1123.011727963605
 20
669.2023910544876
 10
1123.614964183072
 20
668.5250852820875
 10
1124.105373525397
 20
667.9747312783188
 10
1124.927373308178
 20
668.0664569456136
 10
1125.467047515942
 20
668.5321477278322
 10
1125.696318620486
 20
668.7296808902178
 10
1125.87270750933
 20
668.934276498348
 10
1126.095088422903
 20
669.1247902786823
 10
1126.758269303814
 20
668.6908805023152
 10
1127.290881065834
 20
668.1369952756742
 10
1127.516707074892
 20
667.2691757229397
 10
1127.887054839556
 20
665.8404084978195
 10
1128.532665733492
 20
664.6198111673954
 10
1129.199463964662
 20
663.4098075055886
 10
1129.862644845573
 20
662.2032920029604
 10
1130.494130848019
 20
661.1202831734786
 10
1130.906853287152
 20
659.7797103927808
 10
1131.238443727607
 20
658.7072521682226
 10
1131.242061077867
 20
657.641856389409
 10
1131.220873740632
 20
656.4953286119179
 10
1131.178499066164
 20
653.980064398137
 10
1130.956290407365
 20
651.5529085013914
 10
1130.836401084478
 20
648.9917383902695
 10
1130.77990151852
 20
647.8170038934928
 10
1131.009172623064
 20
646.6175508366096
 10
1131.46082464118
 20
645.4780855048632
 10
1131.64065862551
 20
645.0371132827512
 10
1131.760547948397
 20
644.4409395090287
 10
1131.728853069932
 20
643.89058550526
 10
1131.587776409811
 20
641.3964655650199
 10
1131.273755956331
 20
639.0116843427428
 10
1130.547013063717
 20
636.6409849482617
 10
1130.324804404919
 20
635.9072657372906
 10
1130.247289756501
 20
635.1029220688719
 10
1130.039033734417
 20
634.3514606161517
 10
1129.421672623461
 20
632.1254552320511
 10
1128.793803971274
 20
629.8041929577834
 10
1128.112880848614
 20
627.6240073436365
 10
1127.587331532339
 20
625.9447816767387
 10
1127.036977528571
 20
624.2232243990658
 10
1126.366734201915
 20
622.6921809017272
 10
1125.064832618039
 20
619.7253077335236
 10
1123.562081967373
 20
617.7321477405322
 10
1121.194956859458
 20
616.0070161762934
 10
1120.711609962878
 20
615.6542383986039
 10
1120.309395064975
 20
615.1815712980275
 10
1120.027241744733
 20
614.6594240135444
 10
1119.946109746055
 20
614.5147730668574
 10
1119.886165084612
 20
614.3807588524812
 10
1119.833282868913
 20
614.2537209564626
 10
1119.79797064019
 20
614.2678458479521
 10
1119.762658411466
 20
614.2784395165693
 10
1119.727346182742
 20
614.2925644080589
 10
1119.1065399763
 20
614.5359604040917
 10
1119.078290193321
 20
614.8640196216746
 10
1119.487567536969
 20
615.3896550653367
 10
1119.741471074231
 20
615.7177573466131
 10
1120.013116853243
 20
616.0493908507619
 10
1120.175380850598
 20
616.4233129019923
 10
1120.835116636024
 20
617.9332121257902
 10
1121.470047733955
 20
619.4571931773839
 10
1122.091026195172
 20
620.9847485155437
 10
1122.937658410672
 20
623.0731653987023
 10
1122.30272731274
 20
625.352096062195
 10
1120.454089075355
 20
626.6503372321179
 10
1119.028853073107
 20
627.6522140629221
 10
1117.864755308641
 20
628.9151860678146
 10
1116.802804625313
 20
630.2557588485125
 10
1114.859081752535
 20
632.7181408465948
 10
1112.947053758222
 20
635.2017101819114
 10
1111.239492180958
 20
637.8475435145833
 10
1109.221699755247
 20
640.9695751707038
 10
1107.655387092878
 20
644.2010316721746
 10
1107.542387960962
 20
648.0180682787508
 10
1107.503630636753
 20
649.3233718944183
 10
1107.277804627694
 20
650.6462885607542
 10
1106.946214187239
 20
651.9092175019533
 10
1106.526429302362
 20
653.5037799473012
 10
1105.587985292179
 20
654.7702831750661
 10
1104.046477317304
 20
655.5287209461438
 10
1103.143345535846
 20
655.9732243911283
 10
1102.275525983112
 20
656.4917973890455
 10
1101.411151525863
 20
657.0068822277839
 10
1101.188942867064
 20
657.1409395058537
 10
1100.991366640985
 20
657.3631481646523
 10
1100.853735076349
 20
657.5889741737104
 10
1100.197616641183
 20
658.6579011753963
 10
1099.862408850468
 20
659.8114483349386
 10
1099.816589080515
 20
661.0814397218825
 10
1099.770769310561
 20
662.3585366182646
 10
1099.763706864816
 20
663.6532035016214
 10
1099.29103976424
 20
664.8808632777902
 10
1098.860575083358
 20
665.9921218902512
 10
1098.409095320016
 20
667.0575176690646
 10
1097.227255313801
 20
667.629015946374
 10
1096.719275984501
 20
667.872411942407
 10
1096.274686412129
 20
668.267564394565
 10
1095.851456431766
 20
668.652037050719
 10
1095.38929687242
 20
669.0718649992903
 10
1094.976574433287
 20
669.5516376093049
 10
1094.927137313074
 20
670.2254552225261
 10
1094.853067760141
 20
671.2908510013397
 10
1094.309776202117
 20
672.0775385553965
 10
1093.484159069077
 20
672.7019621120979
 10
1092.288366426147
 20
673.6050508298626
 10
1090.926520180828
 20
673.5944571612455
 10
1089.547276203308
 20
673.3757797253193
 10
1089.120428872685
 20
673.3087295544376
 10
1088.637081976105
 20
673.1887971678574
 10
1088.312553981394
 20
672.9277450574625
 10
1087.825761989328
 20
672.5361238281768
 10
1087.465921765894
 20
671.9928753338464
 10
1087.042519530757
 20
671.5201651695766
 10
1086.2558319767
 20
670.641751948225
 10
1085.984186197688
 20
669.6716130595787
 10
1086.481657985758
 20
668.5497607785006
 10
1086.626179741364
 20
668.228720942969
 10
1086.58035997141
 20
667.985324946936
 10
1086.291144205424
 20
667.731335282286
 10
1084.872970648921
 20
666.4966130603724
 10
1084.192047526261
 20
664.8491253356324
 10
1084.146227756307
 20
663.039373613537
 10
1084.082665744604
 20
660.3900090579928
 10
1085.179928656657
 20
658.1428163366579
 10
1087.084894205225
 20
656.1425508342282
 10
1086.749686414511
 20
655.9590994996387
 10
1086.467533094269
 20
655.7298283950953
 10
1086.143005099558
 20
655.6345715049282
 10
1084.530700412461
 20
655.1582870540924
 10
1082.872748210185
 20
654.9960230567372
 10
1081.200498861644
 20
655.1301233985005
 10
1080.741956652558
 20
655.1653494998371
 10
1080.241039769002
 20
655.3558632801714
 10
1079.860012208334
 20
655.6204466134386
 10
1076.840213760738
 20
657.7229883880866
 10
1073.852110191606
 20
659.8679048372032
 10
1070.842991540015
 20
661.9810402804683
 10
1070.091616214682
 20
662.5102069470026
 10
1069.315436201855
 20
663.0181862763028
 10
1068.504116215079
 20
663.438014224874
 10
1067.847825525139
 20
663.7801983339465
 10
1067.396345761797
 20
664.2493772753439
 10
1067.128231205657
 20
664.9197067293865
 10
1066.92367866122
 20
665.4382797273037
 10
1066.747289772376
 20
665.9639151709656
 10
1066.528526209062
 20
666.4754257231381
 10
1066.228630647071
 20
667.1703876099001
 10
1066.239224315688
 20
667.8301233953255
 10
1066.553158641782
 20
668.5286165049599
 10
1066.708360193392
 20
668.8813942826495
 10
1066.828421771053
 20
669.318835281889
 10
1066.771922205095
 20
669.6857379510682
 10
1066.496745203211
 20
671.4672398901845
 10
1066.253263079791
 20
673.2593354979178
 10
1065.812290857679
 20
675.0020370491314
 10
1065.360811094337
 20
676.7694571604518
 10
1064.58463108151
 20
678.4204761080642
 10
1062.89136665051
 20
679.3941462195829
 10
1062.171686203641
 20
679.8104429452818
 10
1061.437880865283
 20
680.21610293867
 10
1060.67238064846
 20
680.5336546150229
 10
1059.384776210848
 20
681.0628212815573
 10
1058.047734653023
 20
681.1933042730611
 10
1056.707161872325
 20
680.7135316630465
 10
1054.128421774228
 20
679.7927868309199
 10
1052.325603306797
 20
678.0465540568339
 10
1051.263824878243
 20
675.5241843336147
 10
1050.625276430052
 20
674.0107538869444
 10
1050.455949986952
 20
672.4373787788307
 10
1051.03093642344
 20
670.9028040586198
 10
1051.514283320021
 20
669.6151565573141
 10
1052.205713983911
 20
668.3980473860689
 10
1052.854769973331
 20
667.177450055645
 10
1053.0664710909
 20
666.778809444308
 10
1053.366366652891
 20
666.3308178401447
 10
1053.7437768633
 20
666.1297103911933
 10
1054.671713332252
 20
665.6393441125615
 10
1055.684054640593
 20
665.3041793855404
 10
1056.64006863775
 20
664.8596759405559
 10
1057.783151319756
 20
664.3270211148428
 10
1058.901429314268
 20
663.7519916146609
 10
1060.026769754525
 20
663.1839814965305
 10
1060.411328538066
 20
662.9864483341449
 10
1060.774699984372
 20
662.7465404972909
 10
1061.159172640526
 20
662.5525385577777
 10
1062.005890983414
 20
662.1186287814105
 10
1062.923061528974
 20
661.790526500134
 10
1063.702686637286
 20
661.2613598335996
 10
1064.877464197756
 20
660.4676098337981
 10
1066.009867083758
 20
659.5927278353189
 10
1067.071817767086
 20
658.6579011753963
 10
1069.100289988801
 20
656.8692937268418
 10
1071.058137753069
 20
655.0030855024819
 10
1073.06542263755
 20
653.1898456212077
 10
1074.466026207078
 20
651.9233423934428
 10
1075.92657443805
 20
650.7204011773807
 10
1077.302373320084
 20
649.429179389509
 10
1078.251324871496
 20
648.5366843403615
 10
1079.366157770523
 20
648.3144326178693
 10
1080.572630209458
 20
648.423814399526
 10
1084.266117079194
 20
648.7554048399813
 10
1087.95271375796
 20
649.1681272791143
 10
1091.649817977956
 20
649.4644916182328
 10
1092.475262856221
 20
649.531498725421
 10
1093.142061087392
 20
649.831394287412
 10
1093.822984210051
 20
650.2017851157699
 10
1093.939256182678
 20
650.2688352866516
 10
1094.062762855825
 20
650.3181862794778
 10
1094.366103513301
 20
650.4628372261647
 10
1094.277909068878
 20
650.0359898955422
 10
1094.274463973393
 20
649.7114188371381
 10
1094.147512204762
 20
649.4503667267434
 10
1093.561845972269
 20
648.2509567335536
 10
1092.902110186844
 20
647.0867728417005
 10
1092.355373533335
 20
645.869706734149
 10
1092.055477971344
 20
645.2029085029789
 10
1091.819144421056
 20
644.4691462283141
 10
1091.755582409353
 20
643.7459776222667
 10
1091.692192652424
 20
643.0721600090453
 10
1091.889768878503
 20
642.3736238357174
 10
1091.984853513896
 20
641.6892556175725
 10
1092.094235295553
 20
640.9025680635157
 10
1092.080110404063
 20
640.1758251709023
 10
1091.565068629018
 20
639.4738008383955
 10
1090.968894855296
 20
638.6624377879256
 10
1090.549109970418
 20
637.7452241786714
 10
1090.372721081573
 20
636.7256481698116
 10
1090.316221515616
 20
636.3834640607392
 10
1090.122262639796
 20
636.034217505922
 10
1089.903499076483
 20
635.7590405040377
 10
1089.469589300115
 20
635.2017101819114
 10
1089.120428872685
 20
635.1805228446772
 10
1088.587644855891
 20
635.6461705632022
 10
1088.083282876851
 20
636.0942052310589
 10
1087.585811088781
 20
636.5563217267116
 10
1087.11658908369
 20
637.0431998461646
 10
1084.915345323389
 20
639.3397866240192
 10
1082.558727756704
 20
641.4705351179527
 10
1080.039846192664
 20
643.4037935131943
 10
1076.695519750357
 20
645.9719830063673
 10
1073.266616213888
 20
648.4273456223984
 10
1069.865790205624
 20
650.9179343397662
 10
1069.50594998219
 20
651.1825176730334
 10
1069.110797530031
 20
651.4188942870151
 10
1068.694629995413
 20
651.5846895072427
 10
1067.071817767086
 20
652.2408510061022
 10
1064.82811320493
 20
651.2389741752979
 10
1064.203689648229
 20
649.6020370554814
 10
1063.91094265937
 20
648.8400680615314
 10
1063.639296880358
 20
648.0710366218365
 10
1063.321745204005
 20
647.3195751691163
 10
1063.247675651072
 20
647.1361238345268
 10
1063.04656820212
 20
646.8997902842386
 10
1062.880772981893
 20
646.8821341698767
 10
1061.773088655998
 20
646.7445887326281
 10
1060.958151318962
 20
646.2048283974766
 10
1060.474804422381
 20
645.2135021715959
 10
1059.790436204236
 20
643.8094535065824
 10
1059.060248216138
 20
642.3983423958241
 10
1059.582352436927
 20
640.7508977347776
 10
1059.829193528446
 20
639.9782920085167
 10
1059.748061529768
 20
639.2268736194902
 10
1059.564610195178
 20
638.4472485111781
 10
1059.183668761897
 20
636.8103544550553
 10
1058.67560330521
 20
635.1769916218047
 10
1058.552268886838
 20
633.5154220692688
 10
1058.199491109148
 20
628.8269916233922
 10
1058.019484870044
 20
624.1279675088986
 10
1057.765495205394
 20
619.4325176809709
 10
1057.709081766823
 20
618.3777155707745
 10
1057.811401102735
 20
617.2629257354413
 10
1057.490318203509
 20
616.2892556239225
 10
1057.010588657188
 20
614.8464065710064
 10
1056.44610976193
 20
613.4423148422992
 10
1056.160339091429
 20
611.9324586821949
 10
1055.846318637948
 20
610.2708460659653
 10
1055.437213549075
 20
608.6304638506635
 10
1055.084435771385
 20
606.9759567438723
 10
992.6427691203289
 20
596.4102364638532
 10
950.2317488943866
 20
575.7586546412166
 10
950.2317488943866
 20
552.0060993086131
 10
950.2317488943866
 20
551.2934813074892
 10
950.2705923459828
 20
550.5808633063652
 10
950.3446618989157
 20
549.8717765281136
 10
950.9126720170461
 20
544.5871723085147
 10
953.5831377824376
 20
539.4718945320158
 10
958.0987966897288
 20
534.6000127515497
 10
958.0987966897288
 20
534.6000127515497
 10
1002.44992243819
 20
534.6000127515497
 10
1002.44992243819
 20
534.6000127515497
 10
1002.548796678616
 20
534.6000127515497
 10
1002.647498664269
 20
534.6070751972944
 10
1002.746286777308
 20
534.6141376430392
 10
1002.7744504329
 20
534.6106064201668
 10
1002.809762661624
 20
534.6000127515497
 10
1002.845074890348
 20
534.6000127515497
 10
1003.007338887703
 20
534.6000127515497
 10
1003.162540439314
 20
534.6459186488906
 10
1003.324804436669
 20
534.7164569789511
 10
1004.739532897687
 20
535.1010157624921
 10
1005.787186434751
 20
536.395682645849
 10
1005.787186434751
 20
537.93025736606
 10
1005.787186434751
 20
537.93025736606
 10
1005.787186434751
 20
541.4756481936241
 10
1005.787186434751
 20
541.4756481936241
 10
1005.787186434751
 20
541.6274046497495
 10
1005.783741339266
 20
541.7755437556152
 10
1005.765999097517
 20
541.9201516386086
 10
1005.773061543262
 20
542.2553163656298
 10
1005.787186434751
 20
542.590481092651
 10
1005.787186434751
 20
542.9326652017235
 10
1005.787186434751
 20
547.5364324260499
 10
1004.467887118675
 20
551.2652315245101
 10
1002.845074890348
 20
551.2652315245101
 10
1001.603290222689
 20
551.2652315245101
 10
1000.544956889621
 20
549.0815577511845
 10
1000.114492208739
 20
545.998283419273
 10
1000.089859776019
 20
545.8324881990454
 10
999.9522282113835
 20
545.7125127487716
 10
999.7935815642877
 20
545.7125127487716
 10
999.7935815642877
 20
545.7125127487716
 10
974.097131104132
 20
545.7125127487716
 10
974.097131104132
 20
545.7125127487716
 10
971.3701657727825
 20
545.7125127487716
 10
969.1547971209926
 20
548.0796809203803
 10
969.1547971209926
 20
551.0006481912429
 10
969.1547971209926
 20
553.5582870794924
 10
970.8516789022524
 20
555.6890786371195
 10
973.1023597827661
 20
556.1829761386235
 10
973.4022553447571
 20
556.2464950866329
 10
973.7126584479781
 20
556.2852954745355
 10
974.0337413472034
 20
556.2852954745355
 10
974.0408037929482
 20
556.2888266974079
 10
974.0513113341782
 20
556.2888266974079
 10
974.0583737799229
 20
556.2888266974079
 10
977.7308455671993
 20
556.6592175257658
 10
980.891720674916
 20
556.7086546459791
 10
981.6995955662071
 20
556.7086546459791
 10
981.6995955662071
 20
556.7086546459791
 10
1057.938352871366
 20
556.7086546459791
 10
1057.938352871366
 20
556.7086546459791
 10
1058.040672207278
 20
556.7086546459791
 10
1058.135929097445
 20
556.7156740280303
 10
1058.231185987612
 20
556.7227364737751
 10
1058.262880866077
 20
556.7192052509027
 10
1058.298193094801
 20
556.7086546459791
 10
1058.333505323524
 20
556.7086546459791
 10
1058.49576932088
 20
556.7086546459791
 10
1058.65097087249
 20
556.7544744159329
 10
1058.80978977436
 20
556.8250127459934
 10
1060.227963330863
 20
557.2095715295344
 10
1061.275616867928
 20
558.5007071900189
 10
1061.275616867928
 20
560.0423874196682
 10
1061.275616867928
 20
560.0423874196682
 10
1061.275616867928
 20
564.4873788058183
 10
1061.275616867928
 20
564.4873788058183
 10
1061.275616867928
 20
564.5332416394657
 10
1061.268554422183
 20
564.5825926322918
 10
1061.265109326698
 20
564.6320297525052
 10
1061.268554422183
 20
564.7695751897538
 10
1061.275616867928
 20
564.9036755315171
 10
1061.275616867928
 20
565.0412209687657
 10
1061.275616867928
 20
569.6414569702199
 10
1059.956317551851
 20
573.3738734189395
 10
1058.333505323524
 20
573.3738734189395
 10
1057.091720655866
 20
573.3738734189395
 10
1056.033387322797
 20
571.1901565819204
 10
1055.602922641915
 20
568.1068822500089
 10
1055.578290209196
 20
567.9410439660877
 10
1055.44065864456
 20
567.821154643201
 10
1055.282011997464
 20
567.821154643201
 10
1055.282011997464
 20
567.821154643201
 10
1012.380582429197
 20
567.821154643201
 10
1012.380582429197
 20
567.821154643201
 10
1008.507089320356
 20
567.821154643201
 10
1007.741589103533
 20
573.3103544709303
 10
1011.470474329381
 20
574.3616253582543
 10
1028.964755330866
 20
579.296983023036
 10
1053.5744504202
 20
585.618776302163
 10
1072.571568199739
 20
588.0599709630111
 10
1072.585693091229
 20
588.0635021858834
 10
1072.599817982718
 20
588.0635021858834
 10
1072.613942874208
 20
588.0635021858834
 10
1094.581421981129
 20
588.0635021858834
 10
1116.545283737791
 20
588.0670334087558
 10
1138.516380194972
 20
588.0670334087558
 10
1144.84157550589
 20
588.0670334087558
 10
1146.210484196954
 20
578.940674022474
 10
1140.100262844315
 20
577.3143736349683
 10
1139.58883841953
 20
577.1767851340261
 10
1139.059671752996
 20
577.1062037402721
 10
1138.509317749227
 20
577.1062037402721
 10
1138.509317749227
 20
577.1062037402721
 10
1078.445283747316
 20
577.1062037402721
 10
1078.445283747316
 20
577.1062037402721
 10
1078.28663710022
 20
577.1062037402721
 10
1078.149005535584
 20
577.226179190546
 10
1078.124373102865
 20
577.3919744107735
 10
1077.693908421983
 20
580.475248742685
 10
1076.635575088914
 20
582.6624537388831
 10
1075.393790421256
 20
582.6624537388831
 10
1073.770978192929
 20
582.6624537388831
 10
1072.451678876852
 20
578.9301234175505
 10
1072.451678876852
 20
574.3298874160964
 10
1072.451678876852
 20
573.9771096384068
 10
1072.462186418082
 20
573.6349255293344
 10
1072.476311309572
 20
573.2962295794407
 10
1072.462186418082
 20
573.1480474098814
 10
1072.451678876852
 20
572.9963770811432
 10
1072.451678876852
 20
572.8411755295327
 10
1072.451678876852
 20
572.8411755295327
 10
1072.451678876852
 20
569.327479580433
 10
1072.451678876852
 20
569.327479580433
 10
1072.451678876852
 20
567.7893736373495
 10
1073.499332413917
 20
566.4947067539927
 10
1074.91750597042
 20
566.1136791933241
 10
1075.07270752203
 20
566.0431408632636
 10
1075.227995201028
 20
565.9972349659226
 10
1075.393790421256
 20
565.9972349659226
 10
1075.42910264998
 20
565.9972349659226
 10
1075.460797528444
 20
566.0042974116674
 10
1075.496109757168
 20
566.0078286345397
 10
1075.587835424462
 20
566.000766188795
 10
1075.686623537502
 20
565.9972349659226
 10
1075.785325523154
 20
565.9972349659226
 10
1075.785325523154
 20
565.9972349659226
 10
1139.708727742417
 20
565.9972349659226
 10
1139.708727742417
 20
565.9972349659226
 10
1142.432075723507
 20
565.9972349659226
 10
1144.714623737259
 20
563.7676983589496
 10
1144.67586641305
 20
561.0407330276001
 10
1144.630046643096
 20
557.675262311753
 10
1141.881893974512
 20
554.9623788081996
 10
1138.509317749227
 20
554.9623788081996
 10
1138.509317749227
 20
554.9623788081996
 10
1078.445283747316
 20
554.9623788081996
 10
1078.445283747316
 20
554.9623788081996
 10
1078.28663710022
 20
554.9623788081996
 10
1078.149005535584
 20
555.0858424176522
 10
1078.124373102865
 20
555.2481064150074
 10
1077.693908421983
 20
558.3349119697913
 10
1076.635575088914
 20
560.5186288068105
 10
1075.393790421256
 20
560.5186288068105
 10
1073.770978192929
 20
560.5186288068105
 10
1072.451678876852
 20
556.7862554217844
 10
1072.451678876852
 20
552.1824881974579
 10
1072.451678876852
 20
551.8332416426407
 10
1072.462186418082
 20
551.4910575335682
 10
1072.476311309572
 20
551.1524046473681
 10
1072.462186418082
 20
551.0041794141154
 10
1072.451678876852
 20
550.8525090853772
 10
1072.451678876852
 20
550.6973075337667
 10
1072.451678876852
 20
550.6973075337667
 10
1072.451678876852
 20
547.1871428075392
 10
1072.451678876852
 20
547.1871428075392
 10
1072.451678876852
 20
545.6455056415834
 10
1073.499332413917
 20
544.3508387582266
 10
1074.91750597042
 20
543.9662799746856
 10
1075.07270752203
 20
543.8957416446251
 10
1075.227995201028
 20
543.8498788109777
 10
1075.393790421256
 20
543.8498788109777
 10
1075.42910264998
 20
543.8498788109777
 10
1075.460797528444
 20
543.8604294159012
 10
1075.496109757168
 20
543.867491861646
 10
1075.587835424462
 20
543.8568981930289
 10
1075.686623537502
 20
543.8498788109777
 10
1075.785325523154
 20
543.8498788109777
 10
1075.785325523154
 20
543.8498788109777
 10
1224.671672599648
 20
543.8498788109777
 10
1224.671672599648
 20
543.8498788109777
 10
1224.770546840075
 20
543.8498788109777
 10
1224.869248825727
 20
543.8568981930289
 10
1224.964505715894
 20
543.867491861646
 10
1224.996200594359
 20
543.8604294159012
 10
1225.031512823082
 20
543.8498788109777
 10
1225.070270147291
 20
543.8498788109777
 10
1225.229089049162
 20
543.8498788109777
 10
1225.387907951032
 20
543.8957416446251
 10
1225.543109502642
 20
543.9662799746856
 10
1226.961283059145
 20
544.3508387582266
 10
1228.012553946469
 20
545.6455056415834
 10
1228.012553946469
 20
547.1871428075392
 10
1228.012553946469
 20
547.1871428075392
 10
1228.012553946469
 20
550.6973075337667
 10
1228.012553946469
 20
550.6973075337667
 10
1228.012553946469
 20
550.8525090853772
 10
1227.99481170472
 20
551.0041794141154
 10
1227.98068681323
 20
551.1524046473681
 10
1227.99481170472
 20
551.4910575335682
 10
1228.012553946469
 20
551.8332416426407
 10
1228.012553946469
 20
552.1824881974579
 10
1228.012553946469
 20
556.7862554217844
 10
1226.689637280133
 20
560.5186288068105
 10
1225.070270147291
 20
560.5186288068105
 10
1223.825040384148
 20
560.5186288068105
 10
1222.766707051079
 20
558.3349119697913
 10
1222.336242370197
 20
555.2481064150074
 10
1222.311609937478
 20
555.0858424176522
 10
1222.173978372842
 20
554.9623788081996
 10
1222.015331725746
 20
554.9623788081996
 10
1222.015331725746
 20
554.9623788081996
 10
1161.510325501723
 20
554.9623788081996
 10
1161.510325501723
 20
554.9623788081996
 10
1158.529456633111
 20
554.9623788081996
 10
1155.961137948857
 20
557.2378213125135
 10
1155.798873951502
 20
560.2081826398959
 10
1155.622485062657
 20
563.3761201933573
 10
1158.137749276438
 20
565.9972349659226
 10
1161.26692950569
 20
565.9972349659226
 10
1161.26692950569
 20
565.9972349659226
 10
1224.671672599648
 20
565.9972349659226
 10
1224.671672599648
 20
565.9972349659226
 10
1224.770546840075
 20
565.9972349659226
 10
1224.869248825727
 20
566.000766188795
 10
1224.964505715894
 20
566.0078286345397
 10
1224.996200594359
 20
566.0042974116674
 10
1225.031512823082
 20
565.9972349659226
 10
1225.070270147291
 20
565.9972349659226
 10
1225.229089049162
 20
565.9972349659226
 10
1225.387907951032
 20
566.0431408632636
 10
1225.543109502642
 20
566.1136791933241
 10
1226.961283059145
 20
566.4947067539927
 10
1228.012553946469
 20
567.7893736373495
 10
1228.012553946469
 20
569.327479580433
 10
1228.012553946469
 20
569.327479580433
 10
1228.012553946469
 20
572.8411755295327
 10
1228.012553946469
 20
572.8411755295327
 10
1228.012553946469
 20
572.9963770811432
 10
1227.99481170472
 20
573.1480474098814
 10
1227.98068681323
 20
573.2962295794407
 10
1227.99481170472
 20
573.6349255293344
 10
1228.012553946469
 20
573.9771096384068
 10
1228.012553946469
 20
574.3298874160964
 10
1228.012553946469
 20
578.9301234175505
 10
1226.689637280133
 20
582.6624537388831
 10
1225.070270147291
 20
582.6624537388831
 10
1223.825040384148
 20
582.6624537388831
 10
1222.766707051079
 20
580.475248742685
 10
1222.336242370197
 20
577.3919744107735
 10
1222.311609937478
 20
577.226179190546
 10
1222.173978372842
 20
577.1062037402721
 10
1222.015331725746
 20
577.1062037402721
 10
1222.015331725746
 20
577.1062037402721
 10
1161.951297723835
 20
577.1062037402721
 10
1161.951297723835
 20
577.1062037402721
 10
1161.404561070326
 20
577.1062037402721
 10
1160.871777053532
 20
577.1767851340261
 10
1160.363797724232
 20
577.3143736349683
 10
1154.250131276108
 20
578.9371427996017
 10
1155.619039967172
 20
588.0670334087558
 10
1161.94423527809
 20
588.0670334087558
 10
1183.890527047777
 20
588.0670334087558
 10
1205.840436167724
 20
588.0740958545006
 10
1227.786727937411
 20
588.0740958545006
 10
1227.804297924386
 20
588.0740958545006
 10
1227.81497772039
 20
588.0740958545006
 10
1227.832547707365
 20
588.0670334087558
 10
1246.734408596737
 20
585.6434517985762
 10
1271.34772103633
 20
579.3040454687808
 10
1288.841915910428
 20
574.3616253582543
 10
1292.563738690531
 20
573.3068232480579
 10
1291.805300919453
 20
567.821154643201
 10
1287.931807810613
 20
567.821154643201
 10
1287.931807810613
 20
567.821154643201
 10
1244.988175822651
 20
567.821154643201
 10
1244.988175822651
 20
567.821154643201
 10
1244.822380602423
 20
567.821154643201
 10
1244.68828026066
 20
567.9410439660877
 10
1244.667092923425
 20
568.1068822500089
 10
1244.23671436993
 20
571.1901565819204
 10
1243.178381036862
 20
573.3738734189395
 10
1241.933065146331
 20
573.3738734189395
 10
1240.306807822519
 20
573.3738734189395
 10
1238.9944848248
 20
569.6414569702199
 10
1238.9944848248
 20
565.0412209687657
 10
1238.9944848248
 20
564.9036755315171
 10
1239.001547270545
 20
564.7695751897538
 10
1239.001547270545
 20
564.6320297525052
 10
1239.001547270545
 20
564.5825926322918
 10
1238.9944848248
 20
564.5332416394657
 10
1238.9944848248
 20
564.4873788058183
 10
1238.9944848248
 20
564.4873788058183
 10
1238.9944848248
 20
560.0423874196682
 10
1238.9944848248
 20
560.0423874196682
 10
1238.9944848248
 20
558.5007071900189
 10
1240.038693266379
 20
557.2095715295344
 10
1241.460398045755
 20
556.8250127459934
 10
1241.612068374493
 20
556.7544744159329
 10
1241.770801148976
 20
556.7086546459791
 10
1241.933065146331
 20
556.7086546459791
 10
1241.964846152182
 20
556.7086546459791
 10
1242.000158380906
 20
556.7192052509027
 10
1242.035384482243
 20
556.7227364737751
 10
1242.134172595283
 20
556.7156740280303
 10
1242.232960708322
 20
556.7086546459791
 10
1242.331748821362
 20
556.7086546459791
 10
1242.331748821362
 20
556.7086546459791
 10
1318.567061031035
 20
556.7086546459791
 10
1318.567061031035
 20
556.7086546459791
 10
1319.385443463556
 20
556.7086546459791
 10
1322.616943028721
 20
556.6662799715106
 10
1326.366929464415
 20
556.2888266974079
 10
1326.366929464415
 20
556.2888266974079
 10
1326.391648024522
 20
556.2888266974079
 10
1326.391648024522
 20
556.2888266974079
 10
1326.691457459126
 20
556.2888266974079
 10
1326.987821798244
 20
556.25708875525
 10
1327.273592468746
 20
556.1935698072407
 10
1329.570179246601
 20
555.7208596429708
 10
1331.309349574942
 20
553.4771550808148
 10
1331.309349574942
 20
550.7819707553167
 10
1331.309349574942
 20
548.0373493096052
 10
1329.51014845777
 20
545.7619498689849
 10
1327.153617018472
 20
545.3421219204137
 10
1326.899627353822
 20
545.2962590867662
 10
1326.635044020555
 20
545.2715405266596
 10
1326.366929464415
 20
545.2715405266596
 10
1326.098814908276
 20
545.2715405266596
 10
1325.834231575009
 20
545.2962590867662
 10
1325.580241910358
 20
545.3421219204137
 10
1325.580241910358
 20
545.3421219204137
 10
1300.667033908774
 20
545.3421219204137
 10
1300.667033908774
 20
545.3421219204137
 10
1300.508301134291
 20
545.3421219204137
 10
1300.370755697043
 20
545.4655855298663
 10
1300.346037136936
 20
545.631380750094
 10
1299.915658583441
 20
548.7181863048778
 10
1298.857325250372
 20
550.9019031418969
 10
1297.615540582714
 20
550.9019031418969
 10
1295.985665908642
 20
550.9019031418969
 10
1294.673342910924
 20
547.1695297568708
 10
1294.673342910924
 20
542.5692937554168
 10
1294.673342910924
 20
542.223578423472
 10
1294.680405356668
 20
541.8849255372719
 10
1294.69806147103
 20
541.5568232559954
 10
1294.680405356668
 20
541.4086410864361
 10
1294.673342910924
 20
541.2640332034428
 10
1294.673342910924
 20
541.1087885881386
 10
1294.673342910924
 20
541.1087885881386
 10
1294.673342910924
 20
537.5669289834468
 10
1294.673342910924
 20
537.5669289834468
 10
1294.673342910924
 20
536.0252487537975
 10
1295.721082575375
 20
534.734113093313
 10
1297.139256131878
 20
534.3530855326444
 10
1297.298075033749
 20
534.2825472025839
 10
1297.449745362487
 20
534.2366843689365
 10
1297.615540582714
 20
534.2366843689365
 10
1297.643790365693
 20
534.2366843689365
 10
1297.67901646703
 20
534.2472349738601
 10
1297.714328695754
 20
534.2507661967325
 10
1297.809585585921
 20
534.2402155918089
 10
1297.908373698961
 20
534.2366843689365
 10
1298.007075684613
 20
534.2366843689365
 10
1298.007075684613
 20
534.2366843689365
 10
1342.026783247393
 20
534.2366843689365
 10
1342.026783247393
 20
534.2366843689365
 10
1346.746908571733
 20
539.2143736444933
 10
1349.533818564526
 20
544.4531150304449
 10
1350.119484797019
 20
549.8682453052413
 10
1350.193554349952
 20
550.5773320834928
 10
1350.232311674161
 20
551.2899500846167
 10
1350.232311674161
 20
552.0060993086131
 10
1350.232311674161
 20
567.3201516322586
 10
1332.600485235426
 20
581.3465995182919
 10
1303.33405457868
 20
592.2121722966084
 97
        0
 92
        1
 93
        1
 72
     4
 94
        3
 73
     0
 74
     1
 95
       17
 96
       13
 40
0.0
 40
0.0
 40
0.0
 40
0.0
 40
1.0
 40
1.0
 40
1.0
 40
2.0
 40
2.0
 40
2.0
 40
3.0
 40
3.0
 40
3.0
 40
4.0
 40
4.0
 40
4.0
 40
4.0
 10
1078.232032336779
 20
596.7362716878386
 10
1077.127534724208
 20
596.7362716878386
 10
1076.232068280204
 20
597.6316950681485
 10
1076.232068280204
 20
598.7362357444132
 10
1076.232068280204
 20
599.8408194843714
 10
1077.127534724208
 20
600.736285928375
 10
1078.232032336779
 20
600.736285928375
 10
1079.336616076737
 20
600.736285928375
 10
1080.232082520741
 20
599.8408194843714
 10
1080.232082520741
 20
598.7362357444132
 10
1080.232082520741
 20
597.6316950681485
 10
1079.336616076737
 20
596.7362716878386
 10
1078.232032336779
 20
596.7362716878386
 97
        0
 92
        1
 93
        1
 72
     4
 94
        3
 73
     0
 74
     1
 95
       50
 96
       46
 40
0.0
 40
0.0
 40
0.0
 40
0.0
 40
1.0
 40
1.0
 40
1.0
 40
2.0
 40
2.0
 40
2.0
 40
3.0
 40
3.0
 40
3.0
 40
4.0
 40
4.0
 40
4.0
 40
5.0
 40
5.0
 40
5.0
 40
6.0
 40
6.0
 40
6.0
 40
7.0
 40
7.0
 40
7.0
 40
8.0
 40
8.0
 40
8.0
 40
9.0
 40
9.0
 40
9.0
 40
10.0
 40
10.0
 40
10.0
 40
11.0
 40
11.0
 40
11.0
 40
12.0
 40
12.0
 40
12.0
 40
13.0
 40
13.0
 40
13.0
 40
14.0
 40
14.0
 40
14.0
 40
15.0
 40
15.0
 40
15.0
 40
15.0
 10
1074.529502091394
 20
609.8616548497048
 10
1074.522439645649
 20
609.8581236268324
 10
1074.515463327291
 20
609.8581236268324
 10
1074.508400881547
 20
609.8581236268324
 10
1070.278512644757
 20
609.3183632916808
 10
1066.126311311159
 20
608.7292519637032
 10
1062.04473443501
 20
608.1012971841292
 10
1062.662095545966
 20
609.328956960298
 10
1063.575734868655
 20
610.3273456319234
 10
1064.651724316085
 20
611.2092900761473
 10
1065.075040423835
 20
611.5585366309646
 10
1065.389060877316
 20
612.041797400158
 10
1065.822970653683
 20
612.3734309043068
 10
1066.489768884853
 20
612.8814532973005
 10
1066.708360193392
 20
613.2447816799137
 10
1066.443776860125
 20
614.0561877940771
 10
1066.08755398695
 20
615.1603839607933
 10
1065.777150883729
 20
616.3069117382844
 10
1065.219734434216
 20
617.312319791961
 10
1064.634068201723
 20
618.3671219021574
 10
1064.75395752461
 20
619.185547398372
 10
1065.314991324383
 20
620.1909985157422
 10
1066.345074874473
 20
622.0360194028677
 10
1067.188261994488
 20
623.9868908487776
 10
1068.190095761598
 20
625.8495678502651
 10
1068.835706655534
 20
627.0454466205824
 10
1069.47770019921
 20
628.2272866267974
 10
1069.745900882737
 20
629.5748787895465
 10
1069.81997043567
 20
629.9382071721595
 10
1070.031585425852
 20
630.0228703937096
 10
1070.296168759119
 20
629.8112554035281
 10
1070.588915747978
 20
629.5784100124188
 10
1070.885366214484
 20
629.3138266791516
 10
1071.082856313176
 20
629.0033805122371
 10
1072.599817982718
 20
626.6009431755981
 10
1073.823946536015
 20
624.0115663451907
 10
1075.672498646012
 20
621.817298903248
 10
1076.198134089675
 20
621.1928753465464
 10
1076.688457304613
 20
620.5402450705594
 10
1077.185929092683
 20
619.898165399496
 10
1079.771817763911
 20
616.5609014029344
 10
1082.516353082236
 20
613.3964950723454
 10
1086.213457302232
 20
611.219840681071
 10
1082.262449544973
 20
610.8035439553721
 10
1078.364151748638
 20
610.3520211283364
 10
1074.529502091394
 20
609.8616548497048
 97
        0
 92
        1
 93
        1
 72
     4
 94
        3
 73
     0
 74
     1
 95
       59
 96
       55
 40
0.0
 40
0.0
 40
0.0
 40
0.0
 40
1.0
 40
1.0
 40
1.0
 40
2.0
 40
2.0
 40
2.0
 40
3.0
 40
3.0
 40
3.0
 40
4.0
 40
4.0
 40
4.0
 40
5.0
 40
5.0
 40
5.0
 40
6.0
 40
6.0
 40
6.0
 40
7.0
 40
7.0
 40
7.0
 40
8.0
 40
8.0
 40
8.0
 40
9.0
 40
9.0
 40
9.0
 40
10.0
 40
10.0
 40
10.0
 40
11.0
 40
11.0
 40
11.0
 40
12.0
 40
12.0
 40
12.0
 40
13.0
 40
13.0
 40
13.0
 40
14.0
 40
14.0
 40
14.0
 40
15.0
 40
15.0
 40
15.0
 40
16.0
 40
16.0
 40
16.0
 40
17.0
 40
17.0
 40
17.0
 40
18.0
 40
18.0
 40
18.0
 40
18.0
 10
1115.561019957655
 20
621.5632661749044
 10
1115.497630200726
 20
621.0658805142214
 10
1115.423560647793
 20
620.5614324077937
 10
1115.278866637413
 20
620.0851479569579
 10
1114.971908629677
 20
619.0726774575365
 10
1114.56263128603
 20
618.0884567410942
 10
1114.298047952762
 20
617.0653495093621
 10
1114.068776848219
 20
616.1798738422658
 10
1113.991262199801
 20
615.2591720738328
 10
1113.825380852186
 20
614.3595715152469
 10
1113.768881286228
 20
614.0596759532559
 10
1113.740803758023
 20
613.7280855128006
 10
1113.648991963341
 20
613.4458460651715
 10
1109.877818190413
 20
613.2271686292453
 10
1106.145401741693
 20
612.9801983466465
 10
1102.451914871956
 20
612.6980019627109
 10
1101.068881289403
 20
612.5921514039267
 10
1099.689637311883
 20
612.4792383993976
 10
1098.317283525334
 20
612.3663684585621
 10
1099.036963972203
 20
612.8249537313424
 10
1099.714269744603
 20
613.375307735111
 10
1100.275131289601
 20
613.9926688460679
 10
1101.587540414707
 20
615.4284985169328
 10
1102.504797087655
 20
617.1676688452741
 10
1103.316117074432
 20
618.9386201794667
 10
1103.414991314858
 20
619.1573406790866
 10
1103.492505963276
 20
619.4007797388131
 10
1103.51731065077
 20
619.6371132891012
 10
1103.679574648125
 20
621.3057452873819
 10
1103.989977751346
 20
622.9073701784746
 10
1104.942546653018
 20
624.3643441228803
 10
1105.55284531823
 20
625.295682623624
 10
1105.348206646406
 20
625.877731505857
 10
1104.508464621876
 20
626.6115368442152
 10
1104.339138178776
 20
626.7596759500809
 10
1104.183936627166
 20
626.9255142340022
 10
1104.011165088581
 20
627.0701651806891
 10
1103.704207080845
 20
627.3206236224668
 10
1103.598442649448
 20
627.6240073436365
 10
1103.774831538292
 20
627.9873787899433
 10
1104.409762636224
 20
629.2961705647897
 10
1104.977686626967
 20
630.6437627275387
 10
1105.72217176133
 20
631.885547395197
 10
1106.364165305006
 20
632.9615368426277
 10
1106.766380202909
 20
632.9474119511382
 10
1107.658832188363
 20
632.0584050611694
 10
1108.247943516341
 20
631.4728249560641
 10
1108.741797954151
 20
630.7813942921745
 10
1109.362776415368
 20
630.2345715112782
 10
1111.013838426674
 20
628.7740663440001
 10
1112.618908413252
 20
627.2747607888193
 10
1113.998324645546
 20
625.5426098425293
 10
1114.933151305468
 20
624.3678753457526
 10
1115.769275979738
 20
623.1719535117418
 10
1115.561019957655
 20
621.5632661749044
 97
        0
 92
        1
 93
        1
 72
     4
 94
        3
 73
     0
 74
     1
 95
       32
 96
       28
 40
0.0
 40
0.0
 40
0.0
 40
0.0
 40
1.0
 40
1.0
 40
1.0
 40
2.0
 40
2.0
 40
2.0
 40
3.0
 40
3.0
 40
3.0
 40
4.0
 40
4.0
 40
4.0
 40
5.0
 40
5.0
 40
5.0
 40
6.0
 40
6.0
 40
6.0
 40
7.0
 40
7.0
 40
7.0
 40
8.0
 40
8.0
 40
8.0
 40
9.0
 40
9.0
 40
9.0
 40
9.0
 10
1189.482089275112
 20
703.2736963845115
 10
1189.245755724824
 20
703.3654220518063
 10
1188.959985054322
 20
703.4006481531429
 10
1188.787213515737
 20
703.5594239913194
 10
1186.480033069266
 20
705.686684326074
 10
1184.066915936622
 20
707.6692937141418
 10
1181.488261965913
 20
709.4649205447475
 10
1180.020651289196
 20
710.4844534899137
 10
1179.833582604347
 20
712.2130732133313
 10
1179.731435523209
 20
714.1498197677516
 10
1179.812567521887
 20
714.5731789391953
 10
1179.932456844774
 20
715.246953488723
 10
1180.07008840941
 20
715.9137086561996
 10
1180.193422827782
 20
716.5099254936156
 10
1180.518123077266
 20
716.6227954344511
 10
1181.043672393541
 20
716.326474159026
 10
1182.394838842856
 20
715.5679933242548
 10
1183.760130183661
 20
714.8306998267177
 10
1185.111296632976
 20
714.068687769074
 10
1186.988012398566
 20
713.0138425951841
 10
1188.159172608776
 20
711.3840540484995
 10
1188.670769288336
 20
709.3343944895502
 10
1189.101061714444
 20
707.605817829826
 10
1189.36926239797
 20
705.8348664956334
 10
1189.676220405706
 20
704.0745088300578
 10
1189.7184228254
 20
703.8240073245865
 10
1189.55271373256
 20
703.5418109406511
 10
1189.482089275112
 20
703.2736963845115
 97
        0
 92
        1
 93
        1
 72
     4
 94
        3
 73
     0
 74
     1
 95
       65
 96
       61
 40
0.0
 40
0.0
 40
0.0
 40
0.0
 40
1.0
 40
1.0
 40
1.0
 40
2.0
 40
2.0
 40
2.0
 40
3.0
 40
3.0
 40
3.0
 40
4.0
 40
4.0
 40
4.0
 40
5.0
 40
5.0
 40
5.0
 40
6.0
 40
6.0
 40
6.0
 40
7.0
 40
7.0
 40
7.0
 40
8.0
 40
8.0
 40
8.0
 40
9.0
 40
9.0
 40
9.0
 40
10.0
 40
10.0
 40
10.0
 40
11.0
 40
11.0
 40
11.0
 40
12.0
 40
12.0
 40
12.0
 40
13.0
 40
13.0
 40
13.0
 40
14.0
 40
14.0
 40
14.0
 40
15.0
 40
15.0
 40
15.0
 40
16.0
 40
16.0
 40
16.0
 40
17.0
 40
17.0
 40
17.0
 40
18.0
 40
18.0
 40
18.0
 40
19.0
 40
19.0
 40
19.0
 40
20.0
 40
20.0
 40
20.0
 40
20.0
 10
1191.221345730841
 20
741.6453421539984
 10
1192.325498833863
 20
743.4656444810173
 10
1193.715422607387
 20
744.9861373734324
 10
1195.648637938935
 20
745.9562762620786
 10
1196.678721489025
 20
746.4713180371235
 10
1197.765304605073
 20
746.5206690299498
 10
1198.756630830953
 20
745.9844399176706
 10
1201.638797713913
 20
744.428720923919
 10
1204.531644392878
 20
742.880064375912
 10
1207.315109290185
 20
741.1619952574179
 10
1208.824922386596
 20
740.2306998203677
 10
1210.186596377141
 20
739.0241412540461
 10
1211.506067947992
 20
737.821200037984
 10
1213.150067513553
 20
736.3254257056756
 10
1213.24170705346
 20
735.1435856994607
 10
1212.40919972945
 20
733.0763561535365
 10
1211.566012609435
 20
730.9843219201185
 10
1210.818082379587
 20
728.8430228212615
 10
1210.147839052932
 20
726.6875127035278
 10
1209.69635928959
 20
725.234113045688
 10
1206.189768849928
 20
719.3920923765756
 10
1205.738116831812
 20
718.3549463807411
 10
1205.4664710528
 20
717.7234603782948
 10
1205.11731062537
 20
717.7128667096778
 10
1204.676338403258
 20
718.1856199376411
 10
1204.658596161509
 20
718.2102954340543
 10
1204.633963728789
 20
718.2279084847225
 10
1204.612776391555
 20
718.2490958219569
 10
1202.788942841664
 20
720.0129847104048
 10
1203.11691593186
 20
721.3676823825922
 10
1205.533478159988
 20
722.0767260971501
 10
1205.568790388712
 20
722.0873197657672
 10
1205.702804603088
 20
722.12612015367
 10
1205.893318383423
 20
722.1895960379857
 10
1206.48604706166
 20
722.3871722640647
 10
1206.782325273391
 20
722.4824291542319
 10
1206.863457272069
 20
722.5388425928028
 10
1207.403303734608
 20
722.9269325992162
 10
1206.47192217017
 20
724.3909259256732
 10
1206.493109507405
 20
726.6945751492726
 10
1206.500171953149
 20
727.5588634791346
 10
1206.503617048635
 20
727.9927732555018
 10
1206.637631263011
 20
728.4937762664443
 10
1206.838824839349
 20
729.2592764832668
 10
1207.159907738575
 20
729.7179048197407
 10
1206.934081729516
 20
730.0742138203027
 10
1206.778880177906
 20
730.3246722620803
 10
1206.48604706166
 20
730.321141039208
 10
1206.186151499669
 20
730.4305228208647
 10
1205.223075056767
 20
730.772706929937
 10
1204.824477509124
 20
732.0074291518506
 10
1204.637408824275
 20
732.5436582641297
 10
1203.318109508198
 20
736.2937308272113
 10
1200.097289739038
 20
738.9113143769041
 10
1196.110797498281
 20
739.0523910370251
 10
1194.336401068603
 20
739.115953048728
 10
1192.893422824607
 20
739.7967900440005
 10
1191.468186822359
 20
740.6893281568416
 10
1191.044956841996
 20
740.9539114901088
 10
1190.967269938803
 20
741.2326197148655
 10
1191.221345730841
 20
741.6453421539984
 97
        0
 92
        1
 93
        1
 72
     4
 94
        3
 73
     0
 74
     1
 95
       41
 96
       37
 40
0.0
 40
0.0
 40
0.0
 40
0.0
 40
1.0
 40
1.0
 40
1.0
 40
2.0
 40
2.0
 40
2.0
 40
3.0
 40
3.0
 40
3.0
 40
4.0
 40
4.0
 40
4.0
 40
5.0
 40
5.0
 40
5.0
 40
6.0
 40
6.0
 40
6.0
 40
7.0
 40
7.0
 40
7.0
 40
8.0
 40
8.0
 40
8.0
 40
9.0
 40
9.0
 40
9.0
 40
10.0
 40
10.0
 40
10.0
 40
11.0
 40
11.0
 40
11.0
 40
12.0
 40
12.0
 40
12.0
 40
12.0
 10
1181.512894398632
 20
733.7501307030642
 10
1183.019262399558
 20
734.7485193746896
 10
1184.659644614859
 20
735.5422693744912
 10
1186.250761964722
 20
736.413620150098
 10
1186.772866185512
 20
736.6993908205995
 10
1187.122026612942
 20
736.5018145945204
 10
1187.418304824673
 20
736.0008977109651
 10
1188.247367053199
 20
734.5933178230791
 10
1188.977727296072
 20
733.1998628266828
 10
1188.684894179825
 20
731.4535439252096
 10
1188.593082385143
 20
730.9102523671856
 10
1188.818908394202
 20
730.2787663647393
 10
1189.012867270021
 20
729.7249672654855
 10
1189.637290826723
 20
727.9575471541651
 10
1190.882692844641
 20
726.624036819212
 10
1192.187867269227
 20
725.3398774770852
 10
1193.524908827053
 20
724.0205781610088
 10
1194.392728379787
 20
722.4612418169976
 10
1194.660929063314
 20
720.5844829877142
 10
1194.812685519439
 20
719.5050053811046
 10
1194.643186821565
 20
719.3321477151322
 10
1193.574345947266
 20
719.677863047077
 10
1192.727713731766
 20
719.9495088260891
 10
1191.859894179032
 20
720.2457870378205
 10
1191.104901503439
 20
720.7044153742944
 10
1189.139991293427
 20
721.8968490491266
 10
1187.058464601239
 20
722.5670923757818
 10
1184.740776613537
 20
722.5106789372109
 10
1184.088103273856
 20
722.493022822849
 10
1183.424922392946
 20
722.5564987071647
 10
1182.77931149901
 20
722.6729429345662
 10
1179.75245060567
 20
723.2091720468453
 10
1178.239020158999
 20
724.6026270432417
 10
1178.510665938011
 20
727.8799463783599
 10
1178.274332387723
 20
730.2858288104841
 10
1179.367977949516
 20
732.3284259236888
 10
1181.512894398632
 20
733.7501307030642
 97
        0
 92
        1
 93
        1
 72
     4
 94
        3
 73
     0
 74
     1
 95
       65
 96
       61
 40
0.0
 40
0.0
 40
0.0
 40
0.0
 40
1.0
 40
1.0
 40
1.0
 40
2.0
 40
2.0
 40
2.0
 40
3.0
 40
3.0
 40
3.0
 40
4.0
 40
4.0
 40
4.0
 40
5.0
 40
5.0
 40
5.0
 40
6.0
 40
6.0
 40
6.0
 40
7.0
 40
7.0
 40
7.0
 40
8.0
 40
8.0
 40
8.0
 40
9.0
 40
9.0
 40
9.0
 40
10.0
 40
10.0
 40
10.0
 40
11.0
 40
11.0
 40
11.0
 40
12.0
 40
12.0
 40
12.0
 40
13.0
 40
13.0
 40
13.0
 40
14.0
 40
14.0
 40
14.0
 40
15.0
 40
15.0
 40
15.0
 40
16.0
 40
16.0
 40
16.0
 40
17.0
 40
17.0
 40
17.0
 40
18.0
 40
18.0
 40
18.0
 40
19.0
 40
19.0
 40
19.0
 40
20.0
 40
20.0
 40
20.0
 40
20.0
 10
1129.555686837837
 20
614.1549328434231
 10
1129.583936620816
 20
614.1937762950193
 10
1129.615803754054
 20
614.2255142371772
 10
1129.647498632519
 20
614.2643146250798
 10
1129.926206857275
 20
614.6241548485141
 10
1129.979089072974
 20
615.2273910679813
 10
1130.031971288673
 20
615.7353703972815
 10
1130.173047948794
 20
617.1112554067031
 10
1130.201297731773
 20
618.4553163465798
 10
1130.324804404919
 20
619.8699586802105
 10
1130.423678645345
 20
621.0129552348293
 10
1130.79040905975
 20
622.071288567898
 10
1131.369012846498
 20
623.0308768516207
 10
1132.822498631725
 20
625.436759283745
 10
1134.046713312408
 20
628.079104457238
 10
1135.105046645477
 20
630.7319571719611
 10
1136.106880412588
 20
633.2473075131292
 10
1136.921817749624
 20
635.6461705632022
 10
1137.659068183467
 20
638.2637971765886
 10
1138.078853068345
 20
639.7454466174074
 10
1138.100040405579
 20
641.2447521725882
 10
1137.849581963801
 20
642.7758387336203
 10
1137.803762193848
 20
643.0580351175558
 10
1137.778957506354
 20
643.4354883916585
 10
1137.789637302358
 20
643.6859898971297
 10
1137.789637302358
 20
643.7495088451391
 10
1137.923651516734
 20
643.7812037236033
 10
1137.948283949454
 20
643.7353839536495
 10
1138.025970852646
 20
643.6048148347586
 10
1138.159985067022
 20
643.2732243943033
 10
1138.234054619955
 20
643.1144916198203
 10
1138.311741523148
 20
642.9522276224651
 10
1138.463325724499
 20
642.6100435133926
 10
1138.576324856415
 20
642.5817937304137
 10
1139.228998196096
 20
642.4124672873136
 10
1139.267755520305
 20
641.8868318436516
 10
1139.479456637873
 20
641.2624082869501
 10
1140.502477742218
 20
638.2496722850991
 10
1141.557193725027
 20
635.3075176770021
 10
1142.612081962611
 20
632.3018441208959
 10
1142.802595742945
 20
631.7585956265656
 10
1142.971922186045
 20
631.2329601829036
 10
1143.187068399099
 20
630.6367433454875
 10
1143.402214612153
 20
630.0440577309439
 10
1143.684540187169
 20
629.2785575141214
 10
1143.931381278687
 20
628.6576651802922
 10
1144.002005736135
 20
628.4812762914474
 10
1144.139637300771
 20
628.2942937339855
 10
1144.192519516469
 20
628.1179048451407
 10
1144.679311508535
 20
626.5551234056443
 10
1145.162658405116
 20
624.685383958412
 10
1145.674255084675
 20
623.2142851225168
 10
1146.471450179962
 20
620.9106789626109
 10
1146.944117280538
 20
618.6246427896798
 10
1148.129574637013
 20
616.6385021787397
 10
1148.626874170309
 20
615.8024205681631
 10
1149.163103282588
 20
615.1003962356564
 10
1149.755831960825
 20
614.486566347572
 10
1142.933164861836
 20
614.4830351246995
 10
1136.198519952496
 20
614.3666339609917
 10
1129.555686837837
 20
614.1549328434231
 97
        0
 92
        1
 93
        1
 72
     4
 94
        3
 73
     0
 74
     1
 95
      194
 96
      190
 40
0.0
 40
0.0
 40
0.0
 40
0.0
 40
1.0
 40
1.0
 40
1.0
 40
2.0
 40
2.0
 40
2.0
 40
3.0
 40
3.0
 40
3.0
 40
4.0
 40
4.0
 40
4.0
 40
5.0
 40
5.0
 40
5.0
 40
6.0
 40
6.0
 40
6.0
 40
7.0
 40
7.0
 40
7.0
 40
8.0
 40
8.0
 40
8.0
 40
9.0
 40
9.0
 40
9.0
 40
10.0
 40
10.0
 40
10.0
 40
11.0
 40
11.0
 40
11.0
 40
12.0
 40
12.0
 40
12.0
 40
13.0
 40
13.0
 40
13.0
 40
14.0
 40
14.0
 40
14.0
 40
15.0
 40
15.0
 40
15.0
 40
16.0
 40
16.0
 40
16.0
 40
17.0
 40
17.0
 40
17.0
 40
18.0
 40
18.0
 40
18.0
 40
19.0
 40
19.0
 40
19.0
 40
20.0
 40
20.0
 40
20.0
 40
21.0
 40
21.0
 40
21.0
 40
22.0
 40
22.0
 40
22.0
 40
23.0
 40
23.0
 40
23.0
 40
24.0
 40
24.0
 40
24.0
 40
25.0
 40
25.0
 40
25.0
 40
26.0
 40
26.0
 40
26.0
 40
27.0
 40
27.0
 40
27.0
 40
28.0
 40
28.0
 40
28.0
 40
29.0
 40
29.0
 40
29.0
 40
30.0
 40
30.0
 40
30.0
 40
31.0
 40
31.0
 40
31.0
 40
32.0
 40
32.0
 40
32.0
 40
33.0
 40
33.0
 40
33.0
 40
34.0
 40
34.0
 40
34.0
 40
35.0
 40
35.0
 40
35.0
 40
36.0
 40
36.0
 40
36.0
 40
37.0
 40
37.0
 40
37.0
 40
38.0
 40
38.0
 40
38.0
 40
39.0
 40
39.0
 40
39.0
 40
40.0
 40
40.0
 40
40.0
 40
41.0
 40
41.0
 40
41.0
 40
42.0
 40
42.0
 40
42.0
 40
43.0
 40
43.0
 40
43.0
 40
44.0
 40
44.0
 40
44.0
 40
45.0
 40
45.0
 40
45.0
 40
46.0
 40
46.0
 40
46.0
 40
47.0
 40
47.0
 40
47.0
 40
48.0
 40
48.0
 40
48.0
 40
49.0
 40
49.0
 40
49.0
 40
50.0
 40
50.0
 40
50.0
 40
51.0
 40
51.0
 40
51.0
 40
52.0
 40
52.0
 40
52.0
 40
53.0
 40
53.0
 40
53.0
 40
54.0
 40
54.0
 40
54.0
 40
55.0
 40
55.0
 40
55.0
 40
56.0
 40
56.0
 40
56.0
 40
57.0
 40
57.0
 40
57.0
 40
58.0
 40
58.0
 40
58.0
 40
59.0
 40
59.0
 40
59.0
 40
60.0
 40
60.0
 40
60.0
 40
61.0
 40
61.0
 40
61.0
 40
62.0
 40
62.0
 40
62.0
 40
63.0
 40
63.0
 40
63.0
 40
63.0
 10
1155.802491301761
 20
614.4618908511588
 10
1155.375643971139
 20
614.8146686288485
 10
1154.948796640516
 20
615.1780400751552
 10
1154.546581742613
 20
615.5907625142881
 10
1153.925603281397
 20
616.2328421853515
 10
1153.336491953419
 20
616.744352737524
 10
1152.818005082889
 20
617.6121722902584
 10
1152.302963307844
 20
618.4799918429928
 10
1152.458164859455
 20
619.9510906788881
 10
1153.029533945684
 20
620.8612418423976
 10
1153.601075286687
 20
621.774967292473
 10
1153.953853064376
 20
622.5757797380193
 10
1153.657574852645
 20
623.7681272854643
 10
1153.49169350503
 20
624.4384567395067
 10
1153.170782860579
 20
624.8229293956606
 10
1152.627491302555
 20
625.1757071733502
 10
1151.854928639988
 20
625.6731789614203
 10
1151.159880625838
 20
626.0435697897782
 10
1150.383700613012
 20
626.7138561801271
 10
1149.607692854959
 20
627.3840995067825
 10
1149.216157753061
 20
628.4742138457027
 10
1149.029089068212
 20
629.67009261602
 10
1148.870270166341
 20
630.6684812876454
 10
1148.584671750614
 20
631.7938217279022
 10
1148.355228391297
 20
632.8063352910171
 10
1148.214151731176
 20
633.4272276248463
 10
1148.058950179565
 20
634.0727954550886
 10
1147.92131861493
 20
634.6971759480965
 10
1147.55803329601
 20
636.334113067913
 10
1147.20525551832
 20
637.9921513975767
 10
1146.855922836116
 20
639.6219830079548
 10
1146.799595524932
 20
639.886566341222
 10
1146.70778373025
 20
640.1617433431063
 10
1146.679533947271
 20
640.4016511799604
 10
1146.365685748565
 20
642.9027905022517
 10
1145.480123954081
 20
645.2276270630855
 10
1144.308963743871
 20
647.1996427825361
 10
1143.134186183401
 20
649.1716585019866
 10
1142.29806150913
 20
650.9003212890979
 10
1141.539623738053
 20
653.0204761144142
 10
1141.211478393083
 20
653.9447521694132
 10
1140.809435749954
 20
654.6785575077714
 10
1140.410665947536
 20
655.5322521690163
 10
1140.319026407629
 20
655.7333596179677
 10
1140.255464395926
 20
655.937955226098
 10
1140.227214612947
 20
656.1425508342282
 10
1140.128512627294
 20
656.9151565604891
 10
1140.072013061336
 20
657.7229883880866
 10
1139.923873955471
 20
658.4638561721896
 10
1139.556971286291
 20
660.2630142256678
 10
1139.560588636551
 20
661.9845715033407
 10
1139.888561726747
 20
663.7484603917886
 10
1140.213261976231
 20
665.5123492802365
 10
1140.403603501792
 20
667.1139741713292
 10
1140.879887952627
 20
668.8143441117678
 10
1141.1022688662
 20
669.6045628886969
 10
1141.028027058493
 20
670.5217764979512
 10
1141.077464178706
 20
671.3437762807318
 10
1141.133963744664
 20
672.2997902778886
 10
1141.426796860911
 20
672.4338475559584
 10
1142.174554835984
 20
672.2398456164452
 10
1143.141248629145
 20
671.9858128881017
 10
1143.737422402868
 20
671.9928753338464
 10
1144.358400864084
 20
672.998283387523
 10
1144.707561291514
 20
673.5627622827813
 10
1145.116838635162
 20
674.0566167205918
 10
1145.476678858596
 20
674.6387086665183
 10
1146.009290620616
 20
675.4889151685844
 10
1145.87165905598
 20
676.3496722755741
 10
1145.152150863886
 20
676.9917519466375
 10
1144.84519285615
 20
677.2669289485218
 10
1144.340658622335
 20
677.4080056086428
 10
1144.499477524205
 20
677.9830351088245
 10
1144.66174152156
 20
678.5580646090064
 10
1145.102713743672
 20
678.3816757201615
 10
1145.525943724035
 20
678.3958006116511
 10
1145.945900863687
 20
678.4063942802683
 10
1146.510207504171
 20
678.3781444972892
 10
1146.908977306589
 20
678.5333460488997
 10
1147.473283947073
 20
678.7521096122131
 10
1147.674477523411
 20
679.2142261078658
 10
1147.138248411132
 20
679.6939987178804
 10
1146.605464394338
 20
680.1702831687162
 10
1145.935221067683
 20
680.540673997074
 10
1145.261360390768
 20
680.7947067254177
 10
1144.404220634038
 20
681.1192347201282
 10
1143.525721285299
 20
681.2356789475297
 10
1142.82016572992
 20
681.990585495735
 10
1142.728526190012
 20
682.0858423859022
 10
1142.580387084147
 20
682.1669743845798
 10
1142.460325506486
 20
682.177568053197
 10
1141.370297294953
 20
682.2834186119812
 10
1140.428408189285
 20
682.7102659426038
 10
1139.539401299317
 20
683.4264151666
 10
1138.869157972661
 20
683.9626442788791
 10
1138.23060952447
 20
684.5058927732094
 10
1137.652005737722
 20
685.144398157707
 10
1136.650171970612
 20
686.2556998338614
 10
1136.163379978546
 20
687.5892101688146
 10
1135.680033081965
 20
689.0990663289189
 10
1135.366012628485
 20
690.0832870453612
 10
1135.489519301631
 20
691.1592764927918
 10
1135.630595961752
 20
692.1999537114987
 10
1135.902241740764
 20
694.224937774035
 10
1136.403158624319
 20
696.098165380446
 10
1137.186401082891
 20
697.9361238218268
 10
1137.38035995871
 20
698.3912209354282
 10
1137.436859524669
 20
698.923918824835
 10
1137.584998630534
 20
699.4037344985431
 10
1137.800144843588
 20
700.0951651624329
 10
1138.06128308137
 20
700.78306460345
 10
1138.290554185914
 20
701.467432821595
 10
1138.406998413315
 20
701.8202105992846
 10
1138.516380194972
 20
702.2047693828256
 10
1138.586832397645
 20
702.5610783833876
 10
1138.837290839423
 20
703.8592764896168
 10
1139.200748413117
 20
704.2861238202393
 10
1140.27665173316
 20
703.6722939321548
 10
1141.874831528767
 20
702.7621427686454
 10
1143.652845308705
 20
702.6386791591927
 10
1145.33904729396
 20
702.0460366083427
 10
1148.023637950841
 20
701.1041044389818
 10
1150.570769297861
 20
701.0758977196963
 10
1153.325984412189
 20
701.5309517696043
 10
1154.51126951389
 20
701.7284849319898
 10
1155.587172833933
 20
702.335295438023
 10
1156.684435745985
 20
702.8538684359402
 10
1158.134304180953
 20
703.5418109406511
 10
1159.57004772443
 20
704.268510769571
 10
1160.935339065235
 20
705.1469239909225
 10
1162.480464390369
 20
706.1488008217267
 10
1164.078644185977
 20
706.8684812685954
 10
1165.711963955534
 20
707.6304933262392
 10
1166.428027052143
 20
707.9656149895668
 10
1167.098442633573
 20
708.4030990524999
 10
1167.765068609968
 20
708.8546218795356
 10
1168.029651943236
 20
706.1065122746453
 10
1168.237907965319
 20
703.3512971603167
 10
1168.52367863582
 20
700.6031444917329
 10
1168.597748188753
 20
699.8834640448642
 10
1168.929338629209
 20
699.1849709352298
 10
1169.165672179497
 20
698.4864778255954
 10
1169.3985606343
 20
697.8127032760677
 10
1169.835915506152
 20
697.1600299363871
 10
1169.881735276106
 20
696.4756617182422
 10
1170.08637394793
 20
693.2336546118479
 10
1170.259317741289
 20
689.9845419960152
 10
1170.301520160984
 20
686.7354293801825
 10
1170.336832389708
 20
684.0508387233016
 10
1170.153381055118
 20
681.3626307161611
 10
1170.089991298189
 20
678.6780400592802
 10
1170.008859299512
 20
675.0338180549829
 10
1169.924109950575
 20
671.393127273558
 10
1169.885352626366
 20
667.7489483329543
 10
1169.860547938872
 20
665.1842900626536
 10
1169.9065399636
 20
662.6195887286593
 10
1169.920664855089
 20
660.0548873946651
 10
1169.924109950575
 20
658.7143146139673
 10
1169.948742383294
 20
657.3737418332695
 10
1169.920664855089
 20
656.0332121162652
 10
1169.857102843386
 20
653.3167973898393
 10
1169.765463303479
 20
650.6039569499792
 10
1169.680713954542
 20
647.8875852872469
 10
1169.634894184588
 20
646.3635611719595
 10
1170.149935959633
 20
645.0583006199854
 10
1170.982443283643
 20
643.7847349464757
 10
1171.638561718809
 20
642.7793699564927
 10
1172.241797938276
 20
641.6539864525423
 10
1172.524123513293
 20
640.496865006434
 10
1173.240186609902
 20
637.5405855068475
 10
1173.772970626696
 20
634.5349119507413
 10
1174.369144400418
 20
631.5504257318694
 10
1174.813561718015
 20
629.3138266791516
 10
1174.884186175463
 20
627.1054343457193
 10
1173.868227516863
 20
624.9711546289135
 10
1173.381435524797
 20
623.9515786200539
 10
1173.511832388914
 20
622.9250262928365
 10
1174.298519942971
 20
622.1454011845244
 10
1175.180464387194
 20
621.2704761223516
 10
1176.1542206261
 20
620.4661755176265
 10
1177.17379663496
 20
619.7535575165026
 10
1178.71185951435
 20
618.6846305148167
 10
1179.734880618695
 20
617.312319791961
 10
1180.278172176719
 20
615.5131617384828
 10
1180.479193498283
 20
614.8464065710064
 10
1180.863838409211
 20
614.2466585107179
 10
1181.361137942507
 20
613.7351479585454
 10
1173.003853059614
 20
614.1443822384995
 10
1164.470179287875
 20
614.387821298226
 10
1155.802491301761
 20
614.4618908511588
 97
        0
 92
        1
 93
        1
 72
     4
 94
        3
 73
     0
 74
     1
 95
       29
 96
       25
 40
0.0
 40
0.0
 40
0.0
 40
0.0
 40
1.0
 40
1.0
 40
1.0
 40
2.0
 40
2.0
 40
2.0
 40
3.0
 40
3.0
 40
3.0
 40
4.0
 40
4.0
 40
4.0
 40
5.0
 40
5.0
 40
5.0
 40
6.0
 40
6.0
 40
6.0
 40
7.0
 40
7.0
 40
7.0
 40
8.0
 40
8.0
 40
8.0
 40
8.0
 10
1217.111755066816
 20
665.5370678403432
 10
1218.194720832604
 20
667.2268441121647
 10
1219.274241502907
 20
668.9201516068586
 10
1220.403027038649
 20
670.5747017773433
 10
1221.493227504957
 20
672.176326668436
 10
1222.350367261687
 20
673.8484898895891
 10
1222.428054164879
 20
675.9051688305897
 10
1224.745742152581
 20
672.5220420003808
 10
1227.991366609235
 20
670.1231789503078
 10
1230.654769928881
 20
667.177450055645
 10
1231.589768843578
 20
666.1473665055552
 10
1232.323401927162
 20
664.9126442836416
 10
1233.018449941311
 20
663.6955351123964
 10
1233.702818159456
 20
662.4996132783856
 10
1233.618241065293
 20
661.3142851129918
 10
1232.796241282513
 20
660.0936877825677
 10
1231.490894603152
 20
658.1498787824027
 10
1231.55790171034
 20
658.1075471716276
 10
1229.374227937014
 20
658.9577106100002
 10
1225.518304815148
 20
660.4570161651809
 10
1221.662553948057
 20
661.9492592746169
 10
1217.806630826191
 20
663.4485648297976
 10
1216.367269932453
 20
664.0059812793111
 10
1216.282692838291
 20
664.2458460524715
 10
1217.111755066816
 20
665.5370678403432
 97
        0
 92
        1
 93
        1
 72
     4
 94
        3
 73
     0
 74
     1
 95
       11
 96
        7
 40
0.0
 40
0.0
 40
0.0
 40
0.0
 40
1.0
 40
1.0
 40
1.0
 40
2.0
 40
2.0
 40
2.0
 40
2.0
 10
1206.097957055246
 20
616.885429397645
 10
1206.288470835581
 20
618.8010316785246
 10
1206.475367265655
 20
620.7025090679147
 10
1206.66588104599
 20
622.6463180680797
 10
1208.814414845366
 20
620.0534100148001
 10
1208.440449730442
 20
617.2735194040583
 10
1206.097957055246
 20
616.885429397645
 97
        0
 92
        1
 93
        1
 72
     4
 94
        3
 73
     0
 74
     1
 95
       41
 96
       37
 40
0.0
 40
0.0
 40
0.0
 40
0.0
 40
1.0
 40
1.0
 40
1.0
 40
2.0
 40
2.0
 40
2.0
 40
3.0
 40
3.0
 40
3.0
 40
4.0
 40
4.0
 40
4.0
 40
5.0
 40
5.0
 40
5.0
 40
6.0
 40
6.0
 40
6.0
 40
7.0
 40
7.0
 40
7.0
 40
8.0
 40
8.0
 40
8.0
 40
9.0
 40
9.0
 40
9.0
 40
10.0
 40
10.0
 40
10.0
 40
11.0
 40
11.0
 40
11.0
 40
12.0
 40
12.0
 40
12.0
 40
12.0
 10
1213.545047710937
 20
641.6045923960224
 10
1212.05642195176
 20
642.5041929546084
 10
1210.472367047642
 20
643.0897730597137
 10
1208.779102616642
 20
643.5272140589533
 10
1205.97806773236
 20
644.246894505822
 10
1203.900158390431
 20
646.0249082857595
 10
1202.42548526797
 20
648.508477621076
 10
1202.270283716359
 20
648.7695297314708
 10
1202.167964380448
 20
649.0623197840235
 10
1201.963325708624
 20
649.5138426110591
 10
1204.626901283045
 20
649.429179389509
 10
1206.895324405308
 20
650.2829601781411
 10
1209.213012393009
 20
650.9320161675622
 10
1210.003145042551
 20
651.1543109537479
 10
1210.89215193252
 20
651.1048738335346
 10
1211.72827660679
 20
651.069647732198
 10
1212.980741070453
 20
651.0131481662398
 10
1214.233033279341
 20
650.8932588433531
 10
1215.481880392744
 20
650.7485648329726
 10
1216.81892195057
 20
650.5968945042345
 10
1217.086950379322
 20
649.9301824004515
 10
1216.272013042286
 20
648.8612553987656
 10
1215.894602831877
 20
648.3638266743891
 10
1215.47120059674
 20
647.8946477329916
 10
1215.104297927561
 20
647.386625339998
 10
1214.621123285754
 20
646.7163389496491
 10
1214.695192838687
 20
646.0954466158199
 10
1215.372498611087
 20
645.5874672865199
 10
1215.891157736392
 20
645.195846057234
 10
1216.416707052667
 20
644.8149046239525
 10
1217.019943272134
 20
644.3668699560958
 10
1216.088561707697
 20
643.3967310674494
 10
1215.241929492197
 20
642.4794743945017
 10
1214.342415060998
 20
641.6222485103845
 10
1214.197721050617
 20
641.4811287865698
 10
1213.742623937016
 20
641.4811287865698
 10
1213.545047710937
 20
641.6045923960224
 97
        0
 92
        1
 93
        1
 72
     4
 94
        3
 73
     0
 74
     1
 95
       17
 96
       13
 40
0.0
 40
0.0
 40
0.0
 40
0.0
 40
1.0
 40
1.0
 40
1.0
 40
2.0
 40
2.0
 40
2.0
 40
3.0
 40
3.0
 40
3.0
 40
4.0
 40
4.0
 40
4.0
 40
4.0
 10
1222.232028231768
 20
596.7362716878386
 10
1221.127530619197
 20
596.7362716878386
 10
1220.232064175194
 20
597.6316950681485
 10
1220.232064175194
 20
598.7362357444132
 10
1220.232064175194
 20
599.8408194843714
 10
1221.127530619197
 20
600.736285928375
 10
1222.232028231768
 20
600.736285928375
 10
1223.336698099114
 20
600.736285928375
 10
1224.23207841573
 20
599.8408194843714
 10
1224.23207841573
 20
598.7362357444132
 10
1224.23207841573
 20
597.6316950681485
 10
1223.336698099114
 20
596.7362716878386
 10
1222.232028231768
 20
596.7362716878386
 97
        0
 75
     2
 76
     1
 98
        0
  0
ENDSEC
  0
SECTION
  2
OBJECTS
  0
DICTIONARY
  5
C
330
0
100
AcDbDictionary
281
     1
  3
ACAD_GROUP
350
D
  3
ACAD_LAYOUT
350
1A
  3
ACAD_MATERIAL
350
3B
  3
ACAD_MLEADERSTYLE
350
70
  3
ACAD_MLINESTYLE
350
17
  3
ACAD_PLOTSETTINGS
350
19
  3
ACAD_PLOTSTYLENAME
350
E
  3
ACAD_TABLESTYLE
350
6F
  3
ACAD_VISUALSTYLE
350
2A
  0
SUN
  5
3F
330
29
100
AcDbSun
 90
        1
290
     0
 63
     7
421
 16777215
 40
1.0
291
     1
 91
  2455826
 92
 54000000
292
     0
 70
     2
 71
   256
280
     1
  0
DICTIONARY
  5
D
102
{ACAD_REACTORS
330
C
102
}
330
C
100
AcDbDictionary
281
     1
  0
DICTIONARY
  5
1A
102
{ACAD_REACTORS
330
C
102
}
330
C
100
AcDbDictionary
281
     1
  3
Layout1
350
1E
  3
Layout2
350
26
  3
Model
350
22
  0
DICTIONARY
  5
3B
102
{ACAD_REACTORS
330
C
102
}
330
C
100
AcDbDictionary
281
     1
  3
ByBlock
350
3D
  3
ByLayer
350
3C
  3
Global
350
3E
  0
DICTIONARY
  5
70
102
{ACAD_REACTORS
330
C
102
}
330
C
100
AcDbDictionary
281
     1
  0
DICTIONARY
  5
17
102
{ACAD_REACTORS
330
C
102
}
330
C
100
AcDbDictionary
281
     1
  3
Standard
350
18
  0
DICTIONARY
  5
19
102
{ACAD_REACTORS
330
C
102
}
330
C
100
AcDbDictionary
281
     1
  0
ACDBDICTIONARYWDFLT
  5
E
102
{ACAD_REACTORS
330
C
102
}
330
C
100
AcDbDictionary
281
     1
  3
Normal
350
F
100
AcDbDictionaryWithDefault
340
F
  0
DICTIONARY
  5
6F
102
{ACAD_REACTORS
330
C
102
}
330
C
100
AcDbDictionary
281
     1
  0
DICTIONARY
  5
2A
102
{ACAD_REACTORS
330
C
102
}
330
C
100
AcDbDictionary
281
     1
  3
2dWireframe
350
2F
  3
3D Hidden
350
31
  3
3dWireframe
350
30
  3
Basic
350
32
  3
Brighten
350
36
  3
ColorChange
350
3A
  3
Conceptual
350
34
  3
Dim
350
35
  3
Facepattern
350
39
  3
Flat
350
2B
  3
FlatWithEdges
350
2C
  3
Gouraud
350
2D
  3
GouraudWithEdges
350
2E
  3
Linepattern
350
38
  3
Realistic
350
33
  3
Thicken
350
37
  0
LAYOUT
  5
1E
102
{ACAD_REACTORS
330
1A
102
}
330
1A
100
AcDbPlotSettings
  1

  2
none_device
  4

  6

 40
0.0
 41
0.0
 42
0.0
 43
0.0
 44
0.0
 45
0.0
 46
0.0
 47
0.0
 48
0.0
 49
0.0
140
0.0
141
0.0
142
1.0
143
1.0
 70
   688
 72
     0
 73
     0
 74
     5
  7

 75
    16
 76
     0
 77
     2
 78
   300
147
1.0
148
0.0
149
0.0
100
AcDbLayout
  1
Layout1
 70
     1
 71
     1
 10
0.0
 20
0.0
 11
12.0
 21
9.0
 12
0.0
 22
0.0
 32
0.0
 14
1.000000000000000E+20
 24
1.000000000000000E+20
 34
1.000000000000000E+20
 15
-1.000000000000000E+20
 25
-1.000000000000000E+20
 35
-1.000000000000000E+20
146
0.0
 13
0.0
 23
0.0
 33
0.0
 16
1.0
 26
0.0
 36
0.0
 17
0.0
 27
1.0
 37
0.0
 76
     0
330
1B
  0
LAYOUT
  5
26
102
{ACAD_REACTORS
330
1A
102
}
330
1A
100
AcDbPlotSettings
  1

  2
none_device
  4

  6

 40
0.0
 41
0.0
 42
0.0
 43
0.0
 44
0.0
 45
0.0
 46
0.0
 47
0.0
 48
0.0
 49
0.0
140
0.0
141
0.0
142
1.0
143
1.0
 70
   688
 72
     0
 73
     0
 74
     5
  7

 75
    16
 76
     0
 77
     2
 78
   300
147
1.0
148
0.0
149
0.0
100
AcDbLayout
  1
Layout2
 70
     1
 71
     2
 10
0.0
 20
0.0
 11
0.0
 21
0.0
 12
0.0
 22
0.0
 32
0.0
 14
0.0
 24
0.0
 34
0.0
 15
0.0
 25
0.0
 35
0.0
146
0.0
 13
0.0
 23
0.0
 33
0.0
 16
1.0
 26
0.0
 36
0.0
 17
0.0
 27
1.0
 37
0.0
 76
     0
330
23
  0
LAYOUT
  5
22
102
{ACAD_REACTORS
330
1A
102
}
330
1A
100
AcDbPlotSettings
  1

  2
none_device
  4

  6

 40
0.0
 41
0.0
 42
0.0
 43
0.0
 44
0.0
 45
0.0
 46
0.0
 47
0.0
 48
0.0
 49
0.0
140
0.0
141
0.0
142
1.0
143
1.0
 70
  1712
 72
     0
 73
     0
 74
     0
  7

 75
     0
 76
     0
 77
     2
 78
   300
147
1.0
148
0.0
149
0.0
100
AcDbLayout
  1
Model
 70
     1
 71
     0
 10
0.0
 20
0.0
 11
12.0
 21
9.0
 12
0.0
 22
0.0
 32
0.0
 14
1.000000000000000E+20
 24
1.000000000000000E+20
 34
1.000000000000000E+20
 15
-1.000000000000000E+20
 25
-1.000000000000000E+20
 35
-1.000000000000000E+20
146
0.0
 13
0.0
 23
0.0
 33
0.0
 16
1.0
 26
0.0
 36
0.0
 17
0.0
 27
1.0
 37
0.0
 76
     0
330
1F
331
29
  0
MATERIAL
  5
3D
102
{ACAD_REACTORS
330
3B
102
}
330
3B
100
AcDbMaterial
  1
ByBlock
 72
     1
 94
      127
  0
MATERIAL
  5
3C
102
{ACAD_REACTORS
330
3B
102
}
330
3B
100
AcDbMaterial
  1
ByLayer
 72
     1
 94
      127
  0
MATERIAL
  5
3E
102
{ACAD_REACTORS
330
3B
102
}
330
3B
100
AcDbMaterial
  1
Global
 72
     1
 94
      127
  0
MLINESTYLE
  5
18
102
{ACAD_REACTORS
330
17
102
}
330
17
100
AcDbMlineStyle
  2
Standard
 70
     0
  3

 62
   256
 51
90.0
 52
90.0
 71
     2
 49
0.5
 62
   256
  6
BYLAYER
 49
-0.5
 62
   256
  6
BYLAYER
  0
ACDBPLACEHOLDER
  5
F
102
{ACAD_REACTORS
330
E
102
}
330
E
  0
VISUALSTYLE
  5
2F
102
{ACAD_REACTORS
330
2A
102
}
102
{ACAD_XDICTIONARY
360
57
102
}
330
2A
100
AcDbVisualStyle
  2
2dWireframe
 70
     4
 71
     0
 72
     2
 73
     0
 90
        0
 40
-0.6
 41
-30.0
 62
     5
 63
     7
421
 16777215
 74
     1
 91
        4
 64
     7
 65
   257
 75
     1
175
     1
 42
1.0
 92
        0
 66
   257
 43
1.0
 76
     1
 77
     6
 78
     2
 67
     7
 79
     5
170
     0
171
     0
290
     0
174
     0
 93
        1
 44
0.0
173
     0
291
     0
 45
0.0
  0
VISUALSTYLE
  5
31
102
{ACAD_REACTORS
330
2A
102
}
102
{ACAD_XDICTIONARY
360
5B
102
}
330
2A
100
AcDbVisualStyle
  2
3D Hidden
 70
     6
 71
     1
 72
     2
 73
     2
 90
        0
 40
-0.6
 41
-30.0
 62
     5
 63
     7
421
 16777215
 74
     2
 91
        2
 64
     7
 65
   257
 75
     2
175
     1
 42
40.0
 92
        0
 66
   257
 43
1.0
 76
     1
 77
     6
 78
     2
 67
     7
 79
     3
170
     0
171
     0
290
     0
174
     0
 93
        1
 44
0.0
173
     0
291
     0
 45
0.0
  0
VISUALSTYLE
  5
30
102
{ACAD_REACTORS
330
2A
102
}
102
{ACAD_XDICTIONARY
360
59
102
}
330
2A
100
AcDbVisualStyle
  2
3dWireframe
 70
     5
 71
     0
 72
     2
 73
     0
 90
        0
 40
-0.6
 41
-30.0
 62
     5
 63
     7
421
 16777215
 74
     1
 91
        4
 64
     7
 65
   257
 75
     1
175
     1
 42
1.0
 92
        0
 66
   257
 43
1.0
 76
     1
 77
     6
 78
     2
 67
     7
 79
     5
170
     0
171
     0
290
     0
174
     0
 93
        1
 44
0.0
173
     0
291
     0
 45
0.0
  0
VISUALSTYLE
  5
32
102
{ACAD_REACTORS
330
2A
102
}
102
{ACAD_XDICTIONARY
360
5D
102
}
330
2A
100
AcDbVisualStyle
  2
Basic
 70
     7
 71
     1
 72
     0
 73
     1
 90
        0
 40
-0.6
 41
-30.0
 62
     5
 63
     7
421
 16777215
 74
     0
 91
        4
 64
     7
 65
   257
 75
     1
175
     1
 42
1.0
 92
        8
 66
     7
 43
1.0
 76
     1
 77
     6
 78
     2
 67
     7
 79
     5
170
     0
171
     0
290
     0
174
     0
 93
        1
 44
0.0
173
     0
291
     1
 45
0.0
  0
VISUALSTYLE
  5
36
102
{ACAD_REACTORS
330
2A
102
}
102
{ACAD_XDICTIONARY
360
65
102
}
330
2A
100
AcDbVisualStyle
  2
Brighten
 70
    12
 71
     2
 72
     2
 73
     0
 90
        0
 40
-0.6
 41
-30.0
 62
     5
 63
     7
421
 16777215
 74
     1
 91
        4
 64
     7
 65
   257
 75
     1
175
     1
 42
1.0
 92
        8
 66
     7
 43
1.0
 76
     1
 77
     6
 78
     2
 67
     7
 79
     5
170
     0
171
     0
290
     0
174
     0
 93
        1
 44
50.0
173
     0
291
     1
 45
0.0
  0
VISUALSTYLE
  5
3A
102
{ACAD_REACTORS
330
2A
102
}
102
{ACAD_XDICTIONARY
360
6D
102
}
330
2A
100
AcDbVisualStyle
  2
ColorChange
 70
    16
 71
     2
 72
     2
 73
     3
 90
        0
 40
-0.6
 41
-30.0
 62
     5
 63
     8
421
  8421504
 74
     1
 91
        4
 64
     7
 65
   257
 75
     1
175
     1
 42
1.0
 92
        8
 66
     8
424
  8421504
 43
1.0
 76
     1
 77
     6
 78
     2
 67
     7
 79
     5
170
     0
171
     0
290
     0
174
     0
 93
        1
 44
0.0
173
     0
291
     1
 45
0.0
  0
VISUALSTYLE
  5
34
102
{ACAD_REACTORS
330
2A
102
}
102
{ACAD_XDICTIONARY
360
61
102
}
330
2A
100
AcDbVisualStyle
  2
Conceptual
 70
     9
 71
     3
 72
     2
 73
     0
 90
        0
 40
-0.6
 41
-30.0
 62
     5
 63
     7
421
 16777215
 74
     2
 91
        2
 64
     7
 65
   257
 75
     1
175
     1
 42
40.0
 92
        8
 66
     7
 43
1.0
 76
     1
 77
     6
 78
     2
 67
     7
 79
     3
170
     0
171
     0
290
     0
174
     0
 93
        1
 44
0.0
173
     0
291
     0
 45
0.0
  0
VISUALSTYLE
  5
35
102
{ACAD_REACTORS
330
2A
102
}
102
{ACAD_XDICTIONARY
360
63
102
}
330
2A
100
AcDbVisualStyle
  2
Dim
 70
    11
 71
     2
 72
     2
 73
     0
 90
        0
 40
-0.6
 41
-30.0
 62
     5
 63
     7
421
 16777215
 74
     1
 91
        4
 64
     7
 65
   257
 75
     1
175
     1
 42
1.0
 92
        8
 66
     7
 43
1.0
 76
     1
 77
     6
 78
     2
 67
     7
 79
     5
170
     0
171
     0
290
     0
174
     0
 93
        1
 44
-50.0
173
     0
291
     1
 45
0.0
  0
VISUALSTYLE
  5
39
102
{ACAD_REACTORS
330
2A
102
}
102
{ACAD_XDICTIONARY
360
6B
102
}
330
2A
100
AcDbVisualStyle
  2
Facepattern
 70
    15
 71
     2
 72
     2
 73
     0
 90
        0
 40
-0.6
 41
-30.0
 62
     5
 63
     7
421
 16777215
 74
     1
 91
        4
 64
     7
 65
   257
 75
     1
175
     1
 42
1.0
 92
        8
 66
     7
 43
1.0
 76
     1
 77
     6
 78
     2
 67
     7
 79
     5
170
     0
171
     0
290
     0
174
     0
 93
        1
 44
0.0
173
     0
291
     1
 45
0.0
  0
VISUALSTYLE
  5
2B
102
{ACAD_REACTORS
330
2A
102
}
102
{ACAD_XDICTIONARY
360
4F
102
}
330
2A
100
AcDbVisualStyle
  2
Flat
 70
     0
 71
     2
 72
     1
 73
     1
 90
        2
 40
-0.6
 41
30.0
 62
     5
 63
     7
421
 16777215
 74
     0
 91
        4
 64
     7
 65
   257
 75
     1
175
     1
 42
1.0
 92
        8
 66
     7
 43
1.0
 76
     1
 77
     6
 78
     2
 67
     7
 79
     5
170
     0
171
     0
290
     0
174
     0
 93
       13
 44
0.0
173
     0
291
     1
 45
0.0
  0
VISUALSTYLE
  5
2C
102
{ACAD_REACTORS
330
2A
102
}
102
{ACAD_XDICTIONARY
360
51
102
}
330
2A
100
AcDbVisualStyle
  2
FlatWithEdges
 70
     1
 71
     2
 72
     1
 73
     1
 90
        2
 40
-0.6
 41
30.0
 62
     5
 63
     7
421
 16777215
 74
     1
 91
        4
 64
     7
 65
   257
 75
     1
175
     1
 42
1.0
 92
        0
 66
   257
 43
1.0
 76
     1
 77
     6
 78
     2
 67
     7
 79
     5
170
     0
171
     0
290
     0
174
     0
 93
       13
 44
0.0
173
     0
291
     1
 45
0.0
  0
VISUALSTYLE
  5
2D
102
{ACAD_REACTORS
330
2A
102
}
102
{ACAD_XDICTIONARY
360
53
102
}
330
2A
100
AcDbVisualStyle
  2
Gouraud
 70
     2
 71
     2
 72
     2
 73
     1
 90
        2
 40
-0.6
 41
30.0
 62
     5
 63
     7
421
 16777215
 74
     0
 91
        4
 64
     7
 65
   257
 75
     1
175
     1
 42
1.0
 92
        0
 66
     7
 43
1.0
 76
     1
 77
     6
 78
     2
 67
     7
 79
     5
170
     0
171
     0
290
     0
174
     0
 93
       13
 44
0.0
173
     0
291
     1
 45
0.0
  0
VISUALSTYLE
  5
2E
102
{ACAD_REACTORS
330
2A
102
}
102
{ACAD_XDICTIONARY
360
55
102
}
330
2A
100
AcDbVisualStyle
  2
GouraudWithEdges
 70
     3
 71
     2
 72
     2
 73
     1
 90
        2
 40
-0.6
 41
30.0
 62
     5
 63
     7
421
 16777215
 74
     1
 91
        4
 64
     7
 65
   257
 75
     1
175
     1
 42
1.0
 92
        0
 66
   257
 43
1.0
 76
     1
 77
     6
 78
     2
 67
     7
 79
     5
170
     0
171
     0
290
     0
174
     0
 93
       13
 44
0.0
173
     0
291
     1
 45
0.0
  0
VISUALSTYLE
  5
38
102
{ACAD_REACTORS
330
2A
102
}
102
{ACAD_XDICTIONARY
360
69
102
}
330
2A
100
AcDbVisualStyle
  2
Linepattern
 70
    14
 71
     2
 72
     2
 73
     0
 90
        0
 40
-0.6
 41
-30.0
 62
     5
 63
     7
421
 16777215
 74
     1
 91
        4
 64
     7
 65
   257
 75
     7
175
     7
 42
1.0
 92
        8
 66
     7
 43
1.0
 76
     1
 77
     6
 78
     2
 67
     7
 79
     5
170
     0
171
     0
290
     0
174
     0
 93
        1
 44
0.0
173
     0
291
     1
 45
0.0
  0
VISUALSTYLE
  5
33
102
{ACAD_REACTORS
330
2A
102
}
102
{ACAD_XDICTIONARY
360
5F
102
}
330
2A
100
AcDbVisualStyle
  2
Realistic
 70
     8
 71
     2
 72
     2
 73
     0
 90
        0
 40
-0.6
 41
-30.0
 62
     5
 63
     7
421
 16777215
 74
     1
 91
        0
 64
     7
 65
   257
 75
     1
175
     1
 42
1.0
 92
        8
 66
     8
424
  7895160
 43
1.0
 76
     1
 77
     6
 78
     2
 67
     7
 79
     5
170
     0
171
     0
290
     0
174
     0
 93
       13
 44
0.0
173
     0
291
     0
 45
0.0
  0
VISUALSTYLE
  5
37
102
{ACAD_REACTORS
330
2A
102
}
102
{ACAD_XDICTIONARY
360
67
102
}
330
2A
100
AcDbVisualStyle
  2
Thicken
 70
    13
 71
     2
 72
     2
 73
     0
 90
        0
 40
-0.6
 41
-30.0
 62
     5
 63
     7
421
 16777215
 74
     1
 91
        4
 64
     7
 65
   257
 75
     1
175
     1
 42
1.0
 92
       12
 66
     7
 43
1.0
 76
     1
 77
     6
 78
     2
 67
     7
 79
     5
170
     0
171
     0
290
     0
174
     0
 93
        1
 44
0.0
173
     0
291
     1
 45
0.0
  0
DICTIONARY
  5
57
330
2F
100
AcDbDictionary
280
     1
281
     1
  3
ACAD_XREC_ROUNDTRIP
360
58
  0
DICTIONARY
  5
5B
330
31
100
AcDbDictionary
280
     1
281
     1
  3
ACAD_XREC_ROUNDTRIP
360
5C
  0
DICTIONARY
  5
59
330
30
100
AcDbDictionary
280
     1
281
     1
  3
ACAD_XREC_ROUNDTRIP
360
5A
  0
DICTIONARY
  5
5D
330
32
100
AcDbDictionary
280
     1
281
     1
  3
ACAD_XREC_ROUNDTRIP
360
5E
  0
DICTIONARY
  5
65
330
36
100
AcDbDictionary
280
     1
281
     1
  3
ACAD_XREC_ROUNDTRIP
360
66
  0
DICTIONARY
  5
6D
330
3A
100
AcDbDictionary
280
     1
281
     1
  3
ACAD_XREC_ROUNDTRIP
360
6E
  0
DICTIONARY
  5
61
330
34
100
AcDbDictionary
280
     1
281
     1
  3
ACAD_XREC_ROUNDTRIP
360
62
  0
DICTIONARY
  5
63
330
35
100
AcDbDictionary
280
     1
281
     1
  3
ACAD_XREC_ROUNDTRIP
360
64
  0
DICTIONARY
  5
6B
330
39
100
AcDbDictionary
280
     1
281
     1
  3
ACAD_XREC_ROUNDTRIP
360
6C
  0
DICTIONARY
  5
4F
330
2B
100
AcDbDictionary
280
     1
281
     1
  3
ACAD_XREC_ROUNDTRIP
360
50
  0
DICTIONARY
  5
51
330
2C
100
AcDbDictionary
280
     1
281
     1
  3
ACAD_XREC_ROUNDTRIP
360
52
  0
DICTIONARY
  5
53
330
2D
100
AcDbDictionary
280
     1
281
     1
  3
ACAD_XREC_ROUNDTRIP
360
54
  0
DICTIONARY
  5
55
330
2E
100
AcDbDictionary
280
     1
281
     1
  3
ACAD_XREC_ROUNDTRIP
360
56
  0
DICTIONARY
  5
69
330
38
100
AcDbDictionary
280
     1
281
     1
  3
ACAD_XREC_ROUNDTRIP
360
6A
  0
DICTIONARY
  5
5F
330
33
100
AcDbDictionary
280
     1
281
     1
  3
ACAD_XREC_ROUNDTRIP
360
60
  0
DICTIONARY
  5
67
330
37
100
AcDbDictionary
280
     1
281
     1
  3
ACAD_XREC_ROUNDTRIP
360
68
  0
XRECORD
  5
58
102
{ACAD_REACTORS
330
57
102
}
330
57
100
AcDbXrecord
280
     1
102
RTVSPropertyOp0
 70
     1
102
RTVSPropertyOp1
 70
     1
102
RTVSPropertyOp2
 70
     1
102
RTVSPropertyOp3
 70
     1
102
RTVSPropertyOp4
 70
     1
102
RTVSPropertyOp5
 70
     1
102
RTVSPropertyOp6
 70
     1
102
RTVSPropertyOp7
 70
     1
102
RTVSPropertyOp8
 70
     1
102
RTVSPropertyOp9
 70
     1
102
RTVSPropertyOp10
 70
     1
102
RTVSPropertyOp11
 70
     1
102
RTVSPropertyOp12
 70
     1
102
RTVSPropertyOp13
 70
     1
102
RTVSPropertyOp14
 70
     1
102
RTVSPropertyOp15
 70
     1
102
RTVSPropertyOp16
 70
     1
102
RTVSPropertyOp17
 70
     1
102
RTVSPropertyOp18
 70
     1
102
RTVSPropertyOp19
 70
     1
102
RTVSPropertyOp20
 70
     1
102
RTVSPropertyOp21
 70
     1
102
RTVSPropertyOp22
 70
     1
102
RTVSPropertyOp23
 70
     1
102
RTVSPropertyOp24
 70
     1
102
RTVSPropertyOp25
 70
     1
102
RTVSPropertyOp26
 70
     1
102
RTVSPropertyOp27
 70
     1
102
RTVSPropertyOp28
 70
     1
102
RTVSPropertyOp29
 70
     1
102
RTVSPropertyOp30
 70
     1
102
RTVSPropertyOp31
 70
     1
102
RTVSPropertyOp32
 70
     1
  0
XRECORD
  5
5C
102
{ACAD_REACTORS
330
5B
102
}
330
5B
100
AcDbXrecord
280
     1
102
RTVSPropertyOp0
 70
     1
102
RTVSPropertyOp1
 70
     1
102
RTVSPropertyOp2
 70
     1
102
RTVSPropertyOp3
 70
     1
102
RTVSPropertyOp4
 70
     1
102
RTVSPropertyOp5
 70
     1
102
RTVSPropertyOp6
 70
     1
102
RTVSPropertyOp7
 70
     1
102
RTVSPropertyOp8
 70
     1
102
RTVSPropertyOp9
 70
     1
102
RTVSPropertyOp10
 70
     1
102
RTVSPropertyOp11
 70
     1
102
RTVSPropertyOp12
 70
     1
102
RTVSPropertyOp13
 70
     1
102
RTVSPropertyOp14
 70
     1
102
RTVSPropertyOp15
 70
     1
102
RTVSPropertyOp16
 70
     1
102
RTVSPropertyOp17
 70
     1
102
RTVSPropertyOp18
 70
     1
102
RTVSPropertyOp19
 70
     1
102
RTVSPropertyOp20
 70
     1
102
RTVSPropertyOp21
 70
     1
102
RTVSPropertyOp22
 70
     1
102
RTVSPropertyOp23
 70
     1
102
RTVSPropertyOp24
 70
     1
102
RTVSPropertyOp25
 70
     1
102
RTVSPropertyOp26
 70
     1
102
RTVSPropertyOp27
 70
     1
102
RTVSPropertyOp28
 70
     1
102
RTVSPropertyOp29
 70
     1
102
RTVSPropertyOp30
 70
     1
102
RTVSPropertyOp31
 70
     1
102
RTVSPropertyOp32
 70
     1
  0
XRECORD
  5
5A
102
{ACAD_REACTORS
330
59
102
}
330
59
100
AcDbXrecord
280
     1
102
RTVSPropertyOp0
 70
     1
102
RTVSPropertyOp1
 70
     1
102
RTVSPropertyOp2
 70
     1
102
RTVSPropertyOp3
 70
     1
102
RTVSPropertyOp4
 70
     1
102
RTVSPropertyOp5
 70
     1
102
RTVSPropertyOp6
 70
     1
102
RTVSPropertyOp7
 70
     1
102
RTVSPropertyOp8
 70
     1
102
RTVSPropertyOp9
 70
     1
102
RTVSPropertyOp10
 70
     1
102
RTVSPropertyOp11
 70
     1
102
RTVSPropertyOp12
 70
     1
102
RTVSPropertyOp13
 70
     1
102
RTVSPropertyOp14
 70
     1
102
RTVSPropertyOp15
 70
     1
102
RTVSPropertyOp16
 70
     1
102
RTVSPropertyOp17
 70
     1
102
RTVSPropertyOp18
 70
     1
102
RTVSPropertyOp19
 70
     1
102
RTVSPropertyOp20
 70
     1
102
RTVSPropertyOp21
 70
     1
102
RTVSPropertyOp22
 70
     1
102
RTVSPropertyOp23
 70
     1
102
RTVSPropertyOp24
 70
     1
102
RTVSPropertyOp25
 70
     1
102
RTVSPropertyOp26
 70
     1
102
RTVSPropertyOp27
 70
     1
102
RTVSPropertyOp28
 70
     1
102
RTVSPropertyOp29
 70
     1
102
RTVSPropertyOp30
 70
     1
102
RTVSPropertyOp31
 70
     1
102
RTVSPropertyOp32
 70
     1
  0
XRECORD
  5
5E
102
{ACAD_REACTORS
330
5D
102
}
330
5D
100
AcDbXrecord
280
     1
102
RTVSPropertyOp0
 70
     1
102
RTVSPropertyOp1
 70
     1
102
RTVSPropertyOp2
 70
     1
102
RTVSPropertyOp3
 70
     1
102
RTVSPropertyOp4
 70
     1
102
RTVSPropertyOp5
 70
     1
102
RTVSPropertyOp6
 70
     1
102
RTVSPropertyOp7
 70
     1
102
RTVSPropertyOp8
 70
     1
102
RTVSPropertyOp9
 70
     1
102
RTVSPropertyOp10
 70
     1
102
RTVSPropertyOp11
 70
     1
102
RTVSPropertyOp12
 70
     1
102
RTVSPropertyOp13
 70
     1
102
RTVSPropertyOp14
 70
     1
102
RTVSPropertyOp15
 70
     1
102
RTVSPropertyOp16
 70
     1
102
RTVSPropertyOp17
 70
     1
102
RTVSPropertyOp18
 70
     1
102
RTVSPropertyOp19
 70
     1
102
RTVSPropertyOp20
 70
     1
102
RTVSPropertyOp21
 70
     1
102
RTVSPropertyOp22
 70
     1
102
RTVSPropertyOp23
 70
     1
102
RTVSPropertyOp24
 70
     1
102
RTVSPropertyOp25
 70
     1
102
RTVSPropertyOp26
 70
     1
102
RTVSPropertyOp27
 70
     1
102
RTVSPropertyOp28
 70
     1
102
RTVSPropertyOp29
 70
     1
102
RTVSPropertyOp30
 70
     1
102
RTVSPropertyOp31
 70
     1
102
RTVSPropertyOp32
 70
     1
  0
XRECORD
  5
66
102
{ACAD_REACTORS
330
65
102
}
330
65
100
AcDbXrecord
280
     1
102
RTVSPropertyOp0
 70
     1
102
RTVSPropertyOp1
 70
     1
102
RTVSPropertyOp2
 70
     1
102
RTVSPropertyOp3
 70
     1
102
RTVSPropertyOp4
 70
     1
102
RTVSPropertyOp5
 70
     1
102
RTVSPropertyOp6
 70
     1
102
RTVSPropertyOp7
 70
     1
102
RTVSPropertyOp8
 70
     1
102
RTVSPropertyOp9
 70
     1
102
RTVSPropertyOp10
 70
     1
102
RTVSPropertyOp11
 70
     1
102
RTVSPropertyOp12
 70
     1
102
RTVSPropertyOp13
 70
     1
102
RTVSPropertyOp14
 70
     1
102
RTVSPropertyOp15
 70
     1
102
RTVSPropertyOp16
 70
     1
102
RTVSPropertyOp17
 70
     1
102
RTVSPropertyOp18
 70
     1
102
RTVSPropertyOp19
 70
     1
102
RTVSPropertyOp20
 70
     1
102
RTVSPropertyOp21
 70
     1
102
RTVSPropertyOp22
 70
     1
102
RTVSPropertyOp23
 70
     1
102
RTVSPropertyOp24
 70
     1
102
RTVSPropertyOp25
 70
     1
102
RTVSPropertyOp26
 70
     1
102
RTVSPropertyOp27
 70
     1
102
RTVSPropertyOp28
 70
     1
102
RTVSPropertyOp29
 70
     1
102
RTVSPropertyOp30
 70
     1
102
RTVSPropertyOp31
 70
     1
102
RTVSPropertyOp32
 70
     1
  0
XRECORD
  5
6E
102
{ACAD_REACTORS
330
6D
102
}
330
6D
100
AcDbXrecord
280
     1
102
RTVSPropertyOp0
 70
     1
102
RTVSPropertyOp1
 70
     1
102
RTVSPropertyOp2
 70
     1
102
RTVSPropertyOp3
 70
     1
102
RTVSPropertyOp4
 70
     1
102
RTVSPropertyOp5
 70
     1
102
RTVSPropertyOp6
 70
     1
102
RTVSPropertyOp7
 70
     1
102
RTVSPropertyOp8
 70
     1
102
RTVSPropertyOp9
 70
     1
102
RTVSPropertyOp10
 70
     1
102
RTVSPropertyOp11
 70
     1
102
RTVSPropertyOp12
 70
     1
102
RTVSPropertyOp13
 70
     1
102
RTVSPropertyOp14
 70
     1
102
RTVSPropertyOp15
 70
     1
102
RTVSPropertyOp16
 70
     1
102
RTVSPropertyOp17
 70
     1
102
RTVSPropertyOp18
 70
     1
102
RTVSPropertyOp19
 70
     1
102
RTVSPropertyOp20
 70
     1
102
RTVSPropertyOp21
 70
     1
102
RTVSPropertyOp22
 70
     1
102
RTVSPropertyOp23
 70
     1
102
RTVSPropertyOp24
 70
     1
102
RTVSPropertyOp25
 70
     1
102
RTVSPropertyOp26
 70
     1
102
RTVSPropertyOp27
 70
     1
102
RTVSPropertyOp28
 70
     1
102
RTVSPropertyOp29
 70
     1
102
RTVSPropertyOp30
 70
     1
102
RTVSPropertyOp31
 70
     1
102
RTVSPropertyOp32
 70
     1
  0
XRECORD
  5
62
102
{ACAD_REACTORS
330
61
102
}
330
61
100
AcDbXrecord
280
     1
102
RTVSPropertyOp0
 70
     1
102
RTVSPropertyOp1
 70
     1
102
RTVSPropertyOp2
 70
     1
102
RTVSPropertyOp3
 70
     1
102
RTVSPropertyOp4
 70
     1
102
RTVSPropertyOp5
 70
     1
102
RTVSPropertyOp6
 70
     1
102
RTVSPropertyOp7
 70
     1
102
RTVSPropertyOp8
 70
     1
102
RTVSPropertyOp9
 70
     1
102
RTVSPropertyOp10
 70
     1
102
RTVSPropertyOp11
 70
     1
102
RTVSPropertyOp12
 70
     1
102
RTVSPropertyOp13
 70
     1
102
RTVSPropertyOp14
 70
     1
102
RTVSPropertyOp15
 70
     1
102
RTVSPropertyOp16
 70
     1
102
RTVSPropertyOp17
 70
     1
102
RTVSPropertyOp18
 70
     1
102
RTVSPropertyOp19
 70
     1
102
RTVSPropertyOp20
 70
     1
102
RTVSPropertyOp21
 70
     1
102
RTVSPropertyOp22
 70
     1
102
RTVSPropertyOp23
 70
     1
102
RTVSPropertyOp24
 70
     1
102
RTVSPropertyOp25
 70
     1
102
RTVSPropertyOp26
 70
     1
102
RTVSPropertyOp27
 70
     1
102
RTVSPropertyOp28
 70
     1
102
RTVSPropertyOp29
 70
     1
102
RTVSPropertyOp30
 70
     1
102
RTVSPropertyOp31
 70
     1
102
RTVSPropertyOp32
 70
     1
  0
XRECORD
  5
64
102
{ACAD_REACTORS
330
63
102
}
330
63
100
AcDbXrecord
280
     1
102
RTVSPropertyOp0
 70
     1
102
RTVSPropertyOp1
 70
     1
102
RTVSPropertyOp2
 70
     1
102
RTVSPropertyOp3
 70
     1
102
RTVSPropertyOp4
 70
     1
102
RTVSPropertyOp5
 70
     1
102
RTVSPropertyOp6
 70
     1
102
RTVSPropertyOp7
 70
     1
102
RTVSPropertyOp8
 70
     1
102
RTVSPropertyOp9
 70
     1
102
RTVSPropertyOp10
 70
     1
102
RTVSPropertyOp11
 70
     1
102
RTVSPropertyOp12
 70
     1
102
RTVSPropertyOp13
 70
     1
102
RTVSPropertyOp14
 70
     1
102
RTVSPropertyOp15
 70
     1
102
RTVSPropertyOp16
 70
     1
102
RTVSPropertyOp17
 70
     1
102
RTVSPropertyOp18
 70
     1
102
RTVSPropertyOp19
 70
     1
102
RTVSPropertyOp20
 70
     1
102
RTVSPropertyOp21
 70
     1
102
RTVSPropertyOp22
 70
     1
102
RTVSPropertyOp23
 70
     1
102
RTVSPropertyOp24
 70
     1
102
RTVSPropertyOp25
 70
     1
102
RTVSPropertyOp26
 70
     1
102
RTVSPropertyOp27
 70
     1
102
RTVSPropertyOp28
 70
     1
102
RTVSPropertyOp29
 70
     1
102
RTVSPropertyOp30
 70
     1
102
RTVSPropertyOp31
 70
     1
102
RTVSPropertyOp32
 70
     1
  0
XRECORD
  5
6C
102
{ACAD_REACTORS
330
6B
102
}
330
6B
100
AcDbXrecord
280
     1
102
RTVSPropertyOp0
 70
     1
102
RTVSPropertyOp1
 70
     1
102
RTVSPropertyOp2
 70
     1
102
RTVSPropertyOp3
 70
     1
102
RTVSPropertyOp4
 70
     1
102
RTVSPropertyOp5
 70
     1
102
RTVSPropertyOp6
 70
     1
102
RTVSPropertyOp7
 70
     1
102
RTVSPropertyOp8
 70
     1
102
RTVSPropertyOp9
 70
     1
102
RTVSPropertyOp10
 70
     1
102
RTVSPropertyOp11
 70
     1
102
RTVSPropertyOp12
 70
     1
102
RTVSPropertyOp13
 70
     1
102
RTVSPropertyOp14
 70
     1
102
RTVSPropertyOp15
 70
     1
102
RTVSPropertyOp16
 70
     1
102
RTVSPropertyOp17
 70
     1
102
RTVSPropertyOp18
 70
     1
102
RTVSPropertyOp19
 70
     1
102
RTVSPropertyOp20
 70
     1
102
RTVSPropertyOp21
 70
     1
102
RTVSPropertyOp22
 70
     1
102
RTVSPropertyOp23
 70
     1
102
RTVSPropertyOp24
 70
     1
102
RTVSPropertyOp25
 70
     1
102
RTVSPropertyOp26
 70
     1
102
RTVSPropertyOp27
 70
     1
102
RTVSPropertyOp28
 70
     1
102
RTVSPropertyOp29
 70
     1
102
RTVSPropertyOp30
 70
     1
102
RTVSPropertyOp31
 70
     1
102
RTVSPropertyOp32
 70
     1
  0
XRECORD
  5
50
102
{ACAD_REACTORS
330
4F
102
}
330
4F
100
AcDbXrecord
280
     1
102
RTVSPropertyOp0
 70
     1
102
RTVSPropertyOp1
 70
     1
102
RTVSPropertyOp2
 70
     1
102
RTVSPropertyOp3
 70
     1
102
RTVSPropertyOp4
 70
     1
102
RTVSPropertyOp5
 70
     1
102
RTVSPropertyOp6
 70
     1
102
RTVSPropertyOp7
 70
     1
102
RTVSPropertyOp8
 70
     1
102
RTVSPropertyOp9
 70
     1
102
RTVSPropertyOp10
 70
     1
102
RTVSPropertyOp11
 70
     1
102
RTVSPropertyOp12
 70
     1
102
RTVSPropertyOp13
 70
     1
102
RTVSPropertyOp14
 70
     1
102
RTVSPropertyOp15
 70
     1
102
RTVSPropertyOp16
 70
     1
102
RTVSPropertyOp17
 70
     1
102
RTVSPropertyOp18
 70
     1
102
RTVSPropertyOp19
 70
     1
102
RTVSPropertyOp20
 70
     1
102
RTVSPropertyOp21
 70
     1
102
RTVSPropertyOp22
 70
     1
102
RTVSPropertyOp23
 70
     1
102
RTVSPropertyOp24
 70
     1
102
RTVSPropertyOp25
 70
     1
102
RTVSPropertyOp26
 70
     1
102
RTVSPropertyOp27
 70
     1
102
RTVSPropertyOp28
 70
     1
102
RTVSPropertyOp29
 70
     1
102
RTVSPropertyOp30
 70
     1
102
RTVSPropertyOp31
 70
     1
102
RTVSPropertyOp32
 70
     1
  0
XRECORD
  5
52
102
{ACAD_REACTORS
330
51
102
}
330
51
100
AcDbXrecord
280
     1
102
RTVSPropertyOp0
 70
     1
102
RTVSPropertyOp1
 70
     1
102
RTVSPropertyOp2
 70
     1
102
RTVSPropertyOp3
 70
     1
102
RTVSPropertyOp4
 70
     1
102
RTVSPropertyOp5
 70
     1
102
RTVSPropertyOp6
 70
     1
102
RTVSPropertyOp7
 70
     1
102
RTVSPropertyOp8
 70
     1
102
RTVSPropertyOp9
 70
     1
102
RTVSPropertyOp10
 70
     1
102
RTVSPropertyOp11
 70
     1
102
RTVSPropertyOp12
 70
     1
102
RTVSPropertyOp13
 70
     1
102
RTVSPropertyOp14
 70
     1
102
RTVSPropertyOp15
 70
     1
102
RTVSPropertyOp16
 70
     1
102
RTVSPropertyOp17
 70
     1
102
RTVSPropertyOp18
 70
     1
102
RTVSPropertyOp19
 70
     1
102
RTVSPropertyOp20
 70
     1
102
RTVSPropertyOp21
 70
     1
102
RTVSPropertyOp22
 70
     1
102
RTVSPropertyOp23
 70
     1
102
RTVSPropertyOp24
 70
     1
102
RTVSPropertyOp25
 70
     1
102
RTVSPropertyOp26
 70
     1
102
RTVSPropertyOp27
 70
     1
102
RTVSPropertyOp28
 70
     1
102
RTVSPropertyOp29
 70
     1
102
RTVSPropertyOp30
 70
     1
102
RTVSPropertyOp31
 70
     1
102
RTVSPropertyOp32
 70
     1
  0
XRECORD
  5
54
102
{ACAD_REACTORS
330
53
102
}
330
53
100
AcDbXrecord
280
     1
102
RTVSPropertyOp0
 70
     1
102
RTVSPropertyOp1
 70
     1
102
RTVSPropertyOp2
 70
     1
102
RTVSPropertyOp3
 70
     1
102
RTVSPropertyOp4
 70
     1
102
RTVSPropertyOp5
 70
     1
102
RTVSPropertyOp6
 70
     1
102
RTVSPropertyOp7
 70
     1
102
RTVSPropertyOp8
 70
     1
102
RTVSPropertyOp9
 70
     1
102
RTVSPropertyOp10
 70
     1
102
RTVSPropertyOp11
 70
     1
102
RTVSPropertyOp12
 70
     1
102
RTVSPropertyOp13
 70
     1
102
RTVSPropertyOp14
 70
     1
102
RTVSPropertyOp15
 70
     1
102
RTVSPropertyOp16
 70
     1
102
RTVSPropertyOp17
 70
     1
102
RTVSPropertyOp18
 70
     1
102
RTVSPropertyOp19
 70
     1
102
RTVSPropertyOp20
 70
     1
102
RTVSPropertyOp21
 70
     1
102
RTVSPropertyOp22
 70
     1
102
RTVSPropertyOp23
 70
     1
102
RTVSPropertyOp24
 70
     1
102
RTVSPropertyOp25
 70
     1
102
RTVSPropertyOp26
 70
     1
102
RTVSPropertyOp27
 70
     1
102
RTVSPropertyOp28
 70
     1
102
RTVSPropertyOp29
 70
     1
102
RTVSPropertyOp30
 70
     1
102
RTVSPropertyOp31
 70
     1
102
RTVSPropertyOp32
 70
     1
  0
XRECORD
  5
56
102
{ACAD_REACTORS
330
55
102
}
330
55
100
AcDbXrecord
280
     1
102
RTVSPropertyOp0
 70
     1
102
RTVSPropertyOp1
 70
     1
102
RTVSPropertyOp2
 70
     1
102
RTVSPropertyOp3
 70
     1
102
RTVSPropertyOp4
 70
     1
102
RTVSPropertyOp5
 70
     1
102
RTVSPropertyOp6
 70
     1
102
RTVSPropertyOp7
 70
     1
102
RTVSPropertyOp8
 70
     1
102
RTVSPropertyOp9
 70
     1
102
RTVSPropertyOp10
 70
     1
102
RTVSPropertyOp11
 70
     1
102
RTVSPropertyOp12
 70
     1
102
RTVSPropertyOp13
 70
     1
102
RTVSPropertyOp14
 70
     1
102
RTVSPropertyOp15
 70
     1
102
RTVSPropertyOp16
 70
     1
102
RTVSPropertyOp17
 70
     1
102
RTVSPropertyOp18
 70
     1
102
RTVSPropertyOp19
 70
     1
102
RTVSPropertyOp20
 70
     1
102
RTVSPropertyOp21
 70
     1
102
RTVSPropertyOp22
 70
     1
102
RTVSPropertyOp23
 70
     1
102
RTVSPropertyOp24
 70
     1
102
RTVSPropertyOp25
 70
     1
102
RTVSPropertyOp26
 70
     1
102
RTVSPropertyOp27
 70
     1
102
RTVSPropertyOp28
 70
     1
102
RTVSPropertyOp29
 70
     1
102
RTVSPropertyOp30
 70
     1
102
RTVSPropertyOp31
 70
     1
102
RTVSPropertyOp32
 70
     1
  0
XRECORD
  5
6A
102
{ACAD_REACTORS
330
69
102
}
330
69
100
AcDbXrecord
280
     1
102
RTVSPropertyOp0
 70
     1
102
RTVSPropertyOp1
 70
     1
102
RTVSPropertyOp2
 70
     1
102
RTVSPropertyOp3
 70
     1
102
RTVSPropertyOp4
 70
     1
102
RTVSPropertyOp5
 70
     1
102
RTVSPropertyOp6
 70
     1
102
RTVSPropertyOp7
 70
     1
102
RTVSPropertyOp8
 70
     1
102
RTVSPropertyOp9
 70
     1
102
RTVSPropertyOp10
 70
     1
102
RTVSPropertyOp11
 70
     1
102
RTVSPropertyOp12
 70
     1
102
RTVSPropertyOp13
 70
     1
102
RTVSPropertyOp14
 70
     1
102
RTVSPropertyOp15
 70
     1
102
RTVSPropertyOp16
 70
     1
102
RTVSPropertyOp17
 70
     1
102
RTVSPropertyOp18
 70
     1
102
RTVSPropertyOp19
 70
     1
102
RTVSPropertyOp20
 70
     1
102
RTVSPropertyOp21
 70
     1
102
RTVSPropertyOp22
 70
     1
102
RTVSPropertyOp23
 70
     1
102
RTVSPropertyOp24
 70
     1
102
RTVSPropertyOp25
 70
     1
102
RTVSPropertyOp26
 70
     1
102
RTVSPropertyOp27
 70
     1
102
RTVSPropertyOp28
 70
     1
102
RTVSPropertyOp29
 70
     1
102
RTVSPropertyOp30
 70
     1
102
RTVSPropertyOp31
 70
     1
102
RTVSPropertyOp32
 70
     1
  0
XRECORD
  5
60
102
{ACAD_REACTORS
330
5F
102
}
330
5F
100
AcDbXrecord
280
     1
102
RTVSPropertyOp0
 70
     1
102
RTVSPropertyOp1
 70
     1
102
RTVSPropertyOp2
 70
     1
102
RTVSPropertyOp3
 70
     1
102
RTVSPropertyOp4
 70
     1
102
RTVSPropertyOp5
 70
     1
102
RTVSPropertyOp6
 70
     1
102
RTVSPropertyOp7
 70
     1
102
RTVSPropertyOp8
 70
     1
102
RTVSPropertyOp9
 70
     1
102
RTVSPropertyOp10
 70
     1
102
RTVSPropertyOp11
 70
     1
102
RTVSPropertyOp12
 70
     1
102
RTVSPropertyOp13
 70
     1
102
RTVSPropertyOp14
 70
     1
102
RTVSPropertyOp15
 70
     1
102
RTVSPropertyOp16
 70
     1
102
RTVSPropertyOp17
 70
     1
102
RTVSPropertyOp18
 70
     1
102
RTVSPropertyOp19
 70
     1
102
RTVSPropertyOp20
 70
     1
102
RTVSPropertyOp21
 70
     1
102
RTVSPropertyOp22
 70
     1
102
RTVSPropertyOp23
 70
     1
102
RTVSPropertyOp24
 70
     1
102
RTVSPropertyOp25
 70
     1
102
RTVSPropertyOp26
 70
     1
102
RTVSPropertyOp27
 70
     1
102
RTVSPropertyOp28
 70
     1
102
RTVSPropertyOp29
 70
     1
102
RTVSPropertyOp30
 70
     1
102
RTVSPropertyOp31
 70
     1
102
RTVSPropertyOp32
 70
     1
  0
XRECORD
  5
68
102
{ACAD_REACTORS
330
67
102
}
330
67
100
AcDbXrecord
280
     1
102
RTVSPropertyOp0
 70
     1
102
RTVSPropertyOp1
 70
     1
102
RTVSPropertyOp2
 70
     1
102
RTVSPropertyOp3
 70
     1
102
RTVSPropertyOp4
 70
     1
102
RTVSPropertyOp5
 70
     1
102
RTVSPropertyOp6
 70
     1
102
RTVSPropertyOp7
 70
     1
102
RTVSPropertyOp8
 70
     1
102
RTVSPropertyOp9
 70
     1
102
RTVSPropertyOp10
 70
     1
102
RTVSPropertyOp11
 70
     1
102
RTVSPropertyOp12
 70
     1
102
RTVSPropertyOp13
 70
     1
102
RTVSPropertyOp14
 70
     1
102
RTVSPropertyOp15
 70
     1
102
RTVSPropertyOp16
 70
     1
102
RTVSPropertyOp17
 70
     1
102
RTVSPropertyOp18
 70
     1
102
RTVSPropertyOp19
 70
     1
102
RTVSPropertyOp20
 70
     1
102
RTVSPropertyOp21
 70
     1
102
RTVSPropertyOp22
 70
     1
102
RTVSPropertyOp23
 70
     1
102
RTVSPropertyOp24
 70
     1
102
RTVSPropertyOp25
 70
     1
102
RTVSPropertyOp26
 70
     1
102
RTVSPropertyOp27
 70
     1
102
RTVSPropertyOp28
 70
     1
102
RTVSPropertyOp29
 70
     1
102
RTVSPropertyOp30
 70
     1
102
RTVSPropertyOp31
 70
     1
102
RTVSPropertyOp32
 70
     1
  0
ENDSEC
  0
EOF
