  0
SECTION
  2
HEADER
  9
$ACADVER
  1
AC1018
  9
$ACADMAINTVER
 70
     0
  9
$DWGCODEPAGE
  3
ANSI_1251
  9
$INSBASE
 10
0.0
 20
0.0
 30
0.0
  9
$EXTMIN
 10
1.000000000000000E+20
 20
1.000000000000000E+20
 30
1.000000000000000E+20
  9
$EXTMAX
 10
-1.000000000000000E+20
 20
-1.000000000000000E+20
 30
-1.000000000000000E+20
  9
$LIMMIN
 10
0.0
 20
0.0
  9
$LIMMAX
 10
12.0
 20
9.0
  9
$ORTHOMODE
 70
     0
  9
$REGENMODE
 70
     1
  9
$FILLMODE
 70
     1
  9
$QTEXTMODE
 70
     0
  9
$MIRRTEXT
 70
     1
  9
$LTSCALE
 40
1.0
  9
$ATTMODE
 70
     1
  9
$TEXTSIZE
 40
0.2
  9
$TRACEWID
 40
0.05
  9
$TEXTSTYLE
  7
Standard
  9
$CLAYER
  8
0
  9
$CELTYPE
  6
ByLayer
  9
$CECOLOR
 62
   256
  9
$CELTSCALE
 40
1.0
  9
$DISPSILH
 70
     0
  9
$DIMSCALE
 40
1.0
  9
$DIMASZ
 40
0.18
  9
$DIMEXO
 40
0.0625
  9
$DIMDLI
 40
0.38
  9
$DIMRND
 40
0.0
  9
$DIMDLE
 40
0.0
  9
$DIMEXE
 40
0.18
  9
$DIMTP
 40
0.0
  9
$DIMTM
 40
0.0
  9
$DIMTXT
 40
0.18
  9
$DIMCEN
 40
0.09
  9
$DIMTSZ
 40
0.0
  9
$DIMTOL
 70
     0
  9
$DIMLIM
 70
     0
  9
$DIMTIH
 70
     1
  9
$DIMTOH
 70
     1
  9
$DIMSE1
 70
     0
  9
$DIMSE2
 70
     0
  9
$DIMTAD
 70
     0
  9
$DIMZIN
 70
     0
  9
$DIMBLK
  1

  9
$DIMASO
 70
     1
  9
$DIMSHO
 70
     1
  9
$DIMPOST
  1

  9
$DIMAPOST
  1

  9
$DIMALT
 70
     0
  9
$DIMALTD
 70
     2
  9
$DIMALTF
 40
25.4
  9
$DIMLFAC
 40
1.0
  9
$DIMTOFL
 70
     0
  9
$DIMTVP
 40
0.0
  9
$DIMTIX
 70
     0
  9
$DIMSOXD
 70
     0
  9
$DIMSAH
 70
     0
  9
$DIMBLK1
  1

  9
$DIMBLK2
  1

  9
$DIMSTYLE
  2
Standard
  9
$DIMCLRD
 70
     0
  9
$DIMCLRE
 70
     0
  9
$DIMCLRT
 70
     0
  9
$DIMTFAC
 40
1.0
  9
$DIMGAP
 40
0.09
  9
$DIMJUST
 70
     0
  9
$DIMSD1
 70
     0
  9
$DIMSD2
 70
     0
  9
$DIMTOLJ
 70
     1
  9
$DIMTZIN
 70
     0
  9
$DIMALTZ
 70
     0
  9
$DIMALTTZ
 70
     0
  9
$DIMUPT
 70
     0
  9
$DIMDEC
 70
     4
  9
$DIMTDEC
 70
     4
  9
$DIMALTU
 70
     2
  9
$DIMALTTD
 70
     2
  9
$DIMTXSTY
  7
Standard
  9
$DIMAUNIT
 70
     0
  9
$DIMADEC
 70
     0
  9
$DIMALTRND
 40
0.0
  9
$DIMAZIN
 70
     0
  9
$DIMDSEP
 70
    46
  9
$DIMATFIT
 70
     3
  9
$DIMFRAC
 70
     0
  9
$DIMLDRBLK
  1

  9
$DIMLUNIT
 70
     2
  9
$DIMLWD
 70
    -2
  9
$DIMLWE
 70
    -2
  9
$DIMTMOVE
 70
     0
  9
$LUNITS
 70
     2
  9
$LUPREC
 70
     4
  9
$SKETCHINC
 40
0.1
  9
$FILLETRAD
 40
0.5
  9
$AUNITS
 70
     0
  9
$AUPREC
 70
     0
  9
$MENU
  1
.
  9
$ELEVATION
 40
0.0
  9
$PELEVATION
 40
0.0
  9
$THICKNESS
 40
0.0
  9
$LIMCHECK
 70
     0
  9
$CHAMFERA
 40
0.5
  9
$CHAMFERB
 40
0.5
  9
$CHAMFERC
 40
1.0
  9
$CHAMFERD
 40
0.0
  9
$SKPOLY
 70
     0
  9
$TDCREATE
 40
2457123.715756655
  9
$TDUCREATE
 40
2457123.549089988
  9
$TDUPDATE
 40
2457123.715756667
  9
$TDUUPDATE
 40
2457123.54909
  9
$TDINDWG
 40
0.0000000116
  9
$TDUSRTIMER
 40
0.0000000116
  9
$USRTIMER
 70
     1
  9
$ANGBASE
 50
0.0
  9
$ANGDIR
 70
     0
  9
$PDMODE
 70
     0
  9
$PDSIZE
 40
0.0
  9
$PLINEWID
 40
0.0
  9
$SPLFRAME
 70
     0
  9
$SPLINETYPE
 70
     6
  9
$SPLINESEGS
 70
     8
  9
$HANDSEED
  5
4E
  9
$SURFTAB1
 70
     6
  9
$SURFTAB2
 70
     6
  9
$SURFTYPE
 70
     6
  9
$SURFU
 70
     6
  9
$SURFV
 70
     6
  9
$UCSBASE
  2

  9
$UCSNAME
  2

  9
$UCSORG
 10
0.0
 20
0.0
 30
0.0
  9
$UCSXDIR
 10
1.0
 20
0.0
 30
0.0
  9
$UCSYDIR
 10
0.0
 20
1.0
 30
0.0
  9
$UCSORTHOREF
  2

  9
$UCSORTHOVIEW
 70
     0
  9
$UCSORGTOP
 10
0.0
 20
0.0
 30
0.0
  9
$UCSORGBOTTOM
 10
0.0
 20
0.0
 30
0.0
  9
$UCSORGLEFT
 10
0.0
 20
0.0
 30
0.0
  9
$UCSORGRIGHT
 10
0.0
 20
0.0
 30
0.0
  9
$UCSORGFRONT
 10
0.0
 20
0.0
 30
0.0
  9
$UCSORGBACK
 10
0.0
 20
0.0
 30
0.0
  9
$PUCSBASE
  2

  9
$PUCSNAME
  2

  9
$PUCSORG
 10
0.0
 20
0.0
 30
0.0
  9
$PUCSXDIR
 10
1.0
 20
0.0
 30
0.0
  9
$PUCSYDIR
 10
0.0
 20
1.0
 30
0.0
  9
$PUCSORTHOREF
  2

  9
$PUCSORTHOVIEW
 70
     0
  9
$PUCSORGTOP
 10
0.0
 20
0.0
 30
0.0
  9
$PUCSORGBOTTOM
 10
0.0
 20
0.0
 30
0.0
  9
$PUCSORGLEFT
 10
0.0
 20
0.0
 30
0.0
  9
$PUCSORGRIGHT
 10
0.0
 20
0.0
 30
0.0
  9
$PUCSORGFRONT
 10
0.0
 20
0.0
 30
0.0
  9
$PUCSORGBACK
 10
0.0
 20
0.0
 30
0.0
  9
$USERI1
 70
     0
  9
$USERI2
 70
     0
  9
$USERI3
 70
     0
  9
$USERI4
 70
     0
  9
$USERI5
 70
     0
  9
$USERR1
 40
0.0
  9
$USERR2
 40
0.0
  9
$USERR3
 40
0.0
  9
$USERR4
 40
0.0
  9
$USERR5
 40
0.0
  9
$WORLDVIEW
 70
     1
  9
$SHADEDGE
 70
     3
  9
$SHADEDIF
 70
    70
  9
$TILEMODE
 70
     1
  9
$MAXACTVP
 70
    64
  9
$PINSBASE
 10
0.0
 20
0.0
 30
0.0
  9
$PLIMCHECK
 70
     0
  9
$PEXTMIN
 10
1.000000000000000E+20
 20
1.000000000000000E+20
 30
1.000000000000000E+20
  9
$PEXTMAX
 10
-1.000000000000000E+20
 20
-1.000000000000000E+20
 30
-1.000000000000000E+20
  9
$PLIMMIN
 10
0.0
 20
0.0
  9
$PLIMMAX
 10
12.0
 20
9.0
  9
$UNITMODE
 70
     0
  9
$VISRETAIN
 70
     1
  9
$PLINEGEN
 70
     0
  9
$PSLTSCALE
 70
     1
  9
$TREEDEPTH
 70
  3020
  9
$CMLSTYLE
  2
Standard
  9
$CMLJUST
 70
     0
  9
$CMLSCALE
 40
1.0
  9
$PROXYGRAPHICS
 70
     1
  9
$MEASUREMENT
 70
     0
  9
$CELWEIGHT
370
    -1
  9
$ENDCAPS
280
     0
  9
$JOINSTYLE
280
     0
  9
$LWDISPLAY
290
     1
  9
$INSUNITS
 70
     1
  9
$HYPERLINKBASE
  1

  9
$STYLESHEET
  1

  9
$XEDIT
290
     1
  9
$CEPSNTYPE
380
     0
  9
$PSTYLEMODE
290
     1
  9
$FINGERPRINTGUID
  2
{B83ABBEC-E9A4-4CAC-B3E5-B01475A371D9}
  9
$VERSIONGUID
  2
{FAEB1C32-E019-11D5-929B-00C0DF256EC4}
  9
$EXTNAMES
290
     1
  9
$PSVPSCALE
 40
0.0
  9
$OLESTARTUP
290
     0
  9
$SORTENTS
280
   127
  9
$INDEXCTL
280
     0
  9
$HIDETEXT
280
     1
  9
$XCLIPFRAME
290
     0
  9
$HALOGAP
280
     0
  9
$OBSCOLOR
 70
   257
  9
$OBSLTYPE
280
     0
  9
$INTERSECTIONDISPLAY
280
     0
  9
$INTERSECTIONCOLOR
 70
   257
  9
$DIMASSOC
280
     2
  9
$PROJECTNAME
  1

  0
ENDSEC
  0
SECTION
  2
CLASSES
  0
CLASS
  1
ACDBDICTIONARYWDFLT
  2
AcDbDictionaryWithDefault
  3
ObjectDBX Classes
 90
        0
 91
        3
280
     0
281
     0
  0
CLASS
  1
VISUALSTYLE
  2
AcDbVisualStyle
  3
ObjectDBX Classes
 90
     4095
 91
        3
280
     0
281
     0
  0
ENDSEC
  0
SECTION
  2
TABLES
  0
TABLE
  2
VPORT
  5
8
330
0
100
AcDbSymbolTable
 70
     1
  0
VPORT
  5
29
330
8
100
AcDbSymbolTableRecord
100
AcDbViewportTableRecord
  2
*Active
 70
     0
 10
0.0
 20
0.0
 11
1.0
 21
1.0
 12
0.0
 22
0.0
 13
0.0
 23
0.0
 14
0.5
 24
0.5
 15
0.5
 25
0.5
 16
0.0
 26
0.0
 36
1.0
 17
107.9499999730125
 27
-139.699999965075
 37
0.0
 40
279.39999993015
 41
0.7727272727272728
 42
50.0
 43
0.0
 44
0.0
 50
0.0
 51
0.0
 71
     0
 72
   100
 73
     1
 74
     3
 75
     0
 76
     0
 77
     0
 78
     0
281
     0
 65
     1
110
0.0
120
0.0
130
0.0
111
1.0
121
0.0
131
0.0
112
0.0
122
1.0
132
0.0
 79
     0
146
0.0
  0
ENDTAB
  0
TABLE
  2
LTYPE
  5
5
330
0
100
AcDbSymbolTable
 70
     1
  0
LTYPE
  5
14
330
5
100
AcDbSymbolTableRecord
100
AcDbLinetypeTableRecord
  2
ByBlock
 70
     0
  3

 72
    65
 73
     0
 40
0.0
  0
LTYPE
  5
15
330
5
100
AcDbSymbolTableRecord
100
AcDbLinetypeTableRecord
  2
ByLayer
 70
     0
  3

 72
    65
 73
     0
 40
0.0
  0
LTYPE
  5
16
330
5
100
AcDbSymbolTableRecord
100
AcDbLinetypeTableRecord
  2
Continuous
 70
     0
  3
Solid line
 72
    65
 73
     0
 40
0.0
  0
ENDTAB
  0
TABLE
  2
LAYER
  5
2
330
0
100
AcDbSymbolTable
 70
     2
  0
LAYER
  5
10
330
2
100
AcDbSymbolTableRecord
100
AcDbLayerTableRecord
  2
0
 70
     0
 62
     7
  6
Continuous
370
    -3
390
F
  0
LAYER
  5
3B
330
2
100
AcDbSymbolTableRecord
100
AcDbLayerTableRecord
  2
Layer 1
 70
     0
 62
     7
  6
Continuous
370
    -3
390
F
  0
ENDTAB
  0
TABLE
  2
STYLE
  5
3
330
0
100
AcDbSymbolTable
 70
     1
  0
STYLE
  5
11
330
3
100
AcDbSymbolTableRecord
100
AcDbTextStyleTableRecord
  2
Standard
 70
     0
 40
0.0
 41
1.0
 50
0.0
 71
     0
 42
0.2
  3
txt
  4

  0
ENDTAB
  0
TABLE
  2
VIEW
  5
6
330
0
100
AcDbSymbolTable
 70
     0
  0
ENDTAB
  0
TABLE
  2
UCS
  5
7
330
0
100
AcDbSymbolTable
 70
     0
  0
ENDTAB
  0
TABLE
  2
APPID
  5
9
330
0
100
AcDbSymbolTable
 70
     1
  0
APPID
  5
12
330
9
100
AcDbSymbolTableRecord
100
AcDbRegAppTableRecord
  2
ACAD
 70
     0
  0
ENDTAB
  0
TABLE
  2
DIMSTYLE
  5
A
330
0
100
AcDbSymbolTable
 70
     1
100
AcDbDimStyleTable
  0
DIMSTYLE
105
27
330
A
100
AcDbSymbolTableRecord
100
AcDbDimStyleTableRecord
  2
Standard
 70
     0
340
11
  0
ENDTAB
  0
TABLE
  2
BLOCK_RECORD
  5
1
330
0
100
AcDbSymbolTable
 70
     2
  0
BLOCK_RECORD
  5
1F
330
1
100
AcDbSymbolTableRecord
100
AcDbBlockTableRecord
  2
*Model_Space
340
22
  0
BLOCK_RECORD
  5
1B
330
1
100
AcDbSymbolTableRecord
100
AcDbBlockTableRecord
  2
*Paper_Space
340
1E
  0
BLOCK_RECORD
  5
23
330
1
100
AcDbSymbolTableRecord
100
AcDbBlockTableRecord
  2
*Paper_Space0
340
26
  0
BLOCK_RECORD
  5
3C
330
1
100
AcDbSymbolTableRecord
100
AcDbBlockTableRecord
  2
block 2
340
0
102
{BLKREFS
331
3D
102
}
  0
ENDTAB
  0
ENDSEC
  0
SECTION
  2
BLOCKS
  0
BLOCK
  5
20
330
1F
100
AcDbEntity
  8
0
100
AcDbBlockBegin
  2
*Model_Space
 70
     0
 71
     0
 10
0.0
 20
0.0
 30
0.0
  3
*Model_Space
  1

  0
ENDBLK
  5
21
330
1F
100
AcDbEntity
  8
0
100
AcDbBlockEnd
  0
BLOCK
  5
1C
330
1B
100
AcDbEntity
 67
     1
  8
0
100
AcDbBlockBegin
  2
*Paper_Space
 70
     0
 71
     0
 10
0.0
 20
0.0
 30
0.0
  3
*Paper_Space
  1

  0
ENDBLK
  5
1D
330
1B
100
AcDbEntity
 67
     1
  8
0
100
AcDbBlockEnd
  0
BLOCK
  5
24
330
23
100
AcDbEntity
  8
0
100
AcDbBlockBegin
  2
*Paper_Space0
 70
     0
 71
     0
 10
0.0
 20
0.0
 30
0.0
  3
*Paper_Space0
  1

  0
ENDBLK
  5
25
330
23
100
AcDbEntity
  8
0
100
AcDbBlockEnd
  0
BLOCK
  5
3E
330
3C
100
AcDbEntity
  8
0
100
AcDbBlockBegin
  2
block 2
 70
     0
 71
     0
 10
0.0
 20
0.0
 30
0.0
  3
block 2
  1

  0
SPLINE
  5
40
330
3C
100
AcDbEntity
  8
Layer 1
370
     0
100
AcDbSpline
210
0.0
220
0.0
230
1.0
 70
    11
 71
     3
 72
   128
 73
   124
 74
     0
 42
0.0000000001
 43
0.0000000001
 40
0.0
 40
0.0
 40
0.0
 40
0.0
 40
1.0
 40
1.0
 40
1.0
 40
2.0
 40
2.0
 40
2.0
 40
3.0
 40
3.0
 40
3.0
 40
4.0
 40
4.0
 40
4.0
 40
5.0
 40
5.0
 40
5.0
 40
6.0
 40
6.0
 40
6.0
 40
7.0
 40
7.0
 40
7.0
 40
8.0
 40
8.0
 40
8.0
 40
9.0
 40
9.0
 40
9.0
 40
10.0
 40
10.0
 40
10.0
 40
11.0
 40
11.0
 40
11.0
 40
12.0
 40
12.0
 40
12.0
 40
13.0
 40
13.0
 40
13.0
 40
14.0
 40
14.0
 40
14.0
 40
15.0
 40
15.0
 40
15.0
 40
16.0
 40
16.0
 40
16.0
 40
17.0
 40
17.0
 40
17.0
 40
18.0
 40
18.0
 40
18.0
 40
19.0
 40
19.0
 40
19.0
 40
20.0
 40
20.0
 40
20.0
 40
21.0
 40
21.0
 40
21.0
 40
22.0
 40
22.0
 40
22.0
 40
23.0
 40
23.0
 40
23.0
 40
24.0
 40
24.0
 40
24.0
 40
25.0
 40
25.0
 40
25.0
 40
26.0
 40
26.0
 40
26.0
 40
27.0
 40
27.0
 40
27.0
 40
28.0
 40
28.0
 40
28.0
 40
29.0
 40
29.0
 40
29.0
 40
30.0
 40
30.0
 40
30.0
 40
31.0
 40
31.0
 40
31.0
 40
32.0
 40
32.0
 40
32.0
 40
33.0
 40
33.0
 40
33.0
 40
34.0
 40
34.0
 40
34.0
 40
35.0
 40
35.0
 40
35.0
 40
36.0
 40
36.0
 40
36.0
 40
37.0
 40
37.0
 40
37.0
 40
38.0
 40
38.0
 40
38.0
 40
39.0
 40
39.0
 40
39.0
 40
40.0
 40
40.0
 40
40.0
 40
41.0
 40
41.0
 40
41.0
 40
41.0
 10
131.5309895504506
 20
-138.4342718837942
 30
0.0
 10
132.7874158739212
 20
-137.6596421639358
 30
0.0
 10
133.8798556522939
 20
-136.2387125310445
 30
0.0
 10
133.9928547842101
 20
-134.0245496626744
 30
0.0
 10
134.0996527442529
 20
-131.9354437604189
 30
0.0
 10
133.2824760951516
 20
-129.8701090170117
 30
0.0
 10
132.1263020503018
 20
-128.786281977352
 30
0.0
 10
131.9788519635331
 20
-128.6488226674906
 30
0.0
 10
132.0611897456305
 20
-128.6632920685286
 30
0.0
 10
132.1859022021966
 20
-128.6598469730434
 30
0.0
 10
132.957259081344
 20
-128.6391764001319
 30
0.0
 10
133.8002739465847
 20
-128.482424555553
 30
0.0
 10
134.266395365739
 20
-128.1558295035513
 30
0.0
 10
134.7063340592054
 20
-127.84783796717
 30
0.0
 10
134.5557833864999
 20
-127.5898003153248
 30
0.0
 10
134.0025010515688
 20
-127.3017903327579
 30
0.0
 10
135.067035556511
 20
-126.3264838008837
 30
0.0
 10
136.4778021577208
 20
-123.5566270307428
 30
0.0
 10
135.6354763115772
 20
-123.3258056332311
 30
0.0
 10
134.5874782649643
 20
-125.2519585190342
 30
0.0
 10
132.9937770934877
 20
-126.0715467349752
 30
0.0
 10
129.7836371203319
 20
-127.0999077373223
 30
0.0
 10
129.3998534832751
 20
-127.2254814677596
 30
0.0
 10
129.0394964955179
 20
-127.3389973639986
 30
0.0
 10
128.6953314565415
 20
-127.4457953240413
 30
0.0
 10
128.9592257707116
 20
-126.375920921097
 30
0.0
 10
129.110465462514
 20
-125.29381642918
 30
0.0
 10
129.110465462514
 20
-124.1612412884041
 30
0.0
 10
129.110465462514
 20
-122.573741288801
 30
0.0
 10
128.7576876848245
 20
-120.8980468447755
 30
0.0
 10
128.2285210182901
 20
-119.3987412895948
 30
0.0
 10
124.6125487969719
 20
-109.2563801810192
 30
0.0
 10
114.5583821328187
 20
-108.7272135144849
 30
0.0
 10
107.5911932782237
 20
-108.7272135144849
 30
0.0
 10
107.5911932782237
 20
-108.7272135144849
 30
0.0
 10
83.60230439533207
 20
-108.7272135144849
 30
0.0
 10
83.60230439533207
 20
-108.7272135144849
 30
0.0
 10
83.60230439533207
 20
-108.7272135144849
 30
0.0
 10
83.60230439533207
 20
-111.7258246248463
 30
0.0
 10
83.60230439533207
 20
-111.7258246248463
 30
0.0
 10
87.16005450294958
 20
-111.8739637307121
 30
0.0
 10
88.47143009940993
 20
-113.8955457614567
 30
0.0
 10
88.80043671825129
 20
-116.9961316981815
 30
0.0
 10
88.15103621928169
 20
-115.39657386438
 30
0.0
 10
86.21041393244046
 20
-114.493614337696
 30
0.0
 10
84.17884112478863
 20
-115.4048420935446
 30
0.0
 10
83.61108938881945
 20
-115.6597791594531
 30
0.0
 10
81.98018118610219
 20
-116.6778048753444
 30
0.0
 10
82.11901853415775
 20
-119.3394856472485
 30
0.0
 10
81.07894420716082
 20
-117.9483560903046
 30
0.0
 10
80.55115557882054
 20
-115.3700466291436
 30
0.0
 10
81.49270017493933
 20
-113.6171820462485
 30
0.0
 10
81.84237736669219
 20
-112.9636474326966
 30
0.0
 10
81.9529649317687
 20
-112.7531520985478
 30
0.0
 10
81.05069442418177
 20
-113.2695719117868
 30
0.0
 10
79.04806041860604
 20
-114.4136881224382
 30
0.0
 10
78.72801104802633
 20
-117.1987033127142
 30
0.0
 10
79.05632864777064
 20
-119.4927923963421
 30
0.0
 10
79.42770994108058
 20
-122.0759249911824
 30
0.0
 10
80.57440997334598
 20
-123.6244954118022
 30
0.0
 10
82.13538273771269
 20
-125.3746039183091
 30
0.0
 10
81.195216179788
 20
-125.0561048406978
 30
0.0
 10
80.33308103460423
 20
-125.1198391071749
 30
0.0
 10
79.34881725446836
 20
-125.4000976249
 30
0.0
 10
78.51010875858428
 20
-125.5585720172215
 30
0.0
 10
77.65038518024018
 20
-126.5411132496147
 30
0.0
 10
76.70866832934715
 20
-126.0240044172787
 30
0.0
 10
76.38379582508809
 20
-125.8458929806913
 30
0.0
 10
76.28578285853273
 20
-126.1500949120389
 30
0.0
 10
76.6735283553976
 20
-126.3251057626896
 30
0.0
 10
77.99317218102254
 20
-126.9180066957011
 30
0.0
 10
78.5504163757617
 20
-128.1799451719481
 30
0.0
 10
80.0383531158411
 20
-128.2870876415394
 30
0.0
 10
78.22554387150265
 20
-128.8923909182977
 30
0.0
 10
75.49806177583035
 20
-131.632964376814
 30
0.0
 10
76.84285479849763
 20
-135.3764051310865
 30
0.0
 10
77.399582228914
 20
-136.9266980994489
 30
0.0
 10
79.08475068552396
 20
-138.1845024611136
 30
0.0
 10
80.40783960663416
 20
-137.4668890715361
 30
0.0
 10
82.13555499248695
 20
-136.5287895709025
 30
0.0
 10
80.17874075686504
 20
-133.1825683260794
 30
0.0
 10
78.73662378673946
 20
-134.6009141373567
 30
0.0
 10
78.60260957236324
 20
-134.7332058039903
 30
0.0
 10
78.49236651683525
 20
-134.8940917631515
 30
0.0
 10
78.39642060757103
 20
-135.0573892891523
 30
0.0
 10
76.94861922989479
 20
-132.4287814339067
 30
0.0
 10
78.9958672220045
 20
-130.1929144639795
 30
0.0
 10
80.14756264272353
 20
-130.0771592556752
 30
0.0
 10
80.14756264272353
 20
-130.0771592556752
 30
0.0
 10
79.22754989338756
 20
-131.3690700626439
 30
0.0
 10
79.46732853916095
 20
-132.5245550883967
 30
0.0
 10
79.70572914674024
 20
-132.6389322585069
 30
0.0
 10
79.97082924433022
 20
-132.5548719286668
 30
0.0
 10
80.22059866701083
 20
-132.4621988601136
 30
0.0
 10
80.37924531410658
 20
-133.8467827356355
 30
0.0
 10
80.53875323507364
 20
-134.9126952787718
 30
0.0
 10
82.03599173296323
 20
-135.6609700181681
 30
0.0
 10
82.32693004669258
 20
-135.8073865762912
 30
0.0
 10
82.4127129242753
 20
-135.6995550876029
 30
0.0
 10
82.39152558704102
 20
-135.4873372057115
 30
0.0
 10
82.35845267038262
 20
-135.1786566502331
 30
0.0
 10
82.37102726890377
 20
-134.9288872275525
 30
0.0
 10
82.43286673286401
 20
-134.6295084298843
 30
0.0
 10
83.05108911769209
 20
-131.7070339297469
 30
0.0
 10
85.81732853757345
 20
-131.9533582569422
 30
0.0
 10
87.43583439654383
 20
-133.4685112513551
 30
0.0
 10
88.63765595657323
 20
-134.8606743369446
 30
0.0
 10
88.76839733023846
 20
-136.6607367279876
 30
0.0
 10
88.78321124082504
 20
-138.4342718837942
 30
0.0
 10
88.78321124082504
 20
-138.4342718837942
 30
0.0
 10
73.3572794412961
 20
-138.4342718837942
 30
0.0
 10
73.3572794412961
 20
-138.4342718837942
 30
0.0
 10
73.3572794412961
 20
-138.4342718837942
 30
0.0
 10
73.3572794412961
 20
-140.0458875517941
 30
0.0
 10
73.3572794412961
 20
-140.0458875517941
 30
0.0
 10
73.3572794412961
 20
-140.0458875517941
 30
0.0
 10
142.2659070824891
 20
-140.0458875517941
 30
0.0
 10
142.2659070824891
 20
-140.0458875517941
 30
0.0
 10
142.2659070824891
 20
-140.0458875517941
 30
0.0
 10
142.2659070824891
 20
-138.4342718837942
 30
0.0
 10
142.2659070824891
 20
-138.4342718837942
 30
0.0
 10
142.2659070824891
 20
-138.4342718837942
 30
0.0
 10
131.5309895504506
 20
-138.4342718837942
 30
0.0
 10
131.5309895504506
 20
-138.4342718837942
 30
0.0
  0
SPLINE
  5
41
330
3C
100
AcDbEntity
  8
Layer 1
370
     0
100
AcDbSpline
210
0.0
220
0.0
230
1.0
 70
    11
 71
     3
 72
   134
 73
   130
 74
     0
 42
0.0000000001
 43
0.0000000001
 40
0.0
 40
0.0
 40
0.0
 40
0.0
 40
1.0
 40
1.0
 40
1.0
 40
2.0
 40
2.0
 40
2.0
 40
3.0
 40
3.0
 40
3.0
 40
4.0
 40
4.0
 40
4.0
 40
5.0
 40
5.0
 40
5.0
 40
6.0
 40
6.0
 40
6.0
 40
7.0
 40
7.0
 40
7.0
 40
8.0
 40
8.0
 40
8.0
 40
9.0
 40
9.0
 40
9.0
 40
10.0
 40
10.0
 40
10.0
 40
11.0
 40
11.0
 40
11.0
 40
12.0
 40
12.0
 40
12.0
 40
13.0
 40
13.0
 40
13.0
 40
14.0
 40
14.0
 40
14.0
 40
15.0
 40
15.0
 40
15.0
 40
16.0
 40
16.0
 40
16.0
 40
17.0
 40
17.0
 40
17.0
 40
18.0
 40
18.0
 40
18.0
 40
19.0
 40
19.0
 40
19.0
 40
20.0
 40
20.0
 40
20.0
 40
21.0
 40
21.0
 40
21.0
 40
22.0
 40
22.0
 40
22.0
 40
23.0
 40
23.0
 40
23.0
 40
24.0
 40
24.0
 40
24.0
 40
25.0
 40
25.0
 40
25.0
 40
26.0
 40
26.0
 40
26.0
 40
27.0
 40
27.0
 40
27.0
 40
28.0
 40
28.0
 40
28.0
 40
29.0
 40
29.0
 40
29.0
 40
30.0
 40
30.0
 40
30.0
 40
31.0
 40
31.0
 40
31.0
 40
32.0
 40
32.0
 40
32.0
 40
33.0
 40
33.0
 40
33.0
 40
34.0
 40
34.0
 40
34.0
 40
35.0
 40
35.0
 40
35.0
 40
36.0
 40
36.0
 40
36.0
 40
37.0
 40
37.0
 40
37.0
 40
38.0
 40
38.0
 40
38.0
 40
39.0
 40
39.0
 40
39.0
 40
40.0
 40
40.0
 40
40.0
 40
41.0
 40
41.0
 40
41.0
 40
42.0
 40
42.0
 40
42.0
 40
43.0
 40
43.0
 40
43.0
 40
43.0
 10
96.47869328100185
 20
-112.1667968469583
 30
0.0
 10
96.47869328100185
 20
-112.1667968469583
 30
0.0
 10
105.2981377232414
 20
-112.1667968469583
 30
0.0
 10
105.2981377232414
 20
-112.1667968469583
 30
0.0
 10
110.0604654672766
 20
-112.1667968469583
 30
0.0
 10
117.0278265766458
 20
-112.6959635134927
 30
0.0
 10
119.5854654648953
 20
-120.3688801782411
 30
0.0
 10
120.0264376870073
 20
-121.6917968445771
 30
0.0
 10
120.2910210202745
 20
-123.014713510913
 30
0.0
 10
120.2910210202745
 20
-124.3376301772489
 30
0.0
 10
120.2910210202745
 20
-125.9251301768521
 30
0.0
 10
120.2028265758521
 20
-127.6008246208776
 30
0.0
 10
119.7618543537401
 20
-129.1001301760583
 30
0.0
 10
118.8909342150689
 20
-132.0045179248982
 30
0.0
 10
117.3806043543354
 20
-133.843165385376
 30
0.0
 10
115.6315293764741
 20
-135.0108805001015
 30
0.0
 10
113.5854871677842
 20
-133.8934637794607
 30
0.0
 10
110.4600965435655
 20
-134.5831718956077
 30
0.0
 10
109.5347438962274
 20
-136.9029269406007
 30
0.0
 10
109.1468261445883
 20
-136.9029269406007
 30
0.0
 10
108.9580349119966
 20
-136.9029269406007
 30
0.0
 10
108.5811414659103
 20
-136.9029269406007
 30
0.0
 10
109.5312988007422
 20
-134.7883273317543
 30
0.0
 10
111.6238497984829
 20
-133.9794189118176
 30
0.0
 10
113.7522297892703
 20
-133.9794189118176
 30
0.0
 10
114.079513860369
 20
-133.9794189118176
 30
0.0
 10
114.1243001016773
 20
-133.8522948884119
 30
0.0
 10
113.7908148587051
 20
-133.7134575403564
 30
0.0
 10
112.6243055273995
 20
-133.2318331915184
 30
0.0
 10
111.0919270555604
 20
-133.2197753573201
 30
0.0
 10
109.5939995385737
 20
-133.8006184561332
 30
0.0
 10
109.3628336315135
 20
-133.2307996628729
 30
0.0
 10
108.9201388616589
 20
-132.6440999017348
 30
0.0
 10
108.3871825900907
 20
-132.2148410042727
 30
0.0
 10
108.6552110188431
 20
-131.8872124236254
 30
0.0
 10
108.5211968044669
 20
-131.3409925344391
 30
0.0
 10
108.0412950033716
 20
-131.1773504988897
 30
0.0
 10
108.0412950033716
 20
-131.1773504988897
 30
0.0
 10
108.0412950033716
 20
-130.5310505858568
 30
0.0
 10
108.0412950033716
 20
-130.5310505858568
 30
0.0
 10
109.1688747556939
 20
-130.9771904511967
 30
0.0
 10
109.6553222382112
 20
-132.4422173062992
 30
0.0
 10
110.7436279020016
 20
-132.3643581483325
 30
0.0
 10
111.9104817428557
 20
-132.2830538948806
 30
0.0
 10
112.2401773807941
 20
-130.8669473956687
 30
0.0
 10
113.3295165732301
 20
-130.1396877387324
 30
0.0
 10
112.3249267297313
 20
-129.4175957250241
 30
0.0
 10
111.9941975631473
 20
-128.0013169710379
 30
0.0
 10
110.9513671597622
 20
-127.9623873920546
 30
0.0
 10
109.7390380585027
 20
-127.9213907557801
 30
0.0
 10
109.3235595429816
 20
-129.2556762372173
 30
0.0
 10
108.0740234104815
 20
-129.7007825739116
 30
0.0
 10
108.4450601942429
 20
-128.5284165802811
 30
0.0
 10
110.0759683969602
 20
-128.1253404085069
 30
0.0
 10
110.0759683969602
 20
-126.990181446117
 30
0.0
 10
110.0759683969602
 20
-125.98283552623
 30
0.0
 10
108.4450601942429
 20
-125.5797593544558
 30
0.0
 10
107.6978189834922
 20
-124.8146036471818
 30
0.0
 10
106.8616943092221
 20
-125.4987996105524
 30
0.0
 10
105.4044189189614
 20
-126.1867851789568
 30
0.0
 10
105.4044189189614
 20
-127.0349676874253
 30
0.0
 10
105.4044189189614
 20
-128.1253404085069
 30
0.0
 10
107.4063639054401
 20
-129.0107299482161
 30
0.0
 10
107.3619221736804
 20
-129.7807087891694
 30
0.0
 10
106.1092854552435
 20
-129.3366359811207
 30
0.0
 10
105.9025797261285
 20
-128.0833102435868
 30
0.0
 10
104.8153075909837
 20
-128.0443806646035
 30
0.0
 10
103.771443658953
 20
-128.0443806646035
 30
0.0
 10
103.4169433335208
 20
-129.657718880346
 30
0.0
 10
102.2490559640211
 20
-130.3019517360877
 30
0.0
 10
103.4996256251668
 20
-131.1129272133155
 30
0.0
 10
104.0236246484733
 20
-132.4036322368644
 30
0.0
 10
104.860782851389
 20
-132.4422173062992
 30
0.0
 10
105.942887343306
 20
-132.5235215597511
 30
0.0
 10
106.2915310064132
 20
-130.7312106335498
 30
0.0
 10
107.5421006675589
 20
-130.6109768011146
 30
0.0
 10
107.5421006675589
 20
-130.6109768011146
 30
0.0
 10
107.5421006675589
 20
-131.1773504988897
 30
0.0
 10
107.5421006675589
 20
-131.1773504988897
 30
0.0
 10
107.0087998864422
 20
-131.2347113387191
 30
0.0
 10
106.8785752770998
 20
-131.8369140295408
 30
0.0
 10
107.1579725209536
 20
-132.198649055492
 30
0.0
 10
106.6200208609318
 20
-132.6282524625027
 30
0.0
 10
106.1719861930751
 20
-133.2194308477715
 30
0.0
 10
105.940303521692
 20
-133.7944172842597
 30
0.0
 10
104.4413424760598
 20
-133.2135741854466
 30
0.0
 10
102.9096530233177
 20
-133.2252875100965
 30
0.0
 10
101.7434882015607
 20
-133.7069118589344
 30
0.0
 10
101.4089694299429
 20
-133.84574920699
 30
0.0
 10
101.4530666521541
 20
-133.9745957781383
 30
0.0
 10
101.782417780544
 20
-133.9745957781383
 30
0.0
 10
104.0017482921419
 20
-133.9745957781383
 30
0.0
 10
105.8159355746745
 20
-134.7883273317543
 30
0.0
 10
106.8301716855321
 20
-136.8963812591787
 30
0.0
 10
106.4519002012516
 20
-136.8963812591787
 30
0.0
 10
106.3864433870319
 20
-136.8963812591787
 30
0.0
 10
105.9985256353927
 20
-136.8963812591787
 30
0.0
 10
104.7420993119221
 20
-133.7475639856603
 30
0.0
 10
99.43217364050655
 20
-133.5980468416005
 30
0.0
 10
98.2718654810744
 20
-136.9015489024066
 30
0.0
 10
98.03363712826938
 20
-136.9018934119551
 30
0.0
 10
97.37510712626387
 20
-136.9015489024066
 30
0.0
 10
96.58152938123656
 20
-136.9008598833095
 30
0.0
 10
96.88624807690691
 20
-133.2645615986283
 30
0.0
 10
97.73632538789231
 20
-131.6929090382573
 30
0.0
 10
100.5292642977844
 20
-128.3370415260755
 30
0.0
 10
103.3749131686007
 20
-124.9191622951591
 30
0.0
 10
105.6838161628152
 20
-123.3805826514465
 30
0.0
 10
106.2426106505227
 20
-119.4927923963421
 30
0.0
 10
106.570928250267
 20
-117.1987033127142
 30
0.0
 10
106.2508788796873
 20
-114.4136881224382
 30
0.0
 10
104.2482448741115
 20
-113.2695719117868
 30
0.0
 10
103.3459743665246
 20
-112.7531520985478
 30
0.0
 10
103.4565619316011
 20
-112.9636474326966
 30
0.0
 10
103.806239123354
 20
-113.6171820462485
 30
0.0
 10
104.7477837194728
 20
-115.3700466291436
 30
0.0
 10
104.2199950911325
 20
-117.9483560903046
 30
0.0
 10
103.1799207641356
 20
-119.3394856472485
 30
0.0
 10
103.3187581121911
 20
-116.6778048753444
 30
0.0
 10
101.6878499094739
 20
-115.6597791594531
 30
0.0
 10
101.1200981735047
 20
-115.4048420935446
 30
0.0
 10
99.07853458894564
 20
-114.4891357135652
 30
0.0
 10
97.12757701564867
 20
-115.4048420935446
 30
0.0
 10
96.48782278403777
 20
-117.0192138379327
 30
0.0
 10
96.48506670764957
 20
-117.0254150098062
 30
0.0
 10
96.48179386693859
 20
-117.0307549078083
 30
0.0
 10
96.47869328100185
 20
-117.0360948058104
 30
0.0
 10
96.47869328100185
 20
-117.0360948058104
 30
0.0
 10
96.47869328100185
 20
-112.1667968469583
 30
0.0
 10
96.47869328100185
 20
-112.1667968469583
 30
0.0
  0
SPLINE
  5
42
330
3C
100
AcDbEntity
  8
Layer 1
370
     0
100
AcDbSpline
210
0.0
220
0.0
230
1.0
 70
    11
 71
     3
 72
    29
 73
    25
 74
     0
 42
0.0000000001
 43
0.0000000001
 40
0.0
 40
0.0
 40
0.0
 40
0.0
 40
1.0
 40
1.0
 40
1.0
 40
2.0
 40
2.0
 40
2.0
 40
3.0
 40
3.0
 40
3.0
 40
4.0
 40
4.0
 40
4.0
 40
5.0
 40
5.0
 40
5.0
 40
6.0
 40
6.0
 40
6.0
 40
7.0
 40
7.0
 40
7.0
 40
8.0
 40
8.0
 40
8.0
 40
8.0
 10
96.47869328100185
 20
-120.3613009681736
 30
0.0
 10
96.74275984994625
 20
-120.5707627736768
 30
0.0
 10
97.07951793362943
 20
-120.6866902367554
 30
0.0
 10
97.44142521435492
 20
-120.6499999698375
 30
0.0
 10
98.17902015774692
 20
-120.5766194360017
 30
0.0
 10
98.71645505344588
 20
-119.9168836505763
 30
0.0
 10
98.64307451961007
 20
-119.1785996880873
 30
0.0
 10
98.57210555261392
 20
-118.4723551136111
 30
0.0
 10
97.96404619946733
 20
-117.9507676571443
 30
0.0
 10
97.26365828731603
 20
-117.9721272491528
 30
0.0
 10
97.75458439396414
 20
-115.6156819372419
 30
0.0
 10
101.1542046188087
 20
-115.2487792680628
 30
0.0
 10
101.9317626698296
 20
-118.167808672715
 30
0.0
 10
102.1339897748137
 20
-118.9274522272126
 30
0.0
 10
102.1016058772524
 20
-119.8645181992005
 30
0.0
 10
101.8456352826983
 20
-120.9042480166489
 30
0.0
 10
101.3088894060964
 20
-123.3416530724632
 30
0.0
 10
99.5853081348259
 20
-125.2895100598235
 30
0.0
 10
98.511127362525
 20
-127.5133191955522
 30
0.0
 10
97.47983802901547
 20
-129.4804687176299
 30
0.0
 10
96.95962861074274
 20
-130.4902262043566
 30
0.0
 10
96.47869328100185
 20
-132.4625433696621
 30
0.0
 10
96.47869328100185
 20
-132.4625433696621
 30
0.0
 10
96.47869328100185
 20
-120.3613009681736
 30
0.0
 10
96.47869328100185
 20
-120.3613009681736
 30
0.0
  0
SPLINE
  5
43
330
3C
100
AcDbEntity
  8
Layer 1
370
     0
100
AcDbSpline
210
0.0
220
0.0
230
1.0
 70
    11
 71
     3
 72
    29
 73
    25
 74
     0
 42
0.0000000001
 43
0.0000000001
 40
0.0
 40
0.0
 40
0.0
 40
0.0
 40
1.0
 40
1.0
 40
1.0
 40
2.0
 40
2.0
 40
2.0
 40
3.0
 40
3.0
 40
3.0
 40
4.0
 40
4.0
 40
4.0
 40
5.0
 40
5.0
 40
5.0
 40
6.0
 40
6.0
 40
6.0
 40
7.0
 40
7.0
 40
7.0
 40
8.0
 40
8.0
 40
8.0
 40
8.0
 10
83.36717662846377
 20
-118.167808672715
 30
0.0
 10
84.14473467948466
 20
-115.2487792680628
 30
0.0
 10
87.5443549043292
 20
-115.6156819372419
 30
0.0
 10
88.0352810109773
 20
-117.9721272491528
 30
0.0
 10
87.334893098826
 20
-117.9507676571443
 30
0.0
 10
86.7268337456794
 20
-118.4723551136111
 30
0.0
 10
86.65586477868327
 20
-119.1785996880873
 30
0.0
 10
86.58248424484744
 20
-119.9168836505763
 30
0.0
 10
87.11991914054641
 20
-120.5766194360017
 30
0.0
 10
87.8575140839384
 20
-120.6499999698375
 30
0.0
 10
88.25266653609656
 20
-120.6901353322407
 30
0.0
 10
88.62163626256682
 20
-120.553192786702
 30
0.0
 10
88.89397106067581
 20
-120.3049736569897
 30
0.0
 10
88.89397106067581
 20
-120.3049736569897
 30
0.0
 10
88.89397106067581
 20
-130.2704291123977
 30
0.0
 10
88.89397106067581
 20
-130.2704291123977
 30
0.0
 10
88.18376462639156
 20
-128.7046332143516
 30
0.0
 10
87.2389471895618
 20
-127.4232299486129
 30
0.0
 10
86.23556312948278
 20
-126.4760009449435
 30
0.0
 10
85.19703909545422
 20
-124.6614691528624
 30
0.0
 10
83.90512828848553
 20
-122.9561468876637
 30
0.0
 10
83.45330401559501
 20
-120.9042480166489
 30
0.0
 10
83.19733342104095
 20
-119.8645181992005
 30
0.0
 10
83.1649495234796
 20
-118.9274522272126
 30
0.0
 10
83.36717662846377
 20
-118.167808672715
 30
0.0
  0
SPLINE
  5
44
330
3C
100
AcDbEntity
  8
Layer 1
370
     0
100
AcDbSpline
210
0.0
220
0.0
230
1.0
 70
    11
 71
     3
 72
    14
 73
    10
 74
     0
 42
0.0000000001
 43
0.0000000001
 40
0.0
 40
0.0
 40
0.0
 40
0.0
 40
1.0
 40
1.0
 40
1.0
 40
2.0
 40
2.0
 40
2.0
 40
3.0
 40
3.0
 40
3.0
 40
3.0
 10
80.29191214355549
 20
-126.9552137269418
 30
0.0
 10
80.24540335450463
 20
-126.9378159947412
 30
0.0
 10
80.24075247559954
 20
-126.9288587464796
 30
0.0
 10
80.28726126465041
 20
-126.9286864917053
 30
0.0
 10
82.9422241003582
 20
-126.9233465937032
 30
0.0
 10
86.30997719196418
 20
-128.4479736007005
 30
0.0
 10
87.8084214732736
 20
-130.9280978405319
 30
0.0
 10
85.81629500892788
 20
-128.9328707902494
 30
0.0
 10
82.5215779416092
 20
-127.7878933057266
 30
0.0
 10
80.29191214355549
 20
-126.9552137269418
 30
0.0
  0
SPLINE
  5
45
330
3C
100
AcDbEntity
  8
Layer 1
370
     0
100
AcDbSpline
210
0.0
220
0.0
230
1.0
 70
    11
 71
     3
 72
    14
 73
    10
 74
     0
 42
0.0000000001
 43
0.0000000001
 40
0.0
 40
0.0
 40
0.0
 40
0.0
 40
1.0
 40
1.0
 40
1.0
 40
2.0
 40
2.0
 40
2.0
 40
3.0
 40
3.0
 40
3.0
 40
3.0
 10
82.49315590385588
 20
-132.7212700406044
 30
0.0
 10
82.44974770074174
 20
-132.8008517463137
 30
0.0
 10
82.3929036252351
 20
-132.8576958218203
 30
0.0
 10
82.40737302627316
 20
-132.715757887828
 30
0.0
 10
82.65541990121115
 20
-130.2840372395644
 30
0.0
 10
87.11819659280378
 20
-130.3376084743601
 30
0.0
 10
88.06335853918208
 20
-132.4456624017844
 30
0.0
 10
86.46552325312321
 20
-130.861262988118
 30
0.0
 10
83.2140421341444
 20
-131.4011094506567
 30
0.0
 10
82.49315590385588
 20
-132.7212700406044
 30
0.0
  0
SPLINE
  5
46
330
3C
100
AcDbEntity
  8
Layer 1
370
     0
100
AcDbSpline
210
0.0
220
0.0
230
1.0
 70
    11
 71
     3
 72
    62
 73
    58
 74
     0
 42
0.0000000001
 43
0.0000000001
 40
0.0
 40
0.0
 40
0.0
 40
0.0
 40
1.0
 40
1.0
 40
1.0
 40
2.0
 40
2.0
 40
2.0
 40
3.0
 40
3.0
 40
3.0
 40
4.0
 40
4.0
 40
4.0
 40
5.0
 40
5.0
 40
5.0
 40
6.0
 40
6.0
 40
6.0
 40
7.0
 40
7.0
 40
7.0
 40
8.0
 40
8.0
 40
8.0
 40
9.0
 40
9.0
 40
9.0
 40
10.0
 40
10.0
 40
10.0
 40
11.0
 40
11.0
 40
11.0
 40
12.0
 40
12.0
 40
12.0
 40
13.0
 40
13.0
 40
13.0
 40
14.0
 40
14.0
 40
14.0
 40
15.0
 40
15.0
 40
15.0
 40
16.0
 40
16.0
 40
16.0
 40
17.0
 40
17.0
 40
17.0
 40
18.0
 40
18.0
 40
18.0
 40
19.0
 40
19.0
 40
19.0
 40
19.0
 10
117.2042154654906
 20
-138.2723523959875
 30
0.0
 10
120.9028699784548
 20
-137.3263291757379
 30
0.0
 10
126.1022080847939
 20
-134.6932426963614
 30
0.0
 10
128.2392008142944
 20
-128.9196071726312
 30
0.0
 10
128.2857096033453
 20
-128.9202961917283
 30
0.0
 10
128.3332519210417
 20
-128.9156453128232
 30
0.0
 10
128.379416200544
 20
-128.9178846248886
 30
0.0
 10
130.2521701063258
 20
-129.0098686743448
 30
0.0
 10
130.7765136391809
 20
-130.4654215168628
 30
0.0
 10
130.0027451931938
 20
-131.9447455182291
 30
0.0
 10
129.6582356446688
 20
-132.6024142463633
 30
0.0
 10
128.8093641171032
 20
-133.1525959953577
 30
0.0
 10
127.978407086061
 20
-132.6637369460007
 30
0.0
 10
127.8492160053641
 20
-132.5879448453252
 30
0.0
 10
127.7214029628613
 20
-132.5390244894347
 30
0.0
 10
127.7331162875112
 20
-132.8570068027232
 30
0.0
 10
127.7741129237857
 20
-133.8860568241674
 30
0.0
 10
129.0450086482943
 20
-134.7263156130198
 30
0.0
 10
130.3713704101155
 20
-134.6119384429095
 30
0.0
 10
130.3713704101155
 20
-134.6119384429095
 30
0.0
 10
130.3589680663686
 20
-135.0477430217936
 30
0.0
 10
130.508829719977
 20
-135.3664143541792
 30
0.0
 10
130.6983099716657
 20
-135.770524054599
 30
0.0
 10
130.9125949108482
 20
-135.7402072143288
 30
0.0
 10
131.2595160262129
 20
-135.5241997274037
 30
0.0
 10
132.0773816944112
 20
-135.0170816719749
 30
0.0
 10
132.7891384216638
 20
-133.8309352964034
 30
0.0
 10
132.6217067810807
 20
-132.3819281353073
 30
0.0
 10
132.5414360562744
 20
-132.087716980867
 30
0.0
 10
132.4108669373834
 20
-131.8930690859503
 30
0.0
 10
132.5373019416921
 20
-131.647433777852
 30
0.0
 10
132.5948350362957
 20
-131.9378553272586
 30
0.0
 10
132.6850965380093
 20
-132.2193196284035
 30
0.0
 10
132.7546874668113
 20
-132.5080186300675
 30
0.0
 10
133.3992648321016
 20
-135.1762450833934
 30
0.0
 10
132.2906331049482
 20
-137.5299343189161
 30
0.0
 10
129.9303981880035
 20
-137.8799560202175
 30
0.0
 10
129.061200597075
 20
-138.0094916104629
 30
0.0
 10
128.1210340391503
 20
-137.7590331686852
 30
0.0
 10
127.3961859490537
 20
-137.3177164370248
 30
0.0
 10
127.6762722120045
 20
-137.113766784298
 30
0.0
 10
127.8750542215035
 20
-136.8012966237858
 30
0.0
 10
127.9198404628117
 20
-136.4316378782185
 30
0.0
 10
128.0056233403944
 20
-135.7243597750967
 30
0.0
 10
127.5029839090965
 20
-135.0818494670976
 30
0.0
 10
126.7963948250717
 20
-134.9960665895149
 30
0.0
 10
125.669159582298
 20
-134.8592962987505
 30
0.0
 10
124.2676947388984
 20
-136.5415364241979
 30
0.0
 10
126.3695474944493
 20
-138.2055175435736
 30
0.0
 10
126.4722113399097
 20
-138.2868217970255
 30
0.0
 10
126.5824543954377
 20
-138.3620971333782
 30
0.0
 10
126.6954535273539
 20
-138.4342718837942
 30
0.0
 10
126.6954535273539
 20
-138.4342718837942
 30
0.0
 10
117.2042154654906
 20
-138.4342718837942
 30
0.0
 10
117.2042154654906
 20
-138.4342718837942
 30
0.0
 10
117.2042154654906
 20
-138.4342718837942
 30
0.0
 10
117.2042154654906
 20
-138.2723523959875
 30
0.0
 10
117.2042154654906
 20
-138.2723523959875
 30
0.0
  0
HATCH
  5
47
330
3C
100
AcDbEntity
  8
Layer 1
 62
   250
420
  2301728
100
AcDbHatch
 10
0.0
 20
0.0
 30
0.0
210
0.0
220
0.0
230
1.0
  2
SOLID
 70
     1
 71
     0
 91
        7
 92
        1
 93
        1
 72
     4
 94
        3
 73
     0
 74
     1
 95
      128
 96
      124
 40
0.0
 40
0.0
 40
0.0
 40
0.0
 40
1.0
 40
1.0
 40
1.0
 40
2.0
 40
2.0
 40
2.0
 40
3.0
 40
3.0
 40
3.0
 40
4.0
 40
4.0
 40
4.0
 40
5.0
 40
5.0
 40
5.0
 40
6.0
 40
6.0
 40
6.0
 40
7.0
 40
7.0
 40
7.0
 40
8.0
 40
8.0
 40
8.0
 40
9.0
 40
9.0
 40
9.0
 40
10.0
 40
10.0
 40
10.0
 40
11.0
 40
11.0
 40
11.0
 40
12.0
 40
12.0
 40
12.0
 40
13.0
 40
13.0
 40
13.0
 40
14.0
 40
14.0
 40
14.0
 40
15.0
 40
15.0
 40
15.0
 40
16.0
 40
16.0
 40
16.0
 40
17.0
 40
17.0
 40
17.0
 40
18.0
 40
18.0
 40
18.0
 40
19.0
 40
19.0
 40
19.0
 40
20.0
 40
20.0
 40
20.0
 40
21.0
 40
21.0
 40
21.0
 40
22.0
 40
22.0
 40
22.0
 40
23.0
 40
23.0
 40
23.0
 40
24.0
 40
24.0
 40
24.0
 40
25.0
 40
25.0
 40
25.0
 40
26.0
 40
26.0
 40
26.0
 40
27.0
 40
27.0
 40
27.0
 40
28.0
 40
28.0
 40
28.0
 40
29.0
 40
29.0
 40
29.0
 40
30.0
 40
30.0
 40
30.0
 40
31.0
 40
31.0
 40
31.0
 40
32.0
 40
32.0
 40
32.0
 40
33.0
 40
33.0
 40
33.0
 40
34.0
 40
34.0
 40
34.0
 40
35.0
 40
35.0
 40
35.0
 40
36.0
 40
36.0
 40
36.0
 40
37.0
 40
37.0
 40
37.0
 40
38.0
 40
38.0
 40
38.0
 40
39.0
 40
39.0
 40
39.0
 40
40.0
 40
40.0
 40
40.0
 40
41.0
 40
41.0
 40
41.0
 40
41.0
 10
131.5309895504506
 20
-138.4342718837942
 10
132.7874158739212
 20
-137.6596421639358
 10
133.8798556522939
 20
-136.2387125310445
 10
133.9928547842101
 20
-134.0245496626744
 10
134.0996527442529
 20
-131.9354437604189
 10
133.2824760951516
 20
-129.8701090170117
 10
132.1263020503018
 20
-128.786281977352
 10
131.9788519635331
 20
-128.6488226674906
 10
132.0611897456305
 20
-128.6632920685286
 10
132.1859022021966
 20
-128.6598469730434
 10
132.957259081344
 20
-128.6391764001319
 10
133.8002739465847
 20
-128.482424555553
 10
134.266395365739
 20
-128.1558295035513
 10
134.7063340592054
 20
-127.84783796717
 10
134.5557833864999
 20
-127.5898003153248
 10
134.0025010515688
 20
-127.3017903327579
 10
135.067035556511
 20
-126.3264838008837
 10
136.4778021577208
 20
-123.5566270307428
 10
135.6354763115772
 20
-123.3258056332311
 10
134.5874782649643
 20
-125.2519585190342
 10
132.9937770934877
 20
-126.0715467349752
 10
129.7836371203319
 20
-127.0999077373223
 10
129.3998534832751
 20
-127.2254814677596
 10
129.0394964955179
 20
-127.3389973639986
 10
128.6953314565415
 20
-127.4457953240413
 10
128.9592257707116
 20
-126.375920921097
 10
129.110465462514
 20
-125.29381642918
 10
129.110465462514
 20
-124.1612412884041
 10
129.110465462514
 20
-122.573741288801
 10
128.7576876848245
 20
-120.8980468447755
 10
128.2285210182901
 20
-119.3987412895948
 10
124.6125487969719
 20
-109.2563801810192
 10
114.5583821328187
 20
-108.7272135144849
 10
107.5911932782237
 20
-108.7272135144849
 10
107.5911932782237
 20
-108.7272135144849
 10
83.60230439533207
 20
-108.7272135144849
 10
83.60230439533207
 20
-108.7272135144849
 10
83.60230439533207
 20
-108.7272135144849
 10
83.60230439533207
 20
-111.7258246248463
 10
83.60230439533207
 20
-111.7258246248463
 10
87.16005450294958
 20
-111.8739637307121
 10
88.47143009940993
 20
-113.8955457614567
 10
88.80043671825129
 20
-116.9961316981815
 10
88.15103621928169
 20
-115.39657386438
 10
86.21041393244046
 20
-114.493614337696
 10
84.17884112478863
 20
-115.4048420935446
 10
83.61108938881945
 20
-115.6597791594531
 10
81.98018118610219
 20
-116.6778048753444
 10
82.11901853415775
 20
-119.3394856472485
 10
81.07894420716082
 20
-117.9483560903046
 10
80.55115557882054
 20
-115.3700466291436
 10
81.49270017493933
 20
-113.6171820462485
 10
81.84237736669219
 20
-112.9636474326966
 10
81.9529649317687
 20
-112.7531520985478
 10
81.05069442418177
 20
-113.2695719117868
 10
79.04806041860604
 20
-114.4136881224382
 10
78.72801104802633
 20
-117.1987033127142
 10
79.05632864777064
 20
-119.4927923963421
 10
79.42770994108058
 20
-122.0759249911824
 10
80.57440997334598
 20
-123.6244954118022
 10
82.13538273771269
 20
-125.3746039183091
 10
81.195216179788
 20
-125.0561048406978
 10
80.33308103460423
 20
-125.1198391071749
 10
79.34881725446836
 20
-125.4000976249
 10
78.51010875858428
 20
-125.5585720172215
 10
77.65038518024018
 20
-126.5411132496147
 10
76.70866832934715
 20
-126.0240044172787
 10
76.38379582508809
 20
-125.8458929806913
 10
76.28578285853273
 20
-126.1500949120389
 10
76.6735283553976
 20
-126.3251057626896
 10
77.99317218102254
 20
-126.9180066957011
 10
78.5504163757617
 20
-128.1799451719481
 10
80.0383531158411
 20
-128.2870876415394
 10
78.22554387150265
 20
-128.8923909182977
 10
75.49806177583035
 20
-131.632964376814
 10
76.84285479849763
 20
-135.3764051310865
 10
77.399582228914
 20
-136.9266980994489
 10
79.08475068552396
 20
-138.1845024611136
 10
80.40783960663416
 20
-137.4668890715361
 10
82.13555499248695
 20
-136.5287895709025
 10
80.17874075686504
 20
-133.1825683260794
 10
78.73662378673946
 20
-134.6009141373567
 10
78.60260957236324
 20
-134.7332058039903
 10
78.49236651683525
 20
-134.8940917631515
 10
78.39642060757103
 20
-135.0573892891523
 10
76.94861922989479
 20
-132.4287814339067
 10
78.9958672220045
 20
-130.1929144639795
 10
80.14756264272353
 20
-130.0771592556752
 10
80.14756264272353
 20
-130.0771592556752
 10
79.22754989338756
 20
-131.3690700626439
 10
79.46732853916095
 20
-132.5245550883967
 10
79.70572914674024
 20
-132.6389322585069
 10
79.97082924433022
 20
-132.5548719286668
 10
80.22059866701083
 20
-132.4621988601136
 10
80.37924531410658
 20
-133.8467827356355
 10
80.53875323507364
 20
-134.9126952787718
 10
82.03599173296323
 20
-135.6609700181681
 10
82.32693004669258
 20
-135.8073865762912
 10
82.4127129242753
 20
-135.6995550876029
 10
82.39152558704102
 20
-135.4873372057115
 10
82.35845267038262
 20
-135.1786566502331
 10
82.37102726890377
 20
-134.9288872275525
 10
82.43286673286401
 20
-134.6295084298843
 10
83.05108911769209
 20
-131.7070339297469
 10
85.81732853757345
 20
-131.9533582569422
 10
87.43583439654383
 20
-133.4685112513551
 10
88.63765595657323
 20
-134.8606743369446
 10
88.76839733023846
 20
-136.6607367279876
 10
88.78321124082504
 20
-138.4342718837942
 10
88.78321124082504
 20
-138.4342718837942
 10
73.3572794412961
 20
-138.4342718837942
 10
73.3572794412961
 20
-138.4342718837942
 10
73.3572794412961
 20
-138.4342718837942
 10
73.3572794412961
 20
-140.0458875517941
 10
73.3572794412961
 20
-140.0458875517941
 10
73.3572794412961
 20
-140.0458875517941
 10
142.2659070824891
 20
-140.0458875517941
 10
142.2659070824891
 20
-140.0458875517941
 10
142.2659070824891
 20
-140.0458875517941
 10
142.2659070824891
 20
-138.4342718837942
 10
142.2659070824891
 20
-138.4342718837942
 10
142.2659070824891
 20
-138.4342718837942
 10
131.5309895504506
 20
-138.4342718837942
 10
131.5309895504506
 20
-138.4342718837942
 97
        0
 92
        1
 93
        1
 72
     4
 94
        3
 73
     0
 74
     1
 95
      134
 96
      130
 40
0.0
 40
0.0
 40
0.0
 40
0.0
 40
1.0
 40
1.0
 40
1.0
 40
2.0
 40
2.0
 40
2.0
 40
3.0
 40
3.0
 40
3.0
 40
4.0
 40
4.0
 40
4.0
 40
5.0
 40
5.0
 40
5.0
 40
6.0
 40
6.0
 40
6.0
 40
7.0
 40
7.0
 40
7.0
 40
8.0
 40
8.0
 40
8.0
 40
9.0
 40
9.0
 40
9.0
 40
10.0
 40
10.0
 40
10.0
 40
11.0
 40
11.0
 40
11.0
 40
12.0
 40
12.0
 40
12.0
 40
13.0
 40
13.0
 40
13.0
 40
14.0
 40
14.0
 40
14.0
 40
15.0
 40
15.0
 40
15.0
 40
16.0
 40
16.0
 40
16.0
 40
17.0
 40
17.0
 40
17.0
 40
18.0
 40
18.0
 40
18.0
 40
19.0
 40
19.0
 40
19.0
 40
20.0
 40
20.0
 40
20.0
 40
21.0
 40
21.0
 40
21.0
 40
22.0
 40
22.0
 40
22.0
 40
23.0
 40
23.0
 40
23.0
 40
24.0
 40
24.0
 40
24.0
 40
25.0
 40
25.0
 40
25.0
 40
26.0
 40
26.0
 40
26.0
 40
27.0
 40
27.0
 40
27.0
 40
28.0
 40
28.0
 40
28.0
 40
29.0
 40
29.0
 40
29.0
 40
30.0
 40
30.0
 40
30.0
 40
31.0
 40
31.0
 40
31.0
 40
32.0
 40
32.0
 40
32.0
 40
33.0
 40
33.0
 40
33.0
 40
34.0
 40
34.0
 40
34.0
 40
35.0
 40
35.0
 40
35.0
 40
36.0
 40
36.0
 40
36.0
 40
37.0
 40
37.0
 40
37.0
 40
38.0
 40
38.0
 40
38.0
 40
39.0
 40
39.0
 40
39.0
 40
40.0
 40
40.0
 40
40.0
 40
41.0
 40
41.0
 40
41.0
 40
42.0
 40
42.0
 40
42.0
 40
43.0
 40
43.0
 40
43.0
 40
43.0
 10
96.47869328100185
 20
-112.1667968469583
 10
96.47869328100185
 20
-112.1667968469583
 10
105.2981377232414
 20
-112.1667968469583
 10
105.2981377232414
 20
-112.1667968469583
 10
110.0604654672766
 20
-112.1667968469583
 10
117.0278265766458
 20
-112.6959635134927
 10
119.5854654648953
 20
-120.3688801782411
 10
120.0264376870073
 20
-121.6917968445771
 10
120.2910210202745
 20
-123.014713510913
 10
120.2910210202745
 20
-124.3376301772489
 10
120.2910210202745
 20
-125.9251301768521
 10
120.2028265758521
 20
-127.6008246208776
 10
119.7618543537401
 20
-129.1001301760583
 10
118.8909342150689
 20
-132.0045179248982
 10
117.3806043543354
 20
-133.843165385376
 10
115.6315293764741
 20
-135.0108805001015
 10
113.5854871677842
 20
-133.8934637794607
 10
110.4600965435655
 20
-134.5831718956077
 10
109.5347438962274
 20
-136.9029269406007
 10
109.1468261445883
 20
-136.9029269406007
 10
108.9580349119966
 20
-136.9029269406007
 10
108.5811414659103
 20
-136.9029269406007
 10
109.5312988007422
 20
-134.7883273317543
 10
111.6238497984829
 20
-133.9794189118176
 10
113.7522297892703
 20
-133.9794189118176
 10
114.079513860369
 20
-133.9794189118176
 10
114.1243001016773
 20
-133.8522948884119
 10
113.7908148587051
 20
-133.7134575403564
 10
112.6243055273995
 20
-133.2318331915184
 10
111.0919270555604
 20
-133.2197753573201
 10
109.5939995385737
 20
-133.8006184561332
 10
109.3628336315135
 20
-133.2307996628729
 10
108.9201388616589
 20
-132.6440999017348
 10
108.3871825900907
 20
-132.2148410042727
 10
108.6552110188431
 20
-131.8872124236254
 10
108.5211968044669
 20
-131.3409925344391
 10
108.0412950033716
 20
-131.1773504988897
 10
108.0412950033716
 20
-131.1773504988897
 10
108.0412950033716
 20
-130.5310505858568
 10
108.0412950033716
 20
-130.5310505858568
 10
109.1688747556939
 20
-130.9771904511967
 10
109.6553222382112
 20
-132.4422173062992
 10
110.7436279020016
 20
-132.3643581483325
 10
111.9104817428557
 20
-132.2830538948806
 10
112.2401773807941
 20
-130.8669473956687
 10
113.3295165732301
 20
-130.1396877387324
 10
112.3249267297313
 20
-129.4175957250241
 10
111.9941975631473
 20
-128.0013169710379
 10
110.9513671597622
 20
-127.9623873920546
 10
109.7390380585027
 20
-127.9213907557801
 10
109.3235595429816
 20
-129.2556762372173
 10
108.0740234104815
 20
-129.7007825739116
 10
108.4450601942429
 20
-128.5284165802811
 10
110.0759683969602
 20
-128.1253404085069
 10
110.0759683969602
 20
-126.990181446117
 10
110.0759683969602
 20
-125.98283552623
 10
108.4450601942429
 20
-125.5797593544558
 10
107.6978189834922
 20
-124.8146036471818
 10
106.8616943092221
 20
-125.4987996105524
 10
105.4044189189614
 20
-126.1867851789568
 10
105.4044189189614
 20
-127.0349676874253
 10
105.4044189189614
 20
-128.1253404085069
 10
107.4063639054401
 20
-129.0107299482161
 10
107.3619221736804
 20
-129.7807087891694
 10
106.1092854552435
 20
-129.3366359811207
 10
105.9025797261285
 20
-128.0833102435868
 10
104.8153075909837
 20
-128.0443806646035
 10
103.771443658953
 20
-128.0443806646035
 10
103.4169433335208
 20
-129.657718880346
 10
102.2490559640211
 20
-130.3019517360877
 10
103.4996256251668
 20
-131.1129272133155
 10
104.0236246484733
 20
-132.4036322368644
 10
104.860782851389
 20
-132.4422173062992
 10
105.942887343306
 20
-132.5235215597511
 10
106.2915310064132
 20
-130.7312106335498
 10
107.5421006675589
 20
-130.6109768011146
 10
107.5421006675589
 20
-130.6109768011146
 10
107.5421006675589
 20
-131.1773504988897
 10
107.5421006675589
 20
-131.1773504988897
 10
107.0087998864422
 20
-131.2347113387191
 10
106.8785752770998
 20
-131.8369140295408
 10
107.1579725209536
 20
-132.198649055492
 10
106.6200208609318
 20
-132.6282524625027
 10
106.1719861930751
 20
-133.2194308477715
 10
105.940303521692
 20
-133.7944172842597
 10
104.4413424760598
 20
-133.2135741854466
 10
102.9096530233177
 20
-133.2252875100965
 10
101.7434882015607
 20
-133.7069118589344
 10
101.4089694299429
 20
-133.84574920699
 10
101.4530666521541
 20
-133.9745957781383
 10
101.782417780544
 20
-133.9745957781383
 10
104.0017482921419
 20
-133.9745957781383
 10
105.8159355746745
 20
-134.7883273317543
 10
106.8301716855321
 20
-136.8963812591787
 10
106.4519002012516
 20
-136.8963812591787
 10
106.3864433870319
 20
-136.8963812591787
 10
105.9985256353927
 20
-136.8963812591787
 10
104.7420993119221
 20
-133.7475639856603
 10
99.43217364050655
 20
-133.5980468416005
 10
98.2718654810744
 20
-136.9015489024066
 10
98.03363712826938
 20
-136.9018934119551
 10
97.37510712626387
 20
-136.9015489024066
 10
96.58152938123656
 20
-136.9008598833095
 10
96.88624807690691
 20
-133.2645615986283
 10
97.73632538789231
 20
-131.6929090382573
 10
100.5292642977844
 20
-128.3370415260755
 10
103.3749131686007
 20
-124.9191622951591
 10
105.6838161628152
 20
-123.3805826514465
 10
106.2426106505227
 20
-119.4927923963421
 10
106.570928250267
 20
-117.1987033127142
 10
106.2508788796873
 20
-114.4136881224382
 10
104.2482448741115
 20
-113.2695719117868
 10
103.3459743665246
 20
-112.7531520985478
 10
103.4565619316011
 20
-112.9636474326966
 10
103.806239123354
 20
-113.6171820462485
 10
104.7477837194728
 20
-115.3700466291436
 10
104.2199950911325
 20
-117.9483560903046
 10
103.1799207641356
 20
-119.3394856472485
 10
103.3187581121911
 20
-116.6778048753444
 10
101.6878499094739
 20
-115.6597791594531
 10
101.1200981735047
 20
-115.4048420935446
 10
99.07853458894564
 20
-114.4891357135652
 10
97.12757701564867
 20
-115.4048420935446
 10
96.48782278403777
 20
-117.0192138379327
 10
96.48506670764957
 20
-117.0254150098062
 10
96.48179386693859
 20
-117.0307549078083
 10
96.47869328100185
 20
-117.0360948058104
 10
96.47869328100185
 20
-117.0360948058104
 10
96.47869328100185
 20
-112.1667968469583
 10
96.47869328100185
 20
-112.1667968469583
 97
        0
 92
        1
 93
        1
 72
     4
 94
        3
 73
     0
 74
     1
 95
       29
 96
       25
 40
0.0
 40
0.0
 40
0.0
 40
0.0
 40
1.0
 40
1.0
 40
1.0
 40
2.0
 40
2.0
 40
2.0
 40
3.0
 40
3.0
 40
3.0
 40
4.0
 40
4.0
 40
4.0
 40
5.0
 40
5.0
 40
5.0
 40
6.0
 40
6.0
 40
6.0
 40
7.0
 40
7.0
 40
7.0
 40
8.0
 40
8.0
 40
8.0
 40
8.0
 10
96.47869328100185
 20
-120.3613009681736
 10
96.74275984994625
 20
-120.5707627736768
 10
97.07951793362943
 20
-120.6866902367554
 10
97.44142521435492
 20
-120.6499999698375
 10
98.17902015774692
 20
-120.5766194360017
 10
98.71645505344588
 20
-119.9168836505763
 10
98.64307451961007
 20
-119.1785996880873
 10
98.57210555261392
 20
-118.4723551136111
 10
97.96404619946733
 20
-117.9507676571443
 10
97.26365828731603
 20
-117.9721272491528
 10
97.75458439396414
 20
-115.6156819372419
 10
101.1542046188087
 20
-115.2487792680628
 10
101.9317626698296
 20
-118.167808672715
 10
102.1339897748137
 20
-118.9274522272126
 10
102.1016058772524
 20
-119.8645181992005
 10
101.8456352826983
 20
-120.9042480166489
 10
101.3088894060964
 20
-123.3416530724632
 10
99.5853081348259
 20
-125.2895100598235
 10
98.511127362525
 20
-127.5133191955522
 10
97.47983802901547
 20
-129.4804687176299
 10
96.95962861074274
 20
-130.4902262043566
 10
96.47869328100185
 20
-132.4625433696621
 10
96.47869328100185
 20
-132.4625433696621
 10
96.47869328100185
 20
-120.3613009681736
 10
96.47869328100185
 20
-120.3613009681736
 97
        0
 92
        1
 93
        1
 72
     4
 94
        3
 73
     0
 74
     1
 95
       29
 96
       25
 40
0.0
 40
0.0
 40
0.0
 40
0.0
 40
1.0
 40
1.0
 40
1.0
 40
2.0
 40
2.0
 40
2.0
 40
3.0
 40
3.0
 40
3.0
 40
4.0
 40
4.0
 40
4.0
 40
5.0
 40
5.0
 40
5.0
 40
6.0
 40
6.0
 40
6.0
 40
7.0
 40
7.0
 40
7.0
 40
8.0
 40
8.0
 40
8.0
 40
8.0
 10
83.36717662846377
 20
-118.167808672715
 10
84.14473467948466
 20
-115.2487792680628
 10
87.5443549043292
 20
-115.6156819372419
 10
88.0352810109773
 20
-117.9721272491528
 10
87.334893098826
 20
-117.9507676571443
 10
86.7268337456794
 20
-118.4723551136111
 10
86.65586477868327
 20
-119.1785996880873
 10
86.58248424484744
 20
-119.9168836505763
 10
87.11991914054641
 20
-120.5766194360017
 10
87.8575140839384
 20
-120.6499999698375
 10
88.25266653609656
 20
-120.6901353322407
 10
88.62163626256682
 20
-120.553192786702
 10
88.89397106067581
 20
-120.3049736569897
 10
88.89397106067581
 20
-120.3049736569897
 10
88.89397106067581
 20
-130.2704291123977
 10
88.89397106067581
 20
-130.2704291123977
 10
88.18376462639156
 20
-128.7046332143516
 10
87.2389471895618
 20
-127.4232299486129
 10
86.23556312948278
 20
-126.4760009449435
 10
85.19703909545422
 20
-124.6614691528624
 10
83.90512828848553
 20
-122.9561468876637
 10
83.45330401559501
 20
-120.9042480166489
 10
83.19733342104095
 20
-119.8645181992005
 10
83.1649495234796
 20
-118.9274522272126
 10
83.36717662846377
 20
-118.167808672715
 97
        0
 92
        1
 93
        1
 72
     4
 94
        3
 73
     0
 74
     1
 95
       14
 96
       10
 40
0.0
 40
0.0
 40
0.0
 40
0.0
 40
1.0
 40
1.0
 40
1.0
 40
2.0
 40
2.0
 40
2.0
 40
3.0
 40
3.0
 40
3.0
 40
3.0
 10
80.29191214355549
 20
-126.9552137269418
 10
80.24540335450463
 20
-126.9378159947412
 10
80.24075247559954
 20
-126.9288587464796
 10
80.28726126465041
 20
-126.9286864917053
 10
82.9422241003582
 20
-126.9233465937032
 10
86.30997719196418
 20
-128.4479736007005
 10
87.8084214732736
 20
-130.9280978405319
 10
85.81629500892788
 20
-128.9328707902494
 10
82.5215779416092
 20
-127.7878933057266
 10
80.29191214355549
 20
-126.9552137269418
 97
        0
 92
        1
 93
        1
 72
     4
 94
        3
 73
     0
 74
     1
 95
       14
 96
       10
 40
0.0
 40
0.0
 40
0.0
 40
0.0
 40
1.0
 40
1.0
 40
1.0
 40
2.0
 40
2.0
 40
2.0
 40
3.0
 40
3.0
 40
3.0
 40
3.0
 10
82.49315590385588
 20
-132.7212700406044
 10
82.44974770074174
 20
-132.8008517463137
 10
82.3929036252351
 20
-132.8576958218203
 10
82.40737302627316
 20
-132.715757887828
 10
82.65541990121115
 20
-130.2840372395644
 10
87.11819659280378
 20
-130.3376084743601
 10
88.06335853918208
 20
-132.4456624017844
 10
86.46552325312321
 20
-130.861262988118
 10
83.2140421341444
 20
-131.4011094506567
 10
82.49315590385588
 20
-132.7212700406044
 97
        0
 92
        1
 93
        1
 72
     4
 94
        3
 73
     0
 74
     1
 95
       62
 96
       58
 40
0.0
 40
0.0
 40
0.0
 40
0.0
 40
1.0
 40
1.0
 40
1.0
 40
2.0
 40
2.0
 40
2.0
 40
3.0
 40
3.0
 40
3.0
 40
4.0
 40
4.0
 40
4.0
 40
5.0
 40
5.0
 40
5.0
 40
6.0
 40
6.0
 40
6.0
 40
7.0
 40
7.0
 40
7.0
 40
8.0
 40
8.0
 40
8.0
 40
9.0
 40
9.0
 40
9.0
 40
10.0
 40
10.0
 40
10.0
 40
11.0
 40
11.0
 40
11.0
 40
12.0
 40
12.0
 40
12.0
 40
13.0
 40
13.0
 40
13.0
 40
14.0
 40
14.0
 40
14.0
 40
15.0
 40
15.0
 40
15.0
 40
16.0
 40
16.0
 40
16.0
 40
17.0
 40
17.0
 40
17.0
 40
18.0
 40
18.0
 40
18.0
 40
19.0
 40
19.0
 40
19.0
 40
19.0
 10
117.2042154654906
 20
-138.2723523959875
 10
120.9028699784548
 20
-137.3263291757379
 10
126.1022080847939
 20
-134.6932426963614
 10
128.2392008142944
 20
-128.9196071726312
 10
128.2857096033453
 20
-128.9202961917283
 10
128.3332519210417
 20
-128.9156453128232
 10
128.379416200544
 20
-128.9178846248886
 10
130.2521701063258
 20
-129.0098686743448
 10
130.7765136391809
 20
-130.4654215168628
 10
130.0027451931938
 20
-131.9447455182291
 10
129.6582356446688
 20
-132.6024142463633
 10
128.8093641171032
 20
-133.1525959953577
 10
127.978407086061
 20
-132.6637369460007
 10
127.8492160053641
 20
-132.5879448453252
 10
127.7214029628613
 20
-132.5390244894347
 10
127.7331162875112
 20
-132.8570068027232
 10
127.7741129237857
 20
-133.8860568241674
 10
129.0450086482943
 20
-134.7263156130198
 10
130.3713704101155
 20
-134.6119384429095
 10
130.3713704101155
 20
-134.6119384429095
 10
130.3589680663686
 20
-135.0477430217936
 10
130.508829719977
 20
-135.3664143541792
 10
130.6983099716657
 20
-135.770524054599
 10
130.9125949108482
 20
-135.7402072143288
 10
131.2595160262129
 20
-135.5241997274037
 10
132.0773816944112
 20
-135.0170816719749
 10
132.7891384216638
 20
-133.8309352964034
 10
132.6217067810807
 20
-132.3819281353073
 10
132.5414360562744
 20
-132.087716980867
 10
132.4108669373834
 20
-131.8930690859503
 10
132.5373019416921
 20
-131.647433777852
 10
132.5948350362957
 20
-131.9378553272586
 10
132.6850965380093
 20
-132.2193196284035
 10
132.7546874668113
 20
-132.5080186300675
 10
133.3992648321016
 20
-135.1762450833934
 10
132.2906331049482
 20
-137.5299343189161
 10
129.9303981880035
 20
-137.8799560202175
 10
129.061200597075
 20
-138.0094916104629
 10
128.1210340391503
 20
-137.7590331686852
 10
127.3961859490537
 20
-137.3177164370248
 10
127.6762722120045
 20
-137.113766784298
 10
127.8750542215035
 20
-136.8012966237858
 10
127.9198404628117
 20
-136.4316378782185
 10
128.0056233403944
 20
-135.7243597750967
 10
127.5029839090965
 20
-135.0818494670976
 10
126.7963948250717
 20
-134.9960665895149
 10
125.669159582298
 20
-134.8592962987505
 10
124.2676947388984
 20
-136.5415364241979
 10
126.3695474944493
 20
-138.2055175435736
 10
126.4722113399097
 20
-138.2868217970255
 10
126.5824543954377
 20
-138.3620971333782
 10
126.6954535273539
 20
-138.4342718837942
 10
126.6954535273539
 20
-138.4342718837942
 10
117.2042154654906
 20
-138.4342718837942
 10
117.2042154654906
 20
-138.4342718837942
 10
117.2042154654906
 20
-138.4342718837942
 10
117.2042154654906
 20
-138.2723523959875
 10
117.2042154654906
 20
-138.2723523959875
 97
        0
 75
     2
 76
     1
 98
        0
  0
SPLINE
  5
48
330
3C
100
AcDbEntity
  8
Layer 1
370
     0
100
AcDbSpline
210
0.0
220
0.0
230
1.0
 70
    11
 71
     3
 72
    92
 73
    88
 74
     0
 42
0.0000000001
 43
0.0000000001
 40
0.0
 40
0.0
 40
0.0
 40
0.0
 40
1.0
 40
1.0
 40
1.0
 40
2.0
 40
2.0
 40
2.0
 40
3.0
 40
3.0
 40
3.0
 40
4.0
 40
4.0
 40
4.0
 40
5.0
 40
5.0
 40
5.0
 40
6.0
 40
6.0
 40
6.0
 40
7.0
 40
7.0
 40
7.0
 40
8.0
 40
8.0
 40
8.0
 40
9.0
 40
9.0
 40
9.0
 40
10.0
 40
10.0
 40
10.0
 40
11.0
 40
11.0
 40
11.0
 40
12.0
 40
12.0
 40
12.0
 40
13.0
 40
13.0
 40
13.0
 40
14.0
 40
14.0
 40
14.0
 40
15.0
 40
15.0
 40
15.0
 40
16.0
 40
16.0
 40
16.0
 40
17.0
 40
17.0
 40
17.0
 40
18.0
 40
18.0
 40
18.0
 40
19.0
 40
19.0
 40
19.0
 40
20.0
 40
20.0
 40
20.0
 40
21.0
 40
21.0
 40
21.0
 40
22.0
 40
22.0
 40
22.0
 40
23.0
 40
23.0
 40
23.0
 40
24.0
 40
24.0
 40
24.0
 40
25.0
 40
25.0
 40
25.0
 40
26.0
 40
26.0
 40
26.0
 40
27.0
 40
27.0
 40
27.0
 40
28.0
 40
28.0
 40
28.0
 40
29.0
 40
29.0
 40
29.0
 40
29.0
 10
73.3572794412961
 20
-152.0399874836914
 30
0.0
 10
73.3572794412961
 20
-152.0399874836914
 30
0.0
 10
88.78321124082504
 20
-152.0399874836914
 30
0.0
 10
88.78321124082504
 20
-152.0399874836914
 30
0.0
 10
88.76805282068993
 20
-153.8111110726583
 30
0.0
 10
88.63593340883061
 20
-155.6080728777646
 30
0.0
 10
87.43583439654383
 20
-156.998168906063
 30
0.0
 10
85.81732853757345
 20
-158.5133219004758
 30
0.0
 10
83.05108911769209
 20
-158.7596462276712
 30
0.0
 10
82.43286673286401
 20
-155.8371717275338
 30
0.0
 10
82.37102726890377
 20
-155.5377929298656
 30
0.0
 10
82.35845267038262
 20
-155.288023507185
 30
0.0
 10
82.39152558704102
 20
-154.9793429517066
 30
0.0
 10
82.4127129242753
 20
-154.7671250698152
 30
0.0
 10
82.32693004669258
 20
-154.6592935811269
 30
0.0
 10
82.03599173296323
 20
-154.80571013925
 30
0.0
 10
80.53875323507364
 20
-155.5539848786462
 30
0.0
 10
80.37924531410658
 20
-156.6198974217825
 30
0.0
 10
80.22059866701083
 20
-158.0044812973044
 30
0.0
 10
79.97082924433022
 20
-157.9118082287512
 30
0.0
 10
79.70572914674024
 20
-157.8277478989111
 30
0.0
 10
79.46732853916095
 20
-157.9421250690214
 30
0.0
 10
79.22754989338756
 20
-159.0976100947742
 30
0.0
 10
80.14756264272353
 20
-160.3895209017429
 30
0.0
 10
80.14756264272353
 20
-160.3895209017429
 30
0.0
 10
78.9958672220045
 20
-160.2737656934385
 30
0.0
 10
76.94861922989479
 20
-158.0378987235114
 30
0.0
 10
78.39642060757103
 20
-155.4092908682657
 30
0.0
 10
78.49236651683525
 20
-155.5725883942666
 30
0.0
 10
78.60260957236324
 20
-155.7334743534277
 30
0.0
 10
78.73662378673946
 20
-155.8657660200613
 30
0.0
 10
80.17874075686504
 20
-157.2841118313387
 30
0.0
 10
82.13555499248695
 20
-153.9378905865155
 30
0.0
 10
80.40783960663416
 20
-152.999791085882
 30
0.0
 10
79.08475068552396
 20
-152.2821776963045
 30
0.0
 10
77.399582228914
 20
-153.5399820579692
 30
0.0
 10
76.84285479849763
 20
-155.0902750263316
 30
0.0
 10
75.49806177583035
 20
-158.8337157806041
 30
0.0
 10
78.22554387150265
 20
-161.5742892391203
 30
0.0
 10
80.0383531158411
 20
-162.1795925158787
 30
0.0
 10
78.5504163757617
 20
-162.28673498547
 30
0.0
 10
77.99317218102254
 20
-163.548673461717
 30
0.0
 10
76.6735283553976
 20
-164.1415743947285
 30
0.0
 10
76.28578285853273
 20
-164.3165852453792
 30
0.0
 10
76.38379582508809
 20
-164.6207871767268
 30
0.0
 10
76.70866832934715
 20
-164.4426757401394
 30
0.0
 10
77.65038518024018
 20
-163.9255669078033
 30
0.0
 10
78.51010875858428
 20
-164.9081081401966
 30
0.0
 10
79.34881725446836
 20
-165.0665825325181
 30
0.0
 10
80.51033119732034
 20
-165.3973116991021
 30
0.0
 10
81.50079614932966
 20
-165.4324516730516
 30
0.0
 10
82.65128578662885
 20
-164.8857150195425
 30
0.0
 10
82.77789304571178
 20
-165.2047308614766
 30
0.0
 10
82.53845890948692
 20
-165.5974717467951
 30
0.0
 10
82.60288219506108
 20
-165.8720458569695
 30
0.0
 10
84.56141897842562
 20
-165.7669704446694
 30
0.0
 10
87.31094968520351
 20
-163.6861327715785
 30
0.0
 10
88.89397106067581
 20
-160.1962510450204
 30
0.0
 10
88.89397106067581
 20
-160.1962510450204
 30
0.0
 10
88.89397106067581
 20
-160.3209635015864
 30
0.0
 10
88.89397106067581
 20
-160.3209635015864
 30
0.0
 10
88.89397106067581
 20
-164.6424912782838
 30
0.0
 10
87.74744328318467
 20
-167.2883246109557
 30
0.0
 10
83.60230439533207
 20
-167.4647134998005
 30
0.0
 10
83.60230439533207
 20
-167.4647134998005
 30
0.0
 10
83.60230439533207
 20
-170.4633246101619
 30
0.0
 10
83.60230439533207
 20
-170.4633246101619
 30
0.0
 10
83.60230439533207
 20
-170.4633246101619
 30
0.0
 10
112.0007432445693
 20
-170.4633246101619
 30
0.0
 10
112.0007432445693
 20
-170.4633246101619
 30
0.0
 10
118.0861599097146
 20
-170.4633246101619
 30
0.0
 10
132.0208821284531
 20
-167.7292968330677
 30
0.0
 10
132.0208821284531
 20
-154.1473523920187
 30
0.0
 10
132.0208821284531
 20
-153.7897514806498
 30
0.0
 10
132.0036566510269
 20
-153.0314859643463
 30
0.0
 10
131.8644747934228
 20
-152.0399874836914
 30
0.0
 10
131.8644747934228
 20
-152.0399874836914
 30
0.0
 10
142.2659070824891
 20
-152.0399874836914
 30
0.0
 10
142.2659070824891
 20
-152.0399874836914
 30
0.0
 10
142.2659070824891
 20
-152.0399874836914
 30
0.0
 10
142.2659070824891
 20
-150.4283718156915
 30
0.0
 10
142.2659070824891
 20
-150.4283718156915
 30
0.0
 10
142.2659070824891
 20
-150.4283718156915
 30
0.0
 10
73.3572794412961
 20
-150.4283718156915
 30
0.0
 10
73.3572794412961
 20
-150.4283718156915
 30
0.0
 10
73.3572794412961
 20
-150.4283718156915
 30
0.0
 10
73.3572794412961
 20
-152.0399874836914
 30
0.0
 10
73.3572794412961
 20
-152.0399874836914
 30
0.0
  0
SPLINE
  5
49
330
3C
100
AcDbEntity
  8
Layer 1
370
     0
100
AcDbSpline
210
0.0
220
0.0
230
1.0
 70
    11
 71
     3
 72
    14
 73
    10
 74
     0
 42
0.0000000001
 43
0.0000000001
 40
0.0
 40
0.0
 40
0.0
 40
0.0
 40
1.0
 40
1.0
 40
1.0
 40
2.0
 40
2.0
 40
2.0
 40
3.0
 40
3.0
 40
3.0
 40
3.0
 10
80.28726126465041
 20
-163.5379936657127
 30
0.0
 10
80.24075247559954
 20
-163.5352375893245
 30
0.0
 10
80.24419757108478
 20
-163.5252468124173
 30
0.0
 10
80.29191214355549
 20
-163.5114664304763
 30
0.0
 10
82.87211640723336
 20
-162.7687038438564
 30
0.0
 10
85.89759926237977
 20
-161.6717854413529
 30
0.0
 10
87.8084214732736
 20
-159.5385823168862
 30
0.0
 10
86.51737194017622
 20
-162.0211181235572
 30
0.0
 10
83.08243948660787
 20
-163.7033582490047
 30
0.0
 10
80.28726126465041
 20
-163.5379936657127
 30
0.0
  0
SPLINE
  5
4A
330
3C
100
AcDbEntity
  8
Layer 1
370
     0
100
AcDbSpline
210
0.0
220
0.0
230
1.0
 70
    11
 71
     3
 72
    14
 73
    10
 74
     0
 42
0.0000000001
 43
0.0000000001
 40
0.0
 40
0.0
 40
0.0
 40
0.0
 40
1.0
 40
1.0
 40
1.0
 40
2.0
 40
2.0
 40
2.0
 40
3.0
 40
3.0
 40
3.0
 40
3.0
 10
82.40737302627316
 20
-157.7509222695901
 30
0.0
 10
82.3934203895579
 20
-157.6089843355978
 30
0.0
 10
82.44871417209616
 20
-157.6665174302014
 30
0.0
 10
82.49315590385588
 20
-157.7454101168136
 30
0.0
 10
83.3022365785668
 20
-159.1823594437114
 30
0.0
 10
86.46552325312321
 20
-159.6054171693
 30
0.0
 10
88.06335853918208
 20
-158.0210177556336
 30
0.0
 10
87.11819659280378
 20
-160.129071683058
 30
0.0
 10
82.65541990121115
 20
-160.2703205979533
 30
0.0
 10
82.40737302627316
 20
-157.7509222695901
 30
0.0
  0
SPLINE
  5
4B
330
3C
100
AcDbEntity
  8
Layer 1
370
     0
100
AcDbSpline
210
0.0
220
0.0
230
1.0
 70
    11
 71
     3
 72
   107
 73
   103
 74
     0
 42
0.0000000001
 43
0.0000000001
 40
0.0
 40
0.0
 40
0.0
 40
0.0
 40
1.0
 40
1.0
 40
1.0
 40
2.0
 40
2.0
 40
2.0
 40
3.0
 40
3.0
 40
3.0
 40
4.0
 40
4.0
 40
4.0
 40
5.0
 40
5.0
 40
5.0
 40
6.0
 40
6.0
 40
6.0
 40
7.0
 40
7.0
 40
7.0
 40
8.0
 40
8.0
 40
8.0
 40
9.0
 40
9.0
 40
9.0
 40
10.0
 40
10.0
 40
10.0
 40
11.0
 40
11.0
 40
11.0
 40
12.0
 40
12.0
 40
12.0
 40
13.0
 40
13.0
 40
13.0
 40
14.0
 40
14.0
 40
14.0
 40
15.0
 40
15.0
 40
15.0
 40
16.0
 40
16.0
 40
16.0
 40
17.0
 40
17.0
 40
17.0
 40
18.0
 40
18.0
 40
18.0
 40
19.0
 40
19.0
 40
19.0
 40
20.0
 40
20.0
 40
20.0
 40
21.0
 40
21.0
 40
21.0
 40
22.0
 40
22.0
 40
22.0
 40
23.0
 40
23.0
 40
23.0
 40
24.0
 40
24.0
 40
24.0
 40
25.0
 40
25.0
 40
25.0
 40
26.0
 40
26.0
 40
26.0
 40
27.0
 40
27.0
 40
27.0
 40
28.0
 40
28.0
 40
28.0
 40
29.0
 40
29.0
 40
29.0
 40
30.0
 40
30.0
 40
30.0
 40
31.0
 40
31.0
 40
31.0
 40
32.0
 40
32.0
 40
32.0
 40
33.0
 40
33.0
 40
33.0
 40
34.0
 40
34.0
 40
34.0
 40
34.0
 10
123.2014376862135
 20
-154.1473523920187
 30
0.0
 10
123.2014376862135
 20
-165.789019055775
 30
0.0
 10
112.618104355526
 20
-167.0237412776885
 30
0.0
 10
108.2967488336029
 20
-167.0237412776885
 30
0.0
 10
108.2967488336029
 20
-167.0237412776885
 30
0.0
 10
96.47869328100185
 20
-167.0237412776885
 30
0.0
 10
96.47869328100185
 20
-167.0237412776885
 30
0.0
 10
96.47869328100185
 20
-167.0237412776885
 30
0.0
 10
96.47869328100185
 20
-152.0399874836914
 30
0.0
 10
96.47869328100185
 20
-152.0399874836914
 30
0.0
 10
96.47869328100185
 20
-152.0399874836914
 30
0.0
 10
98.31510142941428
 20
-152.0399874836914
 30
0.0
 10
98.31510142941428
 20
-152.0399874836914
 30
0.0
 10
99.53914385532356
 20
-155.1943169099862
 30
0.0
 10
104.6368516448477
 20
-155.0534125046394
 30
0.0
 10
105.9525336106646
 20
-152.0399874836914
 30
0.0
 10
105.9525336106646
 20
-152.0399874836914
 30
0.0
 10
106.7766004507364
 20
-152.0399874836914
 30
0.0
 10
106.7766004507364
 20
-152.0399874836914
 30
0.0
 10
105.7532348368429
 20
-154.0701822531491
 30
0.0
 10
103.9645412609012
 20
-154.8597981383684
 30
0.0
 10
101.782417780544
 20
-154.8597981383684
 30
0.0
 10
101.4530666521541
 20
-154.8597981383684
 30
0.0
 10
101.4089694299429
 20
-154.9886447095167
 30
0.0
 10
101.7434882015607
 20
-155.1274820575723
 30
0.0
 10
102.9096530233177
 20
-155.6091064064102
 30
0.0
 10
104.4413424760598
 20
-155.6208197310601
 30
0.0
 10
105.940303521692
 20
-155.0399766322469
 30
0.0
 10
106.1716416835265
 20
-155.6142740496381
 30
0.0
 10
106.6189873322862
 20
-156.2047634158099
 30
0.0
 10
107.1559054636624
 20
-156.6340223132721
 30
0.0
 10
106.8790920414226
 20
-156.9961018487718
 30
0.0
 10
107.0100056698621
 20
-157.5955484632053
 30
0.0
 10
107.5421006675589
 20
-157.6530815578089
 30
0.0
 10
107.5421006675589
 20
-157.6530815578089
 30
0.0
 10
107.5421006675589
 20
-158.219455255584
 30
0.0
 10
107.5421006675589
 20
-158.219455255584
 30
0.0
 10
106.2915310064132
 20
-158.0988769136003
 30
0.0
 10
105.942887343306
 20
-156.3067382421733
 30
0.0
 10
104.860782851389
 20
-156.3880424956252
 30
0.0
 10
104.0236246484733
 20
-156.42662756506
 30
0.0
 10
103.4996256251668
 20
-157.7171603338346
 30
0.0
 10
102.2490559640211
 20
-158.5281358110624
 30
0.0
 10
103.4169433335208
 20
-159.1723686668041
 30
0.0
 10
103.771443658953
 20
-160.7860513920952
 30
0.0
 10
104.8153075909837
 20
-160.7860513920952
 30
0.0
 10
105.9025797261285
 20
-160.7467773035633
 30
0.0
 10
106.1092854552435
 20
-159.4934515660294
 30
0.0
 10
107.3619221736804
 20
-159.0497232675292
 30
0.0
 10
107.4063639054401
 20
-159.8193575989341
 30
0.0
 10
105.4044189189614
 20
-160.7047471386433
 30
0.0
 10
105.4044189189614
 20
-161.7954643692734
 30
0.0
 10
105.4044189189614
 20
-162.6436468777419
 30
0.0
 10
106.8616943092221
 20
-163.3312879365977
 30
0.0
 10
107.6978189834922
 20
-164.0154838999684
 30
0.0
 10
108.4450601942429
 20
-163.2506727022429
 30
0.0
 10
110.0759683969602
 20
-162.8475965304686
 30
0.0
 10
110.0759683969602
 20
-161.8402506105816
 30
0.0
 10
110.0759683969602
 20
-160.7047471386433
 30
0.0
 10
108.4450601942429
 20
-160.301670966869
 30
0.0
 10
108.0740234104815
 20
-159.129649482787
 30
0.0
 10
109.3235595429816
 20
-159.5747558194813
 30
0.0
 10
109.7390380585027
 20
-160.9086967913701
 30
0.0
 10
110.9513671597622
 20
-160.8680446646441
 30
0.0
 10
111.9941975631473
 20
-160.8287705761122
 30
0.0
 10
112.3249267297313
 20
-159.4128363316746
 30
0.0
 10
113.3295165732301
 20
-158.6907443179662
 30
0.0
 10
112.2401773807941
 20
-157.9631401514814
 30
0.0
 10
111.9104817428557
 20
-156.5472059070438
 30
0.0
 10
110.7436279020016
 20
-156.4659016535919
 30
0.0
 10
109.6553222382112
 20
-156.3880424956252
 30
0.0
 10
109.1688747556939
 20
-157.8528970959534
 30
0.0
 10
108.0412950033716
 20
-158.2993814708418
 30
0.0
 10
108.0412950033716
 20
-158.2993814708418
 30
0.0
 10
108.0412950033716
 20
-157.6530815578089
 30
0.0
 10
108.0412950033716
 20
-157.6530815578089
 30
0.0
 10
108.5198187662728
 20
-157.4897840318081
 30
0.0
 10
108.6541774901976
 20
-156.9458034546872
 30
0.0
 10
108.3892496473819
 20
-156.6181748740399
 30
0.0
 10
108.9211723903044
 20
-156.1889159765778
 30
0.0
 10
109.363178141062
 20
-155.6029052345368
 30
0.0
 10
109.5939995385737
 20
-155.0337754603735
 30
0.0
 10
111.0919270555604
 20
-155.6146185591866
 30
0.0
 10
112.6243055273995
 20
-155.6025607249883
 30
0.0
 10
113.7908148587051
 20
-155.1209363761503
 30
0.0
 10
114.1243001016773
 20
-154.9820990280948
 30
0.0
 10
114.079513860369
 20
-154.854975004689
 30
0.0
 10
113.7522297892703
 20
-154.854975004689
 30
0.0
 10
111.6617458488207
 20
-154.854975004689
 30
0.0
 10
109.6084689396118
 20
-154.0715602913432
 30
0.0
 10
108.6355739745772
 20
-152.0399874836914
 30
0.0
 10
108.6355739745772
 20
-152.0399874836914
 30
0.0
 10
109.583664252118
 20
-152.0399874836914
 30
0.0
 10
109.583664252118
 20
-152.0399874836914
 30
0.0
 10
110.9024468038716
 20
-155.0444552563778
 30
0.0
 10
115.989130287843
 20
-155.185704171273
 30
0.0
 10
117.2173068283346
 20
-152.0399874836914
 30
0.0
 10
117.2173068283346
 20
-152.0399874836914
 30
0.0
 10
123.0677679813858
 20
-152.0399874836914
 30
0.0
 10
123.0677679813858
 20
-152.0399874836914
 30
0.0
 10
123.152517330323
 20
-152.7131591415092
 30
0.0
 10
123.2014376862135
 20
-153.4128580345635
 30
0.0
 10
123.2014376862135
 20
-154.1473523920187
 30
0.0
  0
HATCH
  5
4C
330
3C
100
AcDbEntity
  8
Layer 1
 62
   250
420
  2301728
100
AcDbHatch
 10
0.0
 20
0.0
 30
0.0
210
0.0
220
0.0
230
1.0
  2
SOLID
 70
     1
 71
     0
 91
        4
 92
        1
 93
        1
 72
     4
 94
        3
 73
     0
 74
     1
 95
       92
 96
       88
 40
0.0
 40
0.0
 40
0.0
 40
0.0
 40
1.0
 40
1.0
 40
1.0
 40
2.0
 40
2.0
 40
2.0
 40
3.0
 40
3.0
 40
3.0
 40
4.0
 40
4.0
 40
4.0
 40
5.0
 40
5.0
 40
5.0
 40
6.0
 40
6.0
 40
6.0
 40
7.0
 40
7.0
 40
7.0
 40
8.0
 40
8.0
 40
8.0
 40
9.0
 40
9.0
 40
9.0
 40
10.0
 40
10.0
 40
10.0
 40
11.0
 40
11.0
 40
11.0
 40
12.0
 40
12.0
 40
12.0
 40
13.0
 40
13.0
 40
13.0
 40
14.0
 40
14.0
 40
14.0
 40
15.0
 40
15.0
 40
15.0
 40
16.0
 40
16.0
 40
16.0
 40
17.0
 40
17.0
 40
17.0
 40
18.0
 40
18.0
 40
18.0
 40
19.0
 40
19.0
 40
19.0
 40
20.0
 40
20.0
 40
20.0
 40
21.0
 40
21.0
 40
21.0
 40
22.0
 40
22.0
 40
22.0
 40
23.0
 40
23.0
 40
23.0
 40
24.0
 40
24.0
 40
24.0
 40
25.0
 40
25.0
 40
25.0
 40
26.0
 40
26.0
 40
26.0
 40
27.0
 40
27.0
 40
27.0
 40
28.0
 40
28.0
 40
28.0
 40
29.0
 40
29.0
 40
29.0
 40
29.0
 10
73.3572794412961
 20
-152.0399874836914
 10
73.3572794412961
 20
-152.0399874836914
 10
88.78321124082504
 20
-152.0399874836914
 10
88.78321124082504
 20
-152.0399874836914
 10
88.76805282068993
 20
-153.8111110726583
 10
88.63593340883061
 20
-155.6080728777646
 10
87.43583439654383
 20
-156.998168906063
 10
85.81732853757345
 20
-158.5133219004758
 10
83.05108911769209
 20
-158.7596462276712
 10
82.43286673286401
 20
-155.8371717275338
 10
82.37102726890377
 20
-155.5377929298656
 10
82.35845267038262
 20
-155.288023507185
 10
82.39152558704102
 20
-154.9793429517066
 10
82.4127129242753
 20
-154.7671250698152
 10
82.32693004669258
 20
-154.6592935811269
 10
82.03599173296323
 20
-154.80571013925
 10
80.53875323507364
 20
-155.5539848786462
 10
80.37924531410658
 20
-156.6198974217825
 10
80.22059866701083
 20
-158.0044812973044
 10
79.97082924433022
 20
-157.9118082287512
 10
79.70572914674024
 20
-157.8277478989111
 10
79.46732853916095
 20
-157.9421250690214
 10
79.22754989338756
 20
-159.0976100947742
 10
80.14756264272353
 20
-160.3895209017429
 10
80.14756264272353
 20
-160.3895209017429
 10
78.9958672220045
 20
-160.2737656934385
 10
76.94861922989479
 20
-158.0378987235114
 10
78.39642060757103
 20
-155.4092908682657
 10
78.49236651683525
 20
-155.5725883942666
 10
78.60260957236324
 20
-155.7334743534277
 10
78.73662378673946
 20
-155.8657660200613
 10
80.17874075686504
 20
-157.2841118313387
 10
82.13555499248695
 20
-153.9378905865155
 10
80.40783960663416
 20
-152.999791085882
 10
79.08475068552396
 20
-152.2821776963045
 10
77.399582228914
 20
-153.5399820579692
 10
76.84285479849763
 20
-155.0902750263316
 10
75.49806177583035
 20
-158.8337157806041
 10
78.22554387150265
 20
-161.5742892391203
 10
80.0383531158411
 20
-162.1795925158787
 10
78.5504163757617
 20
-162.28673498547
 10
77.99317218102254
 20
-163.548673461717
 10
76.6735283553976
 20
-164.1415743947285
 10
76.28578285853273
 20
-164.3165852453792
 10
76.38379582508809
 20
-164.6207871767268
 10
76.70866832934715
 20
-164.4426757401394
 10
77.65038518024018
 20
-163.9255669078033
 10
78.51010875858428
 20
-164.9081081401966
 10
79.34881725446836
 20
-165.0665825325181
 10
80.51033119732034
 20
-165.3973116991021
 10
81.50079614932966
 20
-165.4324516730516
 10
82.65128578662885
 20
-164.8857150195425
 10
82.77789304571178
 20
-165.2047308614766
 10
82.53845890948692
 20
-165.5974717467951
 10
82.60288219506108
 20
-165.8720458569695
 10
84.56141897842562
 20
-165.7669704446694
 10
87.31094968520351
 20
-163.6861327715785
 10
88.89397106067581
 20
-160.1962510450204
 10
88.89397106067581
 20
-160.1962510450204
 10
88.89397106067581
 20
-160.3209635015864
 10
88.89397106067581
 20
-160.3209635015864
 10
88.89397106067581
 20
-164.6424912782838
 10
87.74744328318467
 20
-167.2883246109557
 10
83.60230439533207
 20
-167.4647134998005
 10
83.60230439533207
 20
-167.4647134998005
 10
83.60230439533207
 20
-170.4633246101619
 10
83.60230439533207
 20
-170.4633246101619
 10
83.60230439533207
 20
-170.4633246101619
 10
112.0007432445693
 20
-170.4633246101619
 10
112.0007432445693
 20
-170.4633246101619
 10
118.0861599097146
 20
-170.4633246101619
 10
132.0208821284531
 20
-167.7292968330677
 10
132.0208821284531
 20
-154.1473523920187
 10
132.0208821284531
 20
-153.7897514806498
 10
132.0036566510269
 20
-153.0314859643463
 10
131.8644747934228
 20
-152.0399874836914
 10
131.8644747934228
 20
-152.0399874836914
 10
142.2659070824891
 20
-152.0399874836914
 10
142.2659070824891
 20
-152.0399874836914
 10
142.2659070824891
 20
-152.0399874836914
 10
142.2659070824891
 20
-150.4283718156915
 10
142.2659070824891
 20
-150.4283718156915
 10
142.2659070824891
 20
-150.4283718156915
 10
73.3572794412961
 20
-150.4283718156915
 10
73.3572794412961
 20
-150.4283718156915
 10
73.3572794412961
 20
-150.4283718156915
 10
73.3572794412961
 20
-152.0399874836914
 10
73.3572794412961
 20
-152.0399874836914
 97
        0
 92
        1
 93
        1
 72
     4
 94
        3
 73
     0
 74
     1
 95
       14
 96
       10
 40
0.0
 40
0.0
 40
0.0
 40
0.0
 40
1.0
 40
1.0
 40
1.0
 40
2.0
 40
2.0
 40
2.0
 40
3.0
 40
3.0
 40
3.0
 40
3.0
 10
80.28726126465041
 20
-163.5379936657127
 10
80.24075247559954
 20
-163.5352375893245
 10
80.24419757108478
 20
-163.5252468124173
 10
80.29191214355549
 20
-163.5114664304763
 10
82.87211640723336
 20
-162.7687038438564
 10
85.89759926237977
 20
-161.6717854413529
 10
87.8084214732736
 20
-159.5385823168862
 10
86.51737194017622
 20
-162.0211181235572
 10
83.08243948660787
 20
-163.7033582490047
 10
80.28726126465041
 20
-163.5379936657127
 97
        0
 92
        1
 93
        1
 72
     4
 94
        3
 73
     0
 74
     1
 95
       14
 96
       10
 40
0.0
 40
0.0
 40
0.0
 40
0.0
 40
1.0
 40
1.0
 40
1.0
 40
2.0
 40
2.0
 40
2.0
 40
3.0
 40
3.0
 40
3.0
 40
3.0
 10
82.40737302627316
 20
-157.7509222695901
 10
82.3934203895579
 20
-157.6089843355978
 10
82.44871417209616
 20
-157.6665174302014
 10
82.49315590385588
 20
-157.7454101168136
 10
83.3022365785668
 20
-159.1823594437114
 10
86.46552325312321
 20
-159.6054171693
 10
88.06335853918208
 20
-158.0210177556336
 10
87.11819659280378
 20
-160.129071683058
 10
82.65541990121115
 20
-160.2703205979533
 10
82.40737302627316
 20
-157.7509222695901
 97
        0
 92
        1
 93
        1
 72
     4
 94
        3
 73
     0
 74
     1
 95
      107
 96
      103
 40
0.0
 40
0.0
 40
0.0
 40
0.0
 40
1.0
 40
1.0
 40
1.0
 40
2.0
 40
2.0
 40
2.0
 40
3.0
 40
3.0
 40
3.0
 40
4.0
 40
4.0
 40
4.0
 40
5.0
 40
5.0
 40
5.0
 40
6.0
 40
6.0
 40
6.0
 40
7.0
 40
7.0
 40
7.0
 40
8.0
 40
8.0
 40
8.0
 40
9.0
 40
9.0
 40
9.0
 40
10.0
 40
10.0
 40
10.0
 40
11.0
 40
11.0
 40
11.0
 40
12.0
 40
12.0
 40
12.0
 40
13.0
 40
13.0
 40
13.0
 40
14.0
 40
14.0
 40
14.0
 40
15.0
 40
15.0
 40
15.0
 40
16.0
 40
16.0
 40
16.0
 40
17.0
 40
17.0
 40
17.0
 40
18.0
 40
18.0
 40
18.0
 40
19.0
 40
19.0
 40
19.0
 40
20.0
 40
20.0
 40
20.0
 40
21.0
 40
21.0
 40
21.0
 40
22.0
 40
22.0
 40
22.0
 40
23.0
 40
23.0
 40
23.0
 40
24.0
 40
24.0
 40
24.0
 40
25.0
 40
25.0
 40
25.0
 40
26.0
 40
26.0
 40
26.0
 40
27.0
 40
27.0
 40
27.0
 40
28.0
 40
28.0
 40
28.0
 40
29.0
 40
29.0
 40
29.0
 40
30.0
 40
30.0
 40
30.0
 40
31.0
 40
31.0
 40
31.0
 40
32.0
 40
32.0
 40
32.0
 40
33.0
 40
33.0
 40
33.0
 40
34.0
 40
34.0
 40
34.0
 40
34.0
 10
123.2014376862135
 20
-154.1473523920187
 10
123.2014376862135
 20
-165.789019055775
 10
112.618104355526
 20
-167.0237412776885
 10
108.2967488336029
 20
-167.0237412776885
 10
108.2967488336029
 20
-167.0237412776885
 10
96.47869328100185
 20
-167.0237412776885
 10
96.47869328100185
 20
-167.0237412776885
 10
96.47869328100185
 20
-167.0237412776885
 10
96.47869328100185
 20
-152.0399874836914
 10
96.47869328100185
 20
-152.0399874836914
 10
96.47869328100185
 20
-152.0399874836914
 10
98.31510142941428
 20
-152.0399874836914
 10
98.31510142941428
 20
-152.0399874836914
 10
99.53914385532356
 20
-155.1943169099862
 10
104.6368516448477
 20
-155.0534125046394
 10
105.9525336106646
 20
-152.0399874836914
 10
105.9525336106646
 20
-152.0399874836914
 10
106.7766004507364
 20
-152.0399874836914
 10
106.7766004507364
 20
-152.0399874836914
 10
105.7532348368429
 20
-154.0701822531491
 10
103.9645412609012
 20
-154.8597981383684
 10
101.782417780544
 20
-154.8597981383684
 10
101.4530666521541
 20
-154.8597981383684
 10
101.4089694299429
 20
-154.9886447095167
 10
101.7434882015607
 20
-155.1274820575723
 10
102.9096530233177
 20
-155.6091064064102
 10
104.4413424760598
 20
-155.6208197310601
 10
105.940303521692
 20
-155.0399766322469
 10
106.1716416835265
 20
-155.6142740496381
 10
106.6189873322862
 20
-156.2047634158099
 10
107.1559054636624
 20
-156.6340223132721
 10
106.8790920414226
 20
-156.9961018487718
 10
107.0100056698621
 20
-157.5955484632053
 10
107.5421006675589
 20
-157.6530815578089
 10
107.5421006675589
 20
-157.6530815578089
 10
107.5421006675589
 20
-158.219455255584
 10
107.5421006675589
 20
-158.219455255584
 10
106.2915310064132
 20
-158.0988769136003
 10
105.942887343306
 20
-156.3067382421733
 10
104.860782851389
 20
-156.3880424956252
 10
104.0236246484733
 20
-156.42662756506
 10
103.4996256251668
 20
-157.7171603338346
 10
102.2490559640211
 20
-158.5281358110624
 10
103.4169433335208
 20
-159.1723686668041
 10
103.771443658953
 20
-160.7860513920952
 10
104.8153075909837
 20
-160.7860513920952
 10
105.9025797261285
 20
-160.7467773035633
 10
106.1092854552435
 20
-159.4934515660294
 10
107.3619221736804
 20
-159.0497232675292
 10
107.4063639054401
 20
-159.8193575989341
 10
105.4044189189614
 20
-160.7047471386433
 10
105.4044189189614
 20
-161.7954643692734
 10
105.4044189189614
 20
-162.6436468777419
 10
106.8616943092221
 20
-163.3312879365977
 10
107.6978189834922
 20
-164.0154838999684
 10
108.4450601942429
 20
-163.2506727022429
 10
110.0759683969602
 20
-162.8475965304686
 10
110.0759683969602
 20
-161.8402506105816
 10
110.0759683969602
 20
-160.7047471386433
 10
108.4450601942429
 20
-160.301670966869
 10
108.0740234104815
 20
-159.129649482787
 10
109.3235595429816
 20
-159.5747558194813
 10
109.7390380585027
 20
-160.9086967913701
 10
110.9513671597622
 20
-160.8680446646441
 10
111.9941975631473
 20
-160.8287705761122
 10
112.3249267297313
 20
-159.4128363316746
 10
113.3295165732301
 20
-158.6907443179662
 10
112.2401773807941
 20
-157.9631401514814
 10
111.9104817428557
 20
-156.5472059070438
 10
110.7436279020016
 20
-156.4659016535919
 10
109.6553222382112
 20
-156.3880424956252
 10
109.1688747556939
 20
-157.8528970959534
 10
108.0412950033716
 20
-158.2993814708418
 10
108.0412950033716
 20
-158.2993814708418
 10
108.0412950033716
 20
-157.6530815578089
 10
108.0412950033716
 20
-157.6530815578089
 10
108.5198187662728
 20
-157.4897840318081
 10
108.6541774901976
 20
-156.9458034546872
 10
108.3892496473819
 20
-156.6181748740399
 10
108.9211723903044
 20
-156.1889159765778
 10
109.363178141062
 20
-155.6029052345368
 10
109.5939995385737
 20
-155.0337754603735
 10
111.0919270555604
 20
-155.6146185591866
 10
112.6243055273995
 20
-155.6025607249883
 10
113.7908148587051
 20
-155.1209363761503
 10
114.1243001016773
 20
-154.9820990280948
 10
114.079513860369
 20
-154.854975004689
 10
113.7522297892703
 20
-154.854975004689
 10
111.6617458488207
 20
-154.854975004689
 10
109.6084689396118
 20
-154.0715602913432
 10
108.6355739745772
 20
-152.0399874836914
 10
108.6355739745772
 20
-152.0399874836914
 10
109.583664252118
 20
-152.0399874836914
 10
109.583664252118
 20
-152.0399874836914
 10
110.9024468038716
 20
-155.0444552563778
 10
115.989130287843
 20
-155.185704171273
 10
117.2173068283346
 20
-152.0399874836914
 10
117.2173068283346
 20
-152.0399874836914
 10
123.0677679813858
 20
-152.0399874836914
 10
123.0677679813858
 20
-152.0399874836914
 10
123.152517330323
 20
-152.7131591415092
 10
123.2014376862135
 20
-153.4128580345635
 10
123.2014376862135
 20
-154.1473523920187
 97
        0
 75
     2
 76
     1
 98
        0
  0
ENDBLK
  5
3F
330
3C
100
AcDbEntity
  8
0
100
AcDbBlockEnd
  0
ENDSEC
  0
SECTION
  2
ENTITIES
  0
INSERT
  5
3D
330
1F
100
AcDbEntity
  8
Layer 1
100
AcDbBlockReference
  2
block 2
 10
0.0
 20
0.0
 30
0.0
  0
ENDSEC
  0
SECTION
  2
OBJECTS
  0
DICTIONARY
  5
C
330
0
100
AcDbDictionary
281
     1
  3
ACAD_GROUP
350
D
  3
ACAD_LAYOUT
350
1A
  3
ACAD_MLINESTYLE
350
17
  3
ACAD_PLOTSETTINGS
350
19
  3
ACAD_PLOTSTYLENAME
350
E
  3
ACAD_TABLESTYLE
350
4D
  3
ACAD_VISUALSTYLE
350
2A
  0
DICTIONARY
  5
D
102
{ACAD_REACTORS
330
C
102
}
330
C
100
AcDbDictionary
281
     1
  0
DICTIONARY
  5
1A
102
{ACAD_REACTORS
330
C
102
}
330
C
100
AcDbDictionary
281
     1
  3
Layout1
350
1E
  3
Layout2
350
26
  3
Model
350
22
  0
DICTIONARY
  5
17
102
{ACAD_REACTORS
330
C
102
}
330
C
100
AcDbDictionary
281
     1
  3
Standard
350
18
  0
DICTIONARY
  5
19
102
{ACAD_REACTORS
330
C
102
}
330
C
100
AcDbDictionary
281
     1
  0
ACDBDICTIONARYWDFLT
  5
E
102
{ACAD_REACTORS
330
C
102
}
330
C
100
AcDbDictionary
281
     1
  3
Normal
350
F
100
AcDbDictionaryWithDefault
340
F
  0
DICTIONARY
  5
4D
102
{ACAD_REACTORS
330
C
102
}
330
C
100
AcDbDictionary
281
     1
  0
DICTIONARY
  5
2A
102
{ACAD_REACTORS
330
C
102
}
330
C
100
AcDbDictionary
281
     1
  3
2dWireframe
350
2F
  3
3D Hidden
350
31
  3
3dWireframe
350
30
  3
Basic
350
32
  3
Brighten
350
36
  3
ColorChange
350
3A
  3
Conceptual
350
34
  3
Dim
350
35
  3
Facepattern
350
39
  3
Flat
350
2B
  3
FlatWithEdges
350
2C
  3
Gouraud
350
2D
  3
GouraudWithEdges
350
2E
  3
Linepattern
350
38
  3
Realistic
350
33
  3
Thicken
350
37
  0
LAYOUT
  5
1E
102
{ACAD_REACTORS
330
1A
102
}
330
1A
100
AcDbPlotSettings
  1

  2
none_device
  4

  6

 40
0.0
 41
0.0
 42
0.0
 43
0.0
 44
0.0
 45
0.0
 46
0.0
 47
0.0
 48
0.0
 49
0.0
140
0.0
141
0.0
142
1.0
143
1.0
 70
   688
 72
     0
 73
     0
 74
     5
  7

 75
    16
 76
     0
 77
     2
 78
   300
147
1.0
148
0.0
149
0.0
100
AcDbLayout
  1
Layout1
 70
     1
 71
     1
 10
0.0
 20
0.0
 11
12.0
 21
9.0
 12
0.0
 22
0.0
 32
0.0
 14
1.000000000000000E+20
 24
1.000000000000000E+20
 34
1.000000000000000E+20
 15
-1.000000000000000E+20
 25
-1.000000000000000E+20
 35
-1.000000000000000E+20
146
0.0
 13
0.0
 23
0.0
 33
0.0
 16
1.0
 26
0.0
 36
0.0
 17
0.0
 27
1.0
 37
0.0
 76
     0
330
1B
  0
LAYOUT
  5
26
102
{ACAD_REACTORS
330
1A
102
}
330
1A
100
AcDbPlotSettings
  1

  2
none_device
  4

  6

 40
0.0
 41
0.0
 42
0.0
 43
0.0
 44
0.0
 45
0.0
 46
0.0
 47
0.0
 48
0.0
 49
0.0
140
0.0
141
0.0
142
1.0
143
1.0
 70
   688
 72
     0
 73
     0
 74
     5
  7

 75
    16
 76
     0
 77
     2
 78
   300
147
1.0
148
0.0
149
0.0
100
AcDbLayout
  1
Layout2
 70
     1
 71
     2
 10
0.0
 20
0.0
 11
0.0
 21
0.0
 12
0.0
 22
0.0
 32
0.0
 14
0.0
 24
0.0
 34
0.0
 15
0.0
 25
0.0
 35
0.0
146
0.0
 13
0.0
 23
0.0
 33
0.0
 16
1.0
 26
0.0
 36
0.0
 17
0.0
 27
1.0
 37
0.0
 76
     0
330
23
  0
LAYOUT
  5
22
102
{ACAD_REACTORS
330
1A
102
}
330
1A
100
AcDbPlotSettings
  1

  2
none_device
  4

  6

 40
0.0
 41
0.0
 42
0.0
 43
0.0
 44
0.0
 45
0.0
 46
0.0
 47
0.0
 48
0.0
 49
0.0
140
0.0
141
0.0
142
1.0
143
1.0
 70
  1712
 72
     0
 73
     0
 74
     0
  7

 75
     0
 76
     0
 77
     2
 78
   300
147
1.0
148
0.0
149
0.0
100
AcDbLayout
  1
Model
 70
     1
 71
     0
 10
0.0
 20
0.0
 11
12.0
 21
9.0
 12
0.0
 22
0.0
 32
0.0
 14
1.000000000000000E+20
 24
1.000000000000000E+20
 34
1.000000000000000E+20
 15
-1.000000000000000E+20
 25
-1.000000000000000E+20
 35
-1.000000000000000E+20
146
0.0
 13
0.0
 23
0.0
 33
0.0
 16
1.0
 26
0.0
 36
0.0
 17
0.0
 27
1.0
 37
0.0
 76
     0
330
1F
331
29
  0
MLINESTYLE
  5
18
102
{ACAD_REACTORS
330
17
102
}
330
17
100
AcDbMlineStyle
  2
Standard
 70
     0
  3

 62
   256
 51
90.0
 52
90.0
 71
     2
 49
0.5
 62
   256
  6
BYLAYER
 49
-0.5
 62
   256
  6
BYLAYER
  0
ACDBPLACEHOLDER
  5
F
102
{ACAD_REACTORS
330
E
102
}
330
E
  0
VISUALSTYLE
  5
2F
102
{ACAD_REACTORS
330
2A
102
}
330
2A
100
AcDbVisualStyle
  2
2dWireframe
 70
     4
 71
     0
 72
     2
 73
     0
 90
        0
 40
-0.6
 41
-30.0
 62
     5
 63
     7
421
 16777215
 74
     1
 91
        4
 64
     7
 65
   257
 75
     1
175
     1
 42
1.0
 92
        0
 66
   257
 43
1.0
 76
     1
 77
     6
 78
     2
 67
     7
 79
     5
170
     0
171
     0
290
     0
174
     0
 93
        1
 44
0.0
173
     0
291
     0
 45
0.0
1001
ACAD
1000
AcDbSavedByObjectVersion
1070
     0
  0
VISUALSTYLE
  5
31
102
{ACAD_REACTORS
330
2A
102
}
330
2A
100
AcDbVisualStyle
  2
3D Hidden
 70
     6
 71
     1
 72
     2
 73
     2
 90
        0
 40
-0.6
 41
-30.0
 62
     5
 63
     7
421
 16777215
 74
     2
 91
        2
 64
     7
 65
   257
 75
     2
175
     1
 42
40.0
 92
        0
 66
   257
 43
1.0
 76
     1
 77
     6
 78
     2
 67
     7
 79
     3
170
     0
171
     0
290
     0
174
     0
 93
        1
 44
0.0
173
     0
291
     0
 45
0.0
1001
ACAD
1000
AcDbSavedByObjectVersion
1070
     0
  0
VISUALSTYLE
  5
30
102
{ACAD_REACTORS
330
2A
102
}
330
2A
100
AcDbVisualStyle
  2
3dWireframe
 70
     5
 71
     0
 72
     2
 73
     0
 90
        0
 40
-0.6
 41
-30.0
 62
     5
 63
     7
421
 16777215
 74
     1
 91
        4
 64
     7
 65
   257
 75
     1
175
     1
 42
1.0
 92
        0
 66
   257
 43
1.0
 76
     1
 77
     6
 78
     2
 67
     7
 79
     5
170
     0
171
     0
290
     0
174
     0
 93
        1
 44
0.0
173
     0
291
     0
 45
0.0
1001
ACAD
1000
AcDbSavedByObjectVersion
1070
     0
  0
VISUALSTYLE
  5
32
102
{ACAD_REACTORS
330
2A
102
}
330
2A
100
AcDbVisualStyle
  2
Basic
 70
     7
 71
     1
 72
     0
 73
     1
 90
        0
 40
-0.6
 41
-30.0
 62
     5
 63
     7
421
 16777215
 74
     0
 91
        4
 64
     7
 65
   257
 75
     1
175
     1
 42
1.0
 92
        8
 66
     7
 43
1.0
 76
     1
 77
     6
 78
     2
 67
     7
 79
     5
170
     0
171
     0
290
     0
174
     0
 93
        1
 44
0.0
173
     0
291
     1
 45
0.0
1001
ACAD
1000
AcDbSavedByObjectVersion
1070
     0
  0
VISUALSTYLE
  5
36
102
{ACAD_REACTORS
330
2A
102
}
330
2A
100
AcDbVisualStyle
  2
Brighten
 70
    12
 71
     2
 72
     2
 73
     0
 90
        0
 40
-0.6
 41
-30.0
 62
     5
 63
     7
421
 16777215
 74
     1
 91
        4
 64
     7
 65
   257
 75
     1
175
     1
 42
1.0
 92
        8
 66
     7
 43
1.0
 76
     1
 77
     6
 78
     2
 67
     7
 79
     5
170
     0
171
     0
290
     0
174
     0
 93
        1
 44
50.0
173
     0
291
     1
 45
0.0
1001
ACAD
1000
AcDbSavedByObjectVersion
1070
     0
  0
VISUALSTYLE
  5
3A
102
{ACAD_REACTORS
330
2A
102
}
330
2A
100
AcDbVisualStyle
  2
ColorChange
 70
    16
 71
     2
 72
     2
 73
     3
 90
        0
 40
-0.6
 41
-30.0
 62
     5
 63
     8
421
  8421504
 74
     1
 91
        4
 64
     7
 65
   257
 75
     1
175
     1
 42
1.0
 92
        8
 66
     8
424
  8421504
 43
1.0
 76
     1
 77
     6
 78
     2
 67
     7
 79
     5
170
     0
171
     0
290
     0
174
     0
 93
        1
 44
0.0
173
     0
291
     1
 45
0.0
1001
ACAD
1000
AcDbSavedByObjectVersion
1070
     0
  0
VISUALSTYLE
  5
34
102
{ACAD_REACTORS
330
2A
102
}
330
2A
100
AcDbVisualStyle
  2
Conceptual
 70
     9
 71
     3
 72
     2
 73
     0
 90
        0
 40
-0.6
 41
-30.0
 62
     5
 63
     7
421
 16777215
 74
     2
 91
        2
 64
     7
 65
   257
 75
     1
175
     1
 42
40.0
 92
        8
 66
     7
 43
1.0
 76
     1
 77
     6
 78
     2
 67
     7
 79
     3
170
     0
171
     0
290
     0
174
     0
 93
        1
 44
0.0
173
     0
291
     0
 45
0.0
1001
ACAD
1000
AcDbSavedByObjectVersion
1070
     0
  0
VISUALSTYLE
  5
35
102
{ACAD_REACTORS
330
2A
102
}
330
2A
100
AcDbVisualStyle
  2
Dim
 70
    11
 71
     2
 72
     2
 73
     0
 90
        0
 40
-0.6
 41
-30.0
 62
     5
 63
     7
421
 16777215
 74
     1
 91
        4
 64
     7
 65
   257
 75
     1
175
     1
 42
1.0
 92
        8
 66
     7
 43
1.0
 76
     1
 77
     6
 78
     2
 67
     7
 79
     5
170
     0
171
     0
290
     0
174
     0
 93
        1
 44
-50.0
173
     0
291
     1
 45
0.0
1001
ACAD
1000
AcDbSavedByObjectVersion
1070
     0
  0
VISUALSTYLE
  5
39
102
{ACAD_REACTORS
330
2A
102
}
330
2A
100
AcDbVisualStyle
  2
Facepattern
 70
    15
 71
     2
 72
     2
 73
     0
 90
        0
 40
-0.6
 41
-30.0
 62
     5
 63
     7
421
 16777215
 74
     1
 91
        4
 64
     7
 65
   257
 75
     1
175
     1
 42
1.0
 92
        8
 66
     7
 43
1.0
 76
     1
 77
     6
 78
     2
 67
     7
 79
     5
170
     0
171
     0
290
     0
174
     0
 93
        1
 44
0.0
173
     0
291
     1
 45
0.0
1001
ACAD
1000
AcDbSavedByObjectVersion
1070
     0
  0
VISUALSTYLE
  5
2B
102
{ACAD_REACTORS
330
2A
102
}
330
2A
100
AcDbVisualStyle
  2
Flat
 70
     0
 71
     2
 72
     1
 73
     1
 90
        2
 40
-0.6
 41
30.0
 62
     5
 63
     7
421
 16777215
 74
     0
 91
        4
 64
     7
 65
   257
 75
     1
175
     1
 42
1.0
 92
        8
 66
     7
 43
1.0
 76
     1
 77
     6
 78
     2
 67
     7
 79
     5
170
     0
171
     0
290
     0
174
     0
 93
       13
 44
0.0
173
     0
291
     1
 45
0.0
1001
ACAD
1000
AcDbSavedByObjectVersion
1070
     0
  0
VISUALSTYLE
  5
2C
102
{ACAD_REACTORS
330
2A
102
}
330
2A
100
AcDbVisualStyle
  2
FlatWithEdges
 70
     1
 71
     2
 72
     1
 73
     1
 90
        2
 40
-0.6
 41
30.0
 62
     5
 63
     7
421
 16777215
 74
     1
 91
        4
 64
     7
 65
   257
 75
     1
175
     1
 42
1.0
 92
        0
 66
   257
 43
1.0
 76
     1
 77
     6
 78
     2
 67
     7
 79
     5
170
     0
171
     0
290
     0
174
     0
 93
       13
 44
0.0
173
     0
291
     1
 45
0.0
1001
ACAD
1000
AcDbSavedByObjectVersion
1070
     0
  0
VISUALSTYLE
  5
2D
102
{ACAD_REACTORS
330
2A
102
}
330
2A
100
AcDbVisualStyle
  2
Gouraud
 70
     2
 71
     2
 72
     2
 73
     1
 90
        2
 40
-0.6
 41
30.0
 62
     5
 63
     7
421
 16777215
 74
     0
 91
        4
 64
     7
 65
   257
 75
     1
175
     1
 42
1.0
 92
        0
 66
     7
 43
1.0
 76
     1
 77
     6
 78
     2
 67
     7
 79
     5
170
     0
171
     0
290
     0
174
     0
 93
       13
 44
0.0
173
     0
291
     1
 45
0.0
1001
ACAD
1000
AcDbSavedByObjectVersion
1070
     0
  0
VISUALSTYLE
  5
2E
102
{ACAD_REACTORS
330
2A
102
}
330
2A
100
AcDbVisualStyle
  2
GouraudWithEdges
 70
     3
 71
     2
 72
     2
 73
     1
 90
        2
 40
-0.6
 41
30.0
 62
     5
 63
     7
421
 16777215
 74
     1
 91
        4
 64
     7
 65
   257
 75
     1
175
     1
 42
1.0
 92
        0
 66
   257
 43
1.0
 76
     1
 77
     6
 78
     2
 67
     7
 79
     5
170
     0
171
     0
290
     0
174
     0
 93
       13
 44
0.0
173
     0
291
     1
 45
0.0
1001
ACAD
1000
AcDbSavedByObjectVersion
1070
     0
  0
VISUALSTYLE
  5
38
102
{ACAD_REACTORS
330
2A
102
}
330
2A
100
AcDbVisualStyle
  2
Linepattern
 70
    14
 71
     2
 72
     2
 73
     0
 90
        0
 40
-0.6
 41
-30.0
 62
     5
 63
     7
421
 16777215
 74
     1
 91
        4
 64
     7
 65
   257
 75
     7
175
     7
 42
1.0
 92
        8
 66
     7
 43
1.0
 76
     1
 77
     6
 78
     2
 67
     7
 79
     5
170
     0
171
     0
290
     0
174
     0
 93
        1
 44
0.0
173
     0
291
     1
 45
0.0
1001
ACAD
1000
AcDbSavedByObjectVersion
1070
     0
  0
VISUALSTYLE
  5
33
102
{ACAD_REACTORS
330
2A
102
}
330
2A
100
AcDbVisualStyle
  2
Realistic
 70
     8
 71
     2
 72
     2
 73
     0
 90
        0
 40
-0.6
 41
-30.0
 62
     5
 63
     7
421
 16777215
 74
     1
 91
        0
 64
     7
 65
   257
 75
     1
175
     1
 42
1.0
 92
        8
 66
     8
424
  7895160
 43
1.0
 76
     1
 77
     6
 78
     2
 67
     7
 79
     5
170
     0
171
     0
290
     0
174
     0
 93
       13
 44
0.0
173
     0
291
     0
 45
0.0
1001
ACAD
1000
AcDbSavedByObjectVersion
1070
     0
  0
VISUALSTYLE
  5
37
102
{ACAD_REACTORS
330
2A
102
}
330
2A
100
AcDbVisualStyle
  2
Thicken
 70
    13
 71
     2
 72
     2
 73
     0
 90
        0
 40
-0.6
 41
-30.0
 62
     5
 63
     7
421
 16777215
 74
     1
 91
        4
 64
     7
 65
   257
 75
     1
175
     1
 42
1.0
 92
       12
 66
     7
 43
1.0
 76
     1
 77
     6
 78
     2
 67
     7
 79
     5
170
     0
171
     0
290
     0
174
     0
 93
        1
 44
0.0
173
     0
291
     1
 45
0.0
1001
ACAD
1000
AcDbSavedByObjectVersion
1070
     0
  0
ENDSEC
  0
EOF
