  0
SECTION
  2
HEADER
  9
$ACADVER
  1
AC1021
  9
$ACADMAINTVER
 70
    25
  9
$DWGCODEPAGE
  3
ANSI_1252
  9
$INSBASE
 10
0.0
 20
0.0
 30
0.0
  9
$EXTMIN
 10
-554.1104
 20
-617.0196
 30
0.0
  9
$EXTMAX
 10
717.7595
 20
347.0871
 30
0.0
  9
$LIMMIN
 10
0.0
 20
0.0
  9
$LIMMAX
 10
12.0
 20
9.0
  9
$ORTHOMODE
 70
     0
  9
$REGENMODE
 70
     1
  9
$FILLMODE
 70
     1
  9
$QTEXTMODE
 70
     0
  9
$MIRRTEXT
 70
     1
  9
$LTSCALE
 40
1.0
  9
$ATTMODE
 70
     1
  9
$TEXTSIZE
 40
0.2
  9
$TRACEWID
 40
0.05
  9
$TEXTSTYLE
  7
Standard
  9
$CLAYER
  8
0
  9
$CELTYPE
  6
ByLayer
  9
$CECOLOR
 62
   256
  9
$CELTSCALE
 40
1.0
  9
$DISPSILH
 70
     0
  9
$DIMSCALE
 40
1.0
  9
$DIMASZ
 40
0.18
  9
$DIMEXO
 40
0.0625
  9
$DIMDLI
 40
0.38
  9
$DIMRND
 40
0.0
  9
$DIMDLE
 40
0.0
  9
$DIMEXE
 40
0.18
  9
$DIMTP
 40
0.0
  9
$DIMTM
 40
0.0
  9
$DIMTXT
 40
0.18
  9
$DIMCEN
 40
0.09
  9
$DIMTSZ
 40
0.0
  9
$DIMTOL
 70
     0
  9
$DIMLIM
 70
     0
  9
$DIMTIH
 70
     1
  9
$DIMTOH
 70
     1
  9
$DIMSE1
 70
     0
  9
$DIMSE2
 70
     0
  9
$DIMTAD
 70
     0
  9
$DIMZIN
 70
     0
  9
$DIMBLK
  1

  9
$DIMASO
 70
     1
  9
$DIMSHO
 70
     1
  9
$DIMPOST
  1

  9
$DIMAPOST
  1

  9
$DIMALT
 70
     0
  9
$DIMALTD
 70
     2
  9
$DIMALTF
 40
25.4
  9
$DIMLFAC
 40
1.0
  9
$DIMTOFL
 70
     0
  9
$DIMTVP
 40
0.0
  9
$DIMTIX
 70
     0
  9
$DIMSOXD
 70
     0
  9
$DIMSAH
 70
     0
  9
$DIMBLK1
  1

  9
$DIMBLK2
  1

  9
$DIMSTYLE
  2
Standard
  9
$DIMCLRD
 70
     0
  9
$DIMCLRE
 70
     0
  9
$DIMCLRT
 70
     0
  9
$DIMTFAC
 40
1.0
  9
$DIMGAP
 40
0.09
  9
$DIMJUST
 70
     0
  9
$DIMSD1
 70
     0
  9
$DIMSD2
 70
     0
  9
$DIMTOLJ
 70
     1
  9
$DIMTZIN
 70
     0
  9
$DIMALTZ
 70
     0
  9
$DIMALTTZ
 70
     0
  9
$DIMUPT
 70
     0
  9
$DIMDEC
 70
     4
  9
$DIMTDEC
 70
     4
  9
$DIMALTU
 70
     2
  9
$DIMALTTD
 70
     2
  9
$DIMTXSTY
  7
Standard
  9
$DIMAUNIT
 70
     0
  9
$DIMADEC
 70
     0
  9
$DIMALTRND
 40
0.0
  9
$DIMAZIN
 70
     0
  9
$DIMDSEP
 70
    46
  9
$DIMATFIT
 70
     3
  9
$DIMFRAC
 70
     0
  9
$DIMLDRBLK
  1

  9
$DIMLUNIT
 70
     2
  9
$DIMLWD
 70
    -2
  9
$DIMLWE
 70
    -2
  9
$DIMTMOVE
 70
     0
  9
$DIMFXL
 40
1.0
  9
$DIMFXLON
 70
     0
  9
$DIMJOGANG
 40
0.7853981633974483
  9
$DIMTFILL
 70
     0
  9
$DIMTFILLCLR
 70
     0
  9
$DIMARCSYM
 70
     0
  9
$DIMLTYPE
  6

  9
$DIMLTEX1
  6

  9
$DIMLTEX2
  6

  9
$LUNITS
 70
     2
  9
$LUPREC
 70
     4
  9
$SKETCHINC
 40
0.1
  9
$FILLETRAD
 40
0.5
  9
$AUNITS
 70
     0
  9
$AUPREC
 70
     0
  9
$MENU
  1
.
  9
$ELEVATION
 40
0.0
  9
$PELEVATION
 40
0.0
  9
$THICKNESS
 40
0.0
  9
$LIMCHECK
 70
     0
  9
$CHAMFERA
 40
0.0
  9
$CHAMFERB
 40
0.0
  9
$CHAMFERC
 40
0.0
  9
$CHAMFERD
 40
0.0
  9
$SKPOLY
 70
     0
  9
$TDCREATE
 40
2457516.034369769
  9
$TDUCREATE
 40
2457516.159369769
  9
$TDUPDATE
 40
2457516.034369873
  9
$TDUUPDATE
 40
2457516.159369873
  9
$TDINDWG
 40
0.0000000116
  9
$TDUSRTIMER
 40
0.0000000116
  9
$USRTIMER
 70
     1
  9
$ANGBASE
 50
0.0
  9
$ANGDIR
 70
     0
  9
$PDMODE
 70
     0
  9
$PDSIZE
 40
0.0
  9
$PLINEWID
 40
0.0
  9
$SPLFRAME
 70
     0
  9
$SPLINETYPE
 70
     6
  9
$SPLINESEGS
 70
     8
  9
$HANDSEED
  5
CB
  9
$SURFTAB1
 70
     6
  9
$SURFTAB2
 70
     6
  9
$SURFTYPE
 70
     6
  9
$SURFU
 70
     6
  9
$SURFV
 70
     6
  9
$UCSBASE
  2

  9
$UCSNAME
  2

  9
$UCSORG
 10
0.0
 20
0.0
 30
0.0
  9
$UCSXDIR
 10
1.0
 20
0.0
 30
0.0
  9
$UCSYDIR
 10
0.0
 20
1.0
 30
0.0
  9
$UCSORTHOREF
  2

  9
$UCSORTHOVIEW
 70
     0
  9
$UCSORGTOP
 10
0.0
 20
0.0
 30
0.0
  9
$UCSORGBOTTOM
 10
0.0
 20
0.0
 30
0.0
  9
$UCSORGLEFT
 10
0.0
 20
0.0
 30
0.0
  9
$UCSORGRIGHT
 10
0.0
 20
0.0
 30
0.0
  9
$UCSORGFRONT
 10
0.0
 20
0.0
 30
0.0
  9
$UCSORGBACK
 10
0.0
 20
0.0
 30
0.0
  9
$PUCSBASE
  2

  9
$PUCSNAME
  2

  9
$PUCSORG
 10
0.0
 20
0.0
 30
0.0
  9
$PUCSXDIR
 10
1.0
 20
0.0
 30
0.0
  9
$PUCSYDIR
 10
0.0
 20
1.0
 30
0.0
  9
$PUCSORTHOREF
  2

  9
$PUCSORTHOVIEW
 70
     0
  9
$PUCSORGTOP
 10
0.0
 20
0.0
 30
0.0
  9
$PUCSORGBOTTOM
 10
0.0
 20
0.0
 30
0.0
  9
$PUCSORGLEFT
 10
0.0
 20
0.0
 30
0.0
  9
$PUCSORGRIGHT
 10
0.0
 20
0.0
 30
0.0
  9
$PUCSORGFRONT
 10
0.0
 20
0.0
 30
0.0
  9
$PUCSORGBACK
 10
0.0
 20
0.0
 30
0.0
  9
$USERI1
 70
     0
  9
$USERI2
 70
     0
  9
$USERI3
 70
     0
  9
$USERI4
 70
     0
  9
$USERI5
 70
     0
  9
$USERR1
 40
0.0
  9
$USERR2
 40
0.0
  9
$USERR3
 40
0.0
  9
$USERR4
 40
0.0
  9
$USERR5
 40
0.0
  9
$WORLDVIEW
 70
     1
  9
$SHADEDGE
 70
     3
  9
$SHADEDIF
 70
    70
  9
$TILEMODE
 70
     1
  9
$MAXACTVP
 70
    64
  9
$PINSBASE
 10
0.0
 20
0.0
 30
0.0
  9
$PLIMCHECK
 70
     0
  9
$PEXTMIN
 10
1.000000000000000E+20
 20
1.000000000000000E+20
 30
1.000000000000000E+20
  9
$PEXTMAX
 10
-1.000000000000000E+20
 20
-1.000000000000000E+20
 30
-1.000000000000000E+20
  9
$PLIMMIN
 10
0.0
 20
0.0
  9
$PLIMMAX
 10
12.0
 20
9.0
  9
$UNITMODE
 70
     0
  9
$VISRETAIN
 70
     1
  9
$PLINEGEN
 70
     0
  9
$PSLTSCALE
 70
     1
  9
$TREEDEPTH
 70
  3020
  9
$CMLSTYLE
  2
Standard
  9
$CMLJUST
 70
     0
  9
$CMLSCALE
 40
1.0
  9
$PROXYGRAPHICS
 70
     1
  9
$MEASUREMENT
 70
     0
  9
$CELWEIGHT
370
    -1
  9
$ENDCAPS
280
     0
  9
$JOINSTYLE
280
     0
  9
$LWDISPLAY
290
     0
  9
$INSUNITS
 70
     4
  9
$HYPERLINKBASE
  1

  9
$STYLESHEET
  1

  9
$XEDIT
290
     1
  9
$CEPSNTYPE
380
     0
  9
$PSTYLEMODE
290
     1
  9
$FINGERPRINTGUID
  2
{CBC3C61D-A634-41FF-853C-A58EB4A70624}
  9
$VERSIONGUID
  2
{FAEB1C32-E019-11D5-929B-00C0DF256EC4}
  9
$EXTNAMES
290
     1
  9
$PSVPSCALE
 40
0.0
  9
$OLESTARTUP
290
     0
  9
$SORTENTS
280
   127
  9
$INDEXCTL
280
     0
  9
$HIDETEXT
280
     1
  9
$XCLIPFRAME
290
     0
  9
$HALOGAP
280
     0
  9
$OBSCOLOR
 70
   257
  9
$OBSLTYPE
280
     0
  9
$INTERSECTIONDISPLAY
280
     0
  9
$INTERSECTIONCOLOR
 70
   257
  9
$DIMASSOC
280
     2
  9
$PROJECTNAME
  1

  9
$CAMERADISPLAY
290
     0
  9
$LENSLENGTH
 40
50.0
  9
$CAMERAHEIGHT
 40
0.0
  9
$STEPSPERSEC
 40
2.0
  9
$STEPSIZE
 40
6.0
  9
$3DDWFPREC
 40
2.0
  9
$PSOLWIDTH
 40
0.25
  9
$PSOLHEIGHT
 40
4.0
  9
$LOFTANG1
 40
1.570796326794897
  9
$LOFTANG2
 40
1.570796326794897
  9
$LOFTMAG1
 40
0.0
  9
$LOFTMAG2
 40
0.0
  9
$LOFTPARAM
 70
     7
  9
$LOFTNORMALS
280
     1
  9
$LATITUDE
 40
37.795
  9
$LONGITUDE
 40
-122.394
  9
$NORTHDIRECTION
 40
0.0
  9
$TIMEZONE
 70
 -8000
  9
$LIGHTGLYPHDISPLAY
280
     1
  9
$TILEMODELIGHTSYNCH
280
     1
  9
$CMATERIAL
347
44
  9
$SOLIDHIST
280
     0
  9
$SHOWHIST
280
     1
  9
$DWFFRAME
280
     2
  9
$DGNFRAME
280
     2
  9
$REALWORLDSCALE
290
     1
  9
$INTERFERECOLOR
 62
   256
  9
$CSHADOW
280
     0
  9
$SHADOWPLANELOCATION
 40
0.0
  0
ENDSEC
  0
SECTION
  2
CLASSES
  0
CLASS
  1
ACDBDICTIONARYWDFLT
  2
AcDbDictionaryWithDefault
  3
ObjectDBX Classes
 90
        0
 91
        4
280
     0
281
     0
  0
CLASS
  1
VISUALSTYLE
  2
AcDbVisualStyle
  3
ObjectDBX Classes
 90
     4095
 91
        4
280
     0
281
     0
  0
CLASS
  1
MATERIAL
  2
AcDbMaterial
  3
ObjectDBX Classes
 90
     1153
 91
        4
280
     0
281
     0
  0
CLASS
  1
SCALE
  2
AcDbScale
  3
ObjectDBX Classes
 90
     1153
 91
        4
280
     0
281
     0
  0
CLASS
  1
TABLESTYLE
  2
AcDbTableStyle
  3
ObjectDBX Classes
 90
     4095
 91
        4
280
     0
281
     0
  0
CLASS
  1
MLEADERSTYLE
  2
AcDbMLeaderStyle
  3
ACDB_MLEADERSTYLE_CLASS
 90
     4095
 91
        4
280
     0
281
     0
  0
CLASS
  1
SUN
  2
AcDbSun
  3
SCENEOE
 90
     1153
 91
        4
280
     0
281
     0
  0
CLASS
  1
DICTIONARYVAR
  2
AcDbDictionaryVar
  3
ObjectDBX Classes
 90
        0
 91
        4
280
     0
281
     0
  0
CLASS
  1
CELLSTYLEMAP
  2
AcDbCellStyleMap
  3
ObjectDBX Classes
 90
     1152
 91
        4
280
     0
281
     0
  0
ENDSEC
  0
SECTION
  2
TABLES
  0
TABLE
  2
VPORT
  5
8
330
0
100
AcDbSymbolTable
 70
     1
  0
VPORT
  5
29
330
8
100
AcDbSymbolTableRecord
100
AcDbViewportTableRecord
  2
*Active
 70
     0
 10
0.0
 20
0.0
 11
1.0
 21
1.0
 12
10.42990654205607
 22
4.5
 13
0.0
 23
0.0
 14
0.5
 24
0.5
 15
0.5
 25
0.5
 16
0.0
 26
0.0
 36
1.0
 17
0.0
 27
0.0
 37
0.0
 40
9.0
 41
1.972972972850329
 42
50.0
 43
0.0
 44
0.0
 50
0.0
 51
0.0
 71
     0
 72
   100
 73
     1
 74
     3
 75
     0
 76
     0
 77
     0
 78
     0
281
     0
 65
     1
110
0.0
120
0.0
130
0.0
111
1.0
121
0.0
131
0.0
112
0.0
122
1.0
132
0.0
 79
     0
146
0.0
348
2F
 60
     3
 61
     5
292
     1
282
     1
141
0.0
142
0.0
 63
   250
361
6D
  0
ENDTAB
  0
TABLE
  2
LTYPE
  5
5
330
0
100
AcDbSymbolTable
 70
     1
  0
LTYPE
  5
14
330
5
100
AcDbSymbolTableRecord
100
AcDbLinetypeTableRecord
  2
ByBlock
 70
     0
  3

 72
    65
 73
     0
 40
0.0
  0
LTYPE
  5
15
330
5
100
AcDbSymbolTableRecord
100
AcDbLinetypeTableRecord
  2
ByLayer
 70
     0
  3

 72
    65
 73
     0
 40
0.0
  0
LTYPE
  5
16
330
5
100
AcDbSymbolTableRecord
100
AcDbLinetypeTableRecord
  2
Continuous
 70
     0
  3
Solid line
 72
    65
 73
     0
 40
0.0
  0
ENDTAB
  0
TABLE
  2
LAYER
  5
2
330
0
100
AcDbSymbolTable
 70
     2
  0
LAYER
  5
10
330
2
100
AcDbSymbolTableRecord
100
AcDbLayerTableRecord
  2
0
 70
     0
 62
     7
  6
Continuous
370
    -3
390
F
347
46
  0
LAYER
  5
6F
330
2
100
AcDbSymbolTableRecord
100
AcDbLayerTableRecord
  2
Layer 1
 70
     0
 62
     7
  6
Continuous
370
    -3
390
F
347
46
  0
ENDTAB
  0
TABLE
  2
STYLE
  5
3
330
0
100
AcDbSymbolTable
 70
     1
  0
STYLE
  5
11
330
3
100
AcDbSymbolTableRecord
100
AcDbTextStyleTableRecord
  2
Standard
 70
     0
 40
0.0
 41
1.0
 50
0.0
 71
     0
 42
0.2
  3
txt
  4

  0
ENDTAB
  0
TABLE
  2
VIEW
  5
6
330
0
100
AcDbSymbolTable
 70
     0
  0
ENDTAB
  0
TABLE
  2
UCS
  5
7
330
0
100
AcDbSymbolTable
 70
     0
  0
ENDTAB
  0
TABLE
  2
APPID
  5
9
330
0
100
AcDbSymbolTable
 70
     3
  0
APPID
  5
12
330
9
100
AcDbSymbolTableRecord
100
AcDbRegAppTableRecord
  2
ACAD
 70
     0
  0
APPID
  5
6E
330
9
100
AcDbSymbolTableRecord
100
AcDbRegAppTableRecord
  2
ODA
 70
     0
  0
APPID
  5
C3
330
9
100
AcDbSymbolTableRecord
100
AcDbRegAppTableRecord
  2
ACAD_MLEADERVER
 70
     0
  0
ENDTAB
  0
TABLE
  2
DIMSTYLE
  5
A
330
0
100
AcDbSymbolTable
 70
     1
100
AcDbDimStyleTable
  0
DIMSTYLE
105
27
330
A
100
AcDbSymbolTableRecord
100
AcDbDimStyleTableRecord
  2
Standard
 70
     0
178
     0
340
11
  0
ENDTAB
  0
TABLE
  2
BLOCK_RECORD
  5
1
330
0
100
AcDbSymbolTable
 70
     1
  0
BLOCK_RECORD
  5
1F
330
1
100
AcDbSymbolTableRecord
100
AcDbBlockTableRecord
  2
*Model_Space
340
22
 70
     0
280
     1
281
     0
  0
BLOCK_RECORD
  5
1B
330
1
100
AcDbSymbolTableRecord
100
AcDbBlockTableRecord
  2
*Paper_Space
340
1E
 70
     0
280
     1
281
     0
  0
BLOCK_RECORD
  5
23
330
1
100
AcDbSymbolTableRecord
100
AcDbBlockTableRecord
  2
*Paper_Space0
340
26
 70
     0
280
     1
281
     0
  0
ENDTAB
  0
ENDSEC
  0
SECTION
  2
BLOCKS
  0
BLOCK
  5
20
330
1F
100
AcDbEntity
  8
0
100
AcDbBlockBegin
  2
*Model_Space
 70
     0
 10
0.0
 20
0.0
 30
0.0
  3
*Model_Space
  1

  0
ENDBLK
  5
21
330
1F
100
AcDbEntity
  8
0
100
AcDbBlockEnd
  0
BLOCK
  5
1C
330
1B
100
AcDbEntity
 67
     1
  8
0
100
AcDbBlockBegin
  2
*Paper_Space
 70
     0
 10
0.0
 20
0.0
 30
0.0
  3
*Paper_Space
  1

  0
ENDBLK
  5
1D
330
1B
100
AcDbEntity
 67
     1
  8
0
100
AcDbBlockEnd
  0
BLOCK
  5
24
330
23
100
AcDbEntity
  8
0
100
AcDbBlockBegin
  2
*Paper_Space0
 70
     0
 10
0.0
 20
0.0
 30
0.0
  3
*Paper_Space0
  1

  0
ENDBLK
  5
25
330
23
100
AcDbEntity
  8
0
100
AcDbBlockEnd
  0
ENDSEC
  0
SECTION
  2
ENTITIES
  0
LWPOLYLINE
  5
70
330
1F
100
AcDbEntity
  8
Layer 1
 62
   114
370
    18
100
AcDbPolyline
 90
        5
 70
     1
 43
0.0
 10
-470.2031
 20
-616.9313
 10
260.4703
 20
-616.9313
 10
260.4703
 20
-372.2447
 10
-470.2031
 20
-372.2447
 10
-470.2031
 20
-616.9313
  0
LWPOLYLINE
  5
71
330
1F
100
AcDbEntity
  8
Layer 1
 62
   114
370
    18
100
AcDbPolyline
 90
        5
 70
     1
 43
0.0
 10
-554.0222
 20
-291.3879
 10
717.6712
 20
-291.3879
 10
717.6712
 20
346.9989
 10
-554.0222
 20
346.9989
 10
-554.0222
 20
-291.3879
  0
SPLINE
  5
72
330
1F
100
AcDbEntity
  8
Layer 1
 62
   250
370
    18
100
AcDbSpline
210
0.0
220
0.0
230
1.0
 70
    11
 71
     3
 72
    20
 73
    16
 74
     0
 42
0.000000001
 43
0.0000000001
 40
0.0
 40
0.0
 40
0.0
 40
0.0
 40
0.2
 40
0.2
 40
0.2
 40
0.2
 40
0.4
 40
0.4
 40
0.4
 40
0.4
 40
0.6
 40
0.6
 40
0.6
 40
0.6
 40
1.0
 40
1.0
 40
1.0
 40
1.0
 10
587.1202
 20
-159.3108
 30
0.0
 10
587.1202
 20
-159.3108
 30
0.0
 10
587.1202
 20
-45.3109
 30
0.0
 10
587.1202
 20
-45.3109
 30
0.0
 10
587.1202
 20
-45.3109
 30
0.0
 10
587.1202
 20
-45.3109
 30
0.0
 10
423.1203
 20
-45.3109
 30
0.0
 10
423.1203
 20
-45.3109
 30
0.0
 10
423.1203
 20
-45.3109
 30
0.0
 10
423.1203
 20
-45.3109
 30
0.0
 10
423.1203
 20
-159.3108
 30
0.0
 10
423.1203
 20
-159.3108
 30
0.0
 10
423.1203
 20
-159.3108
 30
0.0
 10
423.1203
 20
-159.3108
 30
0.0
 10
587.1202
 20
-159.3108
 30
0.0
 10
587.1202
 20
-159.3108
 30
0.0
  0
SPLINE
  5
73
330
1F
100
AcDbEntity
  8
Layer 1
 62
   230
370
    18
100
AcDbSpline
210
0.0
220
0.0
230
1.0
 70
    11
 71
     3
 72
    20
 73
    16
 74
     0
 42
0.000000001
 43
0.0000000001
 40
0.0
 40
0.0
 40
0.0
 40
0.0
 40
0.2
 40
0.2
 40
0.2
 40
0.2
 40
0.4
 40
0.4
 40
0.4
 40
0.4
 40
0.6
 40
0.6
 40
0.6
 40
0.6
 40
1.0
 40
1.0
 40
1.0
 40
1.0
 10
-332.5716
 20
-391.8194
 30
0.0
 10
-332.5716
 20
-391.8194
 30
0.0
 10
167.4284
 20
-391.8194
 30
0.0
 10
167.4284
 20
-391.8194
 30
0.0
 10
167.4284
 20
-391.8194
 30
0.0
 10
167.4284
 20
-391.8194
 30
0.0
 10
167.4284
 20
-466.8194
 30
0.0
 10
167.4284
 20
-466.8194
 30
0.0
 10
167.4284
 20
-466.8194
 30
0.0
 10
167.4284
 20
-466.8194
 30
0.0
 10
-332.5716
 20
-466.8194
 30
0.0
 10
-332.5716
 20
-466.8194
 30
0.0
 10
-332.5716
 20
-466.8194
 30
0.0
 10
-332.5716
 20
-466.8194
 30
0.0
 10
-332.5716
 20
-391.8194
 30
0.0
 10
-332.5716
 20
-391.8194
 30
0.0
  0
SPLINE
  5
74
330
1F
100
AcDbEntity
  8
Layer 1
 62
   230
370
    18
100
AcDbSpline
210
0.0
220
0.0
230
1.0
 70
    11
 71
     3
 72
    20
 73
    16
 74
     0
 42
0.000000001
 43
0.0000000001
 40
0.0
 40
0.0
 40
0.0
 40
0.0
 40
0.2
 40
0.2
 40
0.2
 40
0.2
 40
0.4
 40
0.4
 40
0.4
 40
0.4
 40
0.6
 40
0.6
 40
0.6
 40
0.6
 40
1.0
 40
1.0
 40
1.0
 40
1.0
 10
-112.5716
 20
-427.8194
 30
0.0
 10
-112.5716
 20
-427.8194
 30
0.0
 10
-52.5716
 20
-427.8194
 30
0.0
 10
-52.5716
 20
-427.8194
 30
0.0
 10
-52.5716
 20
-427.8194
 30
0.0
 10
-52.5716
 20
-427.8194
 30
0.0
 10
-52.5716
 20
-430.8194
 30
0.0
 10
-52.5716
 20
-430.8194
 30
0.0
 10
-52.5716
 20
-430.8194
 30
0.0
 10
-52.5716
 20
-430.8194
 30
0.0
 10
-112.5716
 20
-430.8194
 30
0.0
 10
-112.5716
 20
-430.8194
 30
0.0
 10
-112.5716
 20
-430.8194
 30
0.0
 10
-112.5716
 20
-430.8194
 30
0.0
 10
-112.5716
 20
-427.8194
 30
0.0
 10
-112.5716
 20
-427.8194
 30
0.0
  0
SPLINE
  5
75
330
1F
100
AcDbEntity
  8
Layer 1
 62
   250
370
    20
100
AcDbSpline
210
0.0
220
0.0
230
1.0
 70
    11
 71
     3
 72
   792
 73
   788
 74
     0
 42
0.000000001
 43
0.0000000001
 40
0.0
 40
0.0
 40
0.0
 40
0.0
 40
0.0050505050505051
 40
0.0050505050505051
 40
0.0050505050505051
 40
0.0050505050505051
 40
0.0101010101010101
 40
0.0101010101010101
 40
0.0101010101010101
 40
0.0101010101010101
 40
0.0151515151515152
 40
0.0151515151515152
 40
0.0151515151515152
 40
0.0151515151515152
 40
0.0202020202020202
 40
0.0202020202020202
 40
0.0202020202020202
 40
0.0202020202020202
 40
0.0252525252525253
 40
0.0252525252525253
 40
0.0252525252525253
 40
0.0252525252525253
 40
0.0303030303030303
 40
0.0303030303030303
 40
0.0303030303030303
 40
0.0303030303030303
 40
0.0353535353535354
 40
0.0353535353535354
 40
0.0353535353535354
 40
0.0353535353535354
 40
0.0404040404040404
 40
0.0404040404040404
 40
0.0404040404040404
 40
0.0404040404040404
 40
0.0454545454545455
 40
0.0454545454545455
 40
0.0454545454545455
 40
0.0454545454545455
 40
0.0505050505050505
 40
0.0505050505050505
 40
0.0505050505050505
 40
0.0505050505050505
 40
0.0555555555555556
 40
0.0555555555555556
 40
0.0555555555555556
 40
0.0555555555555556
 40
0.0606060606060606
 40
0.0606060606060606
 40
0.0606060606060606
 40
0.0606060606060606
 40
0.0656565656565657
 40
0.0656565656565657
 40
0.0656565656565657
 40
0.0656565656565657
 40
0.0707070707070707
 40
0.0707070707070707
 40
0.0707070707070707
 40
0.0707070707070707
 40
0.0757575757575758
 40
0.0757575757575758
 40
0.0757575757575758
 40
0.0757575757575758
 40
0.0808080808080808
 40
0.0808080808080808
 40
0.0808080808080808
 40
0.0808080808080808
 40
0.0858585858585859
 40
0.0858585858585859
 40
0.0858585858585859
 40
0.0858585858585859
 40
0.0909090909090909
 40
0.0909090909090909
 40
0.0909090909090909
 40
0.0909090909090909
 40
0.095959595959596
 40
0.095959595959596
 40
0.095959595959596
 40
0.095959595959596
 40
0.101010101010101
 40
0.101010101010101
 40
0.101010101010101
 40
0.101010101010101
 40
0.1060606060606061
 40
0.1060606060606061
 40
0.1060606060606061
 40
0.1060606060606061
 40
0.1111111111111111
 40
0.1111111111111111
 40
0.1111111111111111
 40
0.1111111111111111
 40
0.1161616161616162
 40
0.1161616161616162
 40
0.1161616161616162
 40
0.1161616161616162
 40
0.1212121212121212
 40
0.1212121212121212
 40
0.1212121212121212
 40
0.1212121212121212
 40
0.1262626262626263
 40
0.1262626262626263
 40
0.1262626262626263
 40
0.1262626262626263
 40
0.1313131313131313
 40
0.1313131313131313
 40
0.1313131313131313
 40
0.1313131313131313
 40
0.1363636363636364
 40
0.1363636363636364
 40
0.1363636363636364
 40
0.1363636363636364
 40
0.1414141414141414
 40
0.1414141414141414
 40
0.1414141414141414
 40
0.1414141414141414
 40
0.1464646464646465
 40
0.1464646464646465
 40
0.1464646464646465
 40
0.1464646464646465
 40
0.1515151515151515
 40
0.1515151515151515
 40
0.1515151515151515
 40
0.1515151515151515
 40
0.1565656565656566
 40
0.1565656565656566
 40
0.1565656565656566
 40
0.1565656565656566
 40
0.1616161616161616
 40
0.1616161616161616
 40
0.1616161616161616
 40
0.1616161616161616
 40
0.1666666666666667
 40
0.1666666666666667
 40
0.1666666666666667
 40
0.1666666666666667
 40
0.1717171717171717
 40
0.1717171717171717
 40
0.1717171717171717
 40
0.1717171717171717
 40
0.1767676767676768
 40
0.1767676767676768
 40
0.1767676767676768
 40
0.1767676767676768
 40
0.1818181818181818
 40
0.1818181818181818
 40
0.1818181818181818
 40
0.1818181818181818
 40
0.1868686868686869
 40
0.1868686868686869
 40
0.1868686868686869
 40
0.1868686868686869
 40
0.1919191919191919
 40
0.1919191919191919
 40
0.1919191919191919
 40
0.1919191919191919
 40
0.196969696969697
 40
0.196969696969697
 40
0.196969696969697
 40
0.196969696969697
 40
0.202020202020202
 40
0.202020202020202
 40
0.202020202020202
 40
0.202020202020202
 40
0.2070707070707071
 40
0.2070707070707071
 40
0.2070707070707071
 40
0.2070707070707071
 40
0.2121212121212121
 40
0.2121212121212121
 40
0.2121212121212121
 40
0.2121212121212121
 40
0.2171717171717172
 40
0.2171717171717172
 40
0.2171717171717172
 40
0.2171717171717172
 40
0.2222222222222222
 40
0.2222222222222222
 40
0.2222222222222222
 40
0.2222222222222222
 40
0.2272727272727273
 40
0.2272727272727273
 40
0.2272727272727273
 40
0.2272727272727273
 40
0.2323232323232323
 40
0.2323232323232323
 40
0.2323232323232323
 40
0.2323232323232323
 40
0.2373737373737374
 40
0.2373737373737374
 40
0.2373737373737374
 40
0.2373737373737374
 40
0.2424242424242424
 40
0.2424242424242424
 40
0.2424242424242424
 40
0.2424242424242424
 40
0.2474747474747475
 40
0.2474747474747475
 40
0.2474747474747475
 40
0.2474747474747475
 40
0.2525252525252525
 40
0.2525252525252525
 40
0.2525252525252525
 40
0.2525252525252525
 40
0.2575757575757576
 40
0.2575757575757576
 40
0.2575757575757576
 40
0.2575757575757576
 40
0.2626262626262627
 40
0.2626262626262627
 40
0.2626262626262627
 40
0.2626262626262627
 40
0.2676767676767677
 40
0.2676767676767677
 40
0.2676767676767677
 40
0.2676767676767677
 40
0.2727272727272727
 40
0.2727272727272727
 40
0.2727272727272727
 40
0.2727272727272727
 40
0.2777777777777778
 40
0.2777777777777778
 40
0.2777777777777778
 40
0.2777777777777778
 40
0.2828282828282828
 40
0.2828282828282828
 40
0.2828282828282828
 40
0.2828282828282828
 40
0.2878787878787879
 40
0.2878787878787879
 40
0.2878787878787879
 40
0.2878787878787879
 40
0.2929292929292929
 40
0.2929292929292929
 40
0.2929292929292929
 40
0.2929292929292929
 40
0.297979797979798
 40
0.297979797979798
 40
0.297979797979798
 40
0.297979797979798
 40
0.303030303030303
 40
0.303030303030303
 40
0.303030303030303
 40
0.303030303030303
 40
0.3080808080808081
 40
0.3080808080808081
 40
0.3080808080808081
 40
0.3080808080808081
 40
0.3131313131313131
 40
0.3131313131313131
 40
0.3131313131313131
 40
0.3131313131313131
 40
0.3181818181818182
 40
0.3181818181818182
 40
0.3181818181818182
 40
0.3181818181818182
 40
0.3232323232323233
 40
0.3232323232323233
 40
0.3232323232323233
 40
0.3232323232323233
 40
0.3282828282828283
 40
0.3282828282828283
 40
0.3282828282828283
 40
0.3282828282828283
 40
0.3333333333333333
 40
0.3333333333333333
 40
0.3333333333333333
 40
0.3333333333333333
 40
0.3383838383838384
 40
0.3383838383838384
 40
0.3383838383838384
 40
0.3383838383838384
 40
0.3434343434343434
 40
0.3434343434343434
 40
0.3434343434343434
 40
0.3434343434343434
 40
0.3484848484848485
 40
0.3484848484848485
 40
0.3484848484848485
 40
0.3484848484848485
 40
0.3535353535353535
 40
0.3535353535353535
 40
0.3535353535353535
 40
0.3535353535353535
 40
0.3585858585858586
 40
0.3585858585858586
 40
0.3585858585858586
 40
0.3585858585858586
 40
0.3636363636363636
 40
0.3636363636363636
 40
0.3636363636363636
 40
0.3636363636363636
 40
0.3686868686868687
 40
0.3686868686868687
 40
0.3686868686868687
 40
0.3686868686868687
 40
0.3737373737373738
 40
0.3737373737373738
 40
0.3737373737373738
 40
0.3737373737373738
 40
0.3787878787878788
 40
0.3787878787878788
 40
0.3787878787878788
 40
0.3787878787878788
 40
0.3838383838383838
 40
0.3838383838383838
 40
0.3838383838383838
 40
0.3838383838383838
 40
0.3888888888888889
 40
0.3888888888888889
 40
0.3888888888888889
 40
0.3888888888888889
 40
0.3939393939393939
 40
0.3939393939393939
 40
0.3939393939393939
 40
0.3939393939393939
 40
0.398989898989899
 40
0.398989898989899
 40
0.398989898989899
 40
0.398989898989899
 40
0.404040404040404
 40
0.404040404040404
 40
0.404040404040404
 40
0.404040404040404
 40
0.4090909090909091
 40
0.4090909090909091
 40
0.4090909090909091
 40
0.4090909090909091
 40
0.4141414141414141
 40
0.4141414141414141
 40
0.4141414141414141
 40
0.4141414141414141
 40
0.4191919191919192
 40
0.4191919191919192
 40
0.4191919191919192
 40
0.4191919191919192
 40
0.4242424242424243
 40
0.4242424242424243
 40
0.4242424242424243
 40
0.4242424242424243
 40
0.4292929292929293
 40
0.4292929292929293
 40
0.4292929292929293
 40
0.4292929292929293
 40
0.4343434343434344
 40
0.4343434343434344
 40
0.4343434343434344
 40
0.4343434343434344
 40
0.4393939393939394
 40
0.4393939393939394
 40
0.4393939393939394
 40
0.4393939393939394
 40
0.4444444444444444
 40
0.4444444444444444
 40
0.4444444444444444
 40
0.4444444444444444
 40
0.4494949494949495
 40
0.4494949494949495
 40
0.4494949494949495
 40
0.4494949494949495
 40
0.4545454545454545
 40
0.4545454545454545
 40
0.4545454545454545
 40
0.4545454545454545
 40
0.4595959595959596
 40
0.4595959595959596
 40
0.4595959595959596
 40
0.4595959595959596
 40
0.4646464646464646
 40
0.4646464646464646
 40
0.4646464646464646
 40
0.4646464646464646
 40
0.4696969696969697
 40
0.4696969696969697
 40
0.4696969696969697
 40
0.4696969696969697
 40
0.4747474747474748
 40
0.4747474747474748
 40
0.4747474747474748
 40
0.4747474747474748
 40
0.4797979797979798
 40
0.4797979797979798
 40
0.4797979797979798
 40
0.4797979797979798
 40
0.4848484848484849
 40
0.4848484848484849
 40
0.4848484848484849
 40
0.4848484848484849
 40
0.4898989898989899
 40
0.4898989898989899
 40
0.4898989898989899
 40
0.4898989898989899
 40
0.494949494949495
 40
0.494949494949495
 40
0.494949494949495
 40
0.494949494949495
 40
0.5
 40
0.5
 40
0.5
 40
0.5
 40
0.5050505050505051
 40
0.5050505050505051
 40
0.5050505050505051
 40
0.5050505050505051
 40
0.51010101010101
 40
0.51010101010101
 40
0.51010101010101
 40
0.51010101010101
 40
0.5151515151515151
 40
0.5151515151515151
 40
0.5151515151515151
 40
0.5151515151515151
 40
0.5202020202020202
 40
0.5202020202020202
 40
0.5202020202020202
 40
0.5202020202020202
 40
0.5252525252525253
 40
0.5252525252525253
 40
0.5252525252525253
 40
0.5252525252525253
 40
0.5303030303030303
 40
0.5303030303030303
 40
0.5303030303030303
 40
0.5303030303030303
 40
0.5353535353535354
 40
0.5353535353535354
 40
0.5353535353535354
 40
0.5353535353535354
 40
0.5404040404040404
 40
0.5404040404040404
 40
0.5404040404040404
 40
0.5404040404040404
 40
0.5454545454545454
 40
0.5454545454545454
 40
0.5454545454545454
 40
0.5454545454545454
 40
0.5505050505050505
 40
0.5505050505050505
 40
0.5505050505050505
 40
0.5505050505050505
 40
0.5555555555555556
 40
0.5555555555555556
 40
0.5555555555555556
 40
0.5555555555555556
 40
0.5606060606060606
 40
0.5606060606060606
 40
0.5606060606060606
 40
0.5606060606060606
 40
0.5656565656565656
 40
0.5656565656565656
 40
0.5656565656565656
 40
0.5656565656565656
 40
0.5707070707070707
 40
0.5707070707070707
 40
0.5707070707070707
 40
0.5707070707070707
 40
0.5757575757575758
 40
0.5757575757575758
 40
0.5757575757575758
 40
0.5757575757575758
 40
0.5808080808080808
 40
0.5808080808080808
 40
0.5808080808080808
 40
0.5808080808080808
 40
0.5858585858585859
 40
0.5858585858585859
 40
0.5858585858585859
 40
0.5858585858585859
 40
0.5909090909090909
 40
0.5909090909090909
 40
0.5909090909090909
 40
0.5909090909090909
 40
0.5959595959595959
 40
0.5959595959595959
 40
0.5959595959595959
 40
0.5959595959595959
 40
0.601010101010101
 40
0.601010101010101
 40
0.601010101010101
 40
0.601010101010101
 40
0.6060606060606061
 40
0.6060606060606061
 40
0.6060606060606061
 40
0.6060606060606061
 40
0.6111111111111112
 40
0.6111111111111112
 40
0.6111111111111112
 40
0.6111111111111112
 40
0.6161616161616161
 40
0.6161616161616161
 40
0.6161616161616161
 40
0.6161616161616161
 40
0.6212121212121212
 40
0.6212121212121212
 40
0.6212121212121212
 40
0.6212121212121212
 40
0.6262626262626263
 40
0.6262626262626263
 40
0.6262626262626263
 40
0.6262626262626263
 40
0.6313131313131313
 40
0.6313131313131313
 40
0.6313131313131313
 40
0.6313131313131313
 40
0.6363636363636364
 40
0.6363636363636364
 40
0.6363636363636364
 40
0.6363636363636364
 40
0.6414141414141414
 40
0.6414141414141414
 40
0.6414141414141414
 40
0.6414141414141414
 40
0.6464646464646465
 40
0.6464646464646465
 40
0.6464646464646465
 40
0.6464646464646465
 40
0.6515151515151515
 40
0.6515151515151515
 40
0.6515151515151515
 40
0.6515151515151515
 40
0.6565656565656566
 40
0.6565656565656566
 40
0.6565656565656566
 40
0.6565656565656566
 40
0.6616161616161617
 40
0.6616161616161617
 40
0.6616161616161617
 40
0.6616161616161617
 40
0.6666666666666666
 40
0.6666666666666666
 40
0.6666666666666666
 40
0.6666666666666666
 40
0.6717171717171717
 40
0.6717171717171717
 40
0.6717171717171717
 40
0.6717171717171717
 40
0.6767676767676768
 40
0.6767676767676768
 40
0.6767676767676768
 40
0.6767676767676768
 40
0.6818181818181818
 40
0.6818181818181818
 40
0.6818181818181818
 40
0.6818181818181818
 40
0.6868686868686869
 40
0.6868686868686869
 40
0.6868686868686869
 40
0.6868686868686869
 40
0.6919191919191919
 40
0.6919191919191919
 40
0.6919191919191919
 40
0.6919191919191919
 40
0.696969696969697
 40
0.696969696969697
 40
0.696969696969697
 40
0.696969696969697
 40
0.702020202020202
 40
0.702020202020202
 40
0.702020202020202
 40
0.702020202020202
 40
0.7070707070707071
 40
0.7070707070707071
 40
0.7070707070707071
 40
0.7070707070707071
 40
0.7121212121212122
 40
0.7121212121212122
 40
0.7121212121212122
 40
0.7121212121212122
 40
0.7171717171717171
 40
0.7171717171717171
 40
0.7171717171717171
 40
0.7171717171717171
 40
0.7222222222222222
 40
0.7222222222222222
 40
0.7222222222222222
 40
0.7222222222222222
 40
0.7272727272727273
 40
0.7272727272727273
 40
0.7272727272727273
 40
0.7272727272727273
 40
0.7323232323232324
 40
0.7323232323232324
 40
0.7323232323232324
 40
0.7323232323232324
 40
0.7373737373737373
 40
0.7373737373737373
 40
0.7373737373737373
 40
0.7373737373737373
 40
0.7424242424242424
 40
0.7424242424242424
 40
0.7424242424242424
 40
0.7424242424242424
 40
0.7474747474747475
 40
0.7474747474747475
 40
0.7474747474747475
 40
0.7474747474747475
 40
0.7525252525252525
 40
0.7525252525252525
 40
0.7525252525252525
 40
0.7525252525252525
 40
0.7575757575757576
 40
0.7575757575757576
 40
0.7575757575757576
 40
0.7575757575757576
 40
0.7626262626262627
 40
0.7626262626262627
 40
0.7626262626262627
 40
0.7626262626262627
 40
0.7676767676767676
 40
0.7676767676767676
 40
0.7676767676767676
 40
0.7676767676767676
 40
0.7727272727272727
 40
0.7727272727272727
 40
0.7727272727272727
 40
0.7727272727272727
 40
0.7777777777777778
 40
0.7777777777777778
 40
0.7777777777777778
 40
0.7777777777777778
 40
0.7828282828282829
 40
0.7828282828282829
 40
0.7828282828282829
 40
0.7828282828282829
 40
0.7878787878787878
 40
0.7878787878787878
 40
0.7878787878787878
 40
0.7878787878787878
 40
0.7929292929292929
 40
0.7929292929292929
 40
0.7929292929292929
 40
0.7929292929292929
 40
0.797979797979798
 40
0.797979797979798
 40
0.797979797979798
 40
0.797979797979798
 40
0.803030303030303
 40
0.803030303030303
 40
0.803030303030303
 40
0.803030303030303
 40
0.8080808080808081
 40
0.8080808080808081
 40
0.8080808080808081
 40
0.8080808080808081
 40
0.8131313131313131
 40
0.8131313131313131
 40
0.8131313131313131
 40
0.8131313131313131
 40
0.8181818181818182
 40
0.8181818181818182
 40
0.8181818181818182
 40
0.8181818181818182
 40
0.8232323232323232
 40
0.8232323232323232
 40
0.8232323232323232
 40
0.8232323232323232
 40
0.8282828282828283
 40
0.8282828282828283
 40
0.8282828282828283
 40
0.8282828282828283
 40
0.8333333333333334
 40
0.8333333333333334
 40
0.8333333333333334
 40
0.8333333333333334
 40
0.8383838383838383
 40
0.8383838383838383
 40
0.8383838383838383
 40
0.8383838383838383
 40
0.8434343434343434
 40
0.8434343434343434
 40
0.8434343434343434
 40
0.8434343434343434
 40
0.8484848484848485
 40
0.8484848484848485
 40
0.8484848484848485
 40
0.8484848484848485
 40
0.8535353535353535
 40
0.8535353535353535
 40
0.8535353535353535
 40
0.8535353535353535
 40
0.8585858585858586
 40
0.8585858585858586
 40
0.8585858585858586
 40
0.8585858585858586
 40
0.8636363636363636
 40
0.8636363636363636
 40
0.8636363636363636
 40
0.8636363636363636
 40
0.8686868686868687
 40
0.8686868686868687
 40
0.8686868686868687
 40
0.8686868686868687
 40
0.8737373737373737
 40
0.8737373737373737
 40
0.8737373737373737
 40
0.8737373737373737
 40
0.8787878787878788
 40
0.8787878787878788
 40
0.8787878787878788
 40
0.8787878787878788
 40
0.8838383838383839
 40
0.8838383838383839
 40
0.8838383838383839
 40
0.8838383838383839
 40
0.8888888888888888
 40
0.8888888888888888
 40
0.8888888888888888
 40
0.8888888888888888
 40
0.8939393939393939
 40
0.8939393939393939
 40
0.8939393939393939
 40
0.8939393939393939
 40
0.898989898989899
 40
0.898989898989899
 40
0.898989898989899
 40
0.898989898989899
 40
0.9040404040404041
 40
0.9040404040404041
 40
0.9040404040404041
 40
0.9040404040404041
 40
0.9090909090909091
 40
0.9090909090909091
 40
0.9090909090909091
 40
0.9090909090909091
 40
0.9141414141414141
 40
0.9141414141414141
 40
0.9141414141414141
 40
0.9141414141414141
 40
0.9191919191919192
 40
0.9191919191919192
 40
0.9191919191919192
 40
0.9191919191919192
 40
0.9242424242424242
 40
0.9242424242424242
 40
0.9242424242424242
 40
0.9242424242424242
 40
0.9292929292929293
 40
0.9292929292929293
 40
0.9292929292929293
 40
0.9292929292929293
 40
0.9343434343434344
 40
0.9343434343434344
 40
0.9343434343434344
 40
0.9343434343434344
 40
0.9393939393939394
 40
0.9393939393939394
 40
0.9393939393939394
 40
0.9393939393939394
 40
0.9444444444444444
 40
0.9444444444444444
 40
0.9444444444444444
 40
0.9444444444444444
 40
0.9494949494949495
 40
0.9494949494949495
 40
0.9494949494949495
 40
0.9494949494949495
 40
0.9545454545454546
 40
0.9545454545454546
 40
0.9545454545454546
 40
0.9545454545454546
 40
0.9595959595959596
 40
0.9595959595959596
 40
0.9595959595959596
 40
0.9595959595959596
 40
0.9646464646464646
 40
0.9646464646464646
 40
0.9646464646464646
 40
0.9646464646464646
 40
0.9696969696969697
 40
0.9696969696969697
 40
0.9696969696969697
 40
0.9696969696969697
 40
0.9747474747474747
 40
0.9747474747474747
 40
0.9747474747474747
 40
0.9747474747474747
 40
0.9797979797979798
 40
0.9797979797979798
 40
0.9797979797979798
 40
0.9797979797979798
 40
0.9848484848484849
 40
0.9848484848484849
 40
0.9848484848484849
 40
0.9848484848484849
 40
0.98989898989899
 40
0.98989898989899
 40
0.98989898989899
 40
0.98989898989899
 40
1.0
 40
1.0
 40
1.0
 40
1.0
 10
-157.3389
 20
-186.8182
 30
0.0
 10
-157.3389
 20
-186.8182
 30
0.0
 10
-157.3389
 20
-192.8182
 30
0.0
 10
-157.3389
 20
-192.8182
 30
0.0
 10
-157.3389
 20
-192.8182
 30
0.0
 10
-157.3389
 20
-192.8182
 30
0.0
 10
-97.339
 20
-192.8182
 30
0.0
 10
-97.339
 20
-192.8182
 30
0.0
 10
-97.339
 20
-192.8182
 30
0.0
 10
-97.339
 20
-192.8182
 30
0.0
 10
-97.339
 20
-186.8182
 30
0.0
 10
-97.339
 20
-186.8182
 30
0.0
 10
-97.339
 20
-186.8182
 30
0.0
 10
-97.339
 20
-186.8182
 30
0.0
 10
-89.2389
 20
-186.8182
 30
0.0
 10
-89.2389
 20
-186.8182
 30
0.0
 10
-89.2389
 20
-186.8182
 30
0.0
 10
-125.4586
 20
-114.1502
 30
0.0
 10
-112.8997
 20
-78.0257
 30
0.0
 10
-51.5622
 20
-78.4448
 30
0.0
 10
-51.5622
 20
-78.4448
 30
0.0
 10
-53.2285
 20
-74.6672
 30
0.0
 10
-55.3832
 20
-72.2188
 30
0.0
 10
-58.0264
 20
-71.0995
 30
0.0
 10
-58.0264
 20
-71.0995
 30
0.0
 10
-46.7963
 20
-68.5754
 30
0.0
 10
-36.989
 20
-67.0937
 30
0.0
 10
-28.6047
 20
-66.6545
 30
0.0
 10
-28.6047
 20
-66.6545
 30
0.0
 10
-24.3047
 20
-69.8324
 30
0.0
 10
-19.2019
 20
-70.7713
 30
0.0
 10
-14.2338
 20
-69.2282
 30
0.0
 10
-14.2338
 20
-69.2282
 30
0.0
 10
-9.2657
 20
-67.6851
 30
0.0
 10
-5.1415
 20
-63.8117
 30
0.0
 10
-2.9294
 20
-58.6111
 30
0.0
 10
-2.9294
 20
-58.6111
 30
0.0
 10
-5.4128
 20
-59.3489
 30
0.0
 10
-7.7982
 20
-59.7015
 30
0.0
 10
-10.0853
 20
-59.6691
 30
0.0
 10
-10.0853
 20
-59.6691
 30
0.0
 10
-16.4466
 20
-59.5792
 30
0.0
 10
-18.6126
 20
-55.3651
 30
0.0
 10
-23.874
 20
-56.0898
 30
0.0
 10
-23.874
 20
-56.0898
 30
0.0
 10
-26.6901
 20
-56.4778
 30
0.0
 10
-29.1967
 20
-58.1368
 30
0.0
 10
-30.7213
 20
-60.622
 30
0.0
 10
-30.7213
 20
-60.622
 30
0.0
 10
-41.3449
 20
-62.1724
 30
0.0
 10
-55.3336
 20
-63.2963
 30
0.0
 10
-72.6876
 20
-63.9936
 30
0.0
 10
-72.6876
 20
-63.9936
 30
0.0
 10
-49.7731
 20
-32.1704
 30
0.0
 10
-27.7597
 20
-17.4949
 30
0.0
 10
-6.6476
 20
-19.9669
 30
0.0
 10
-6.6476
 20
-19.9669
 30
0.0
 10
-6.2607
 20
-12.6297
 30
0.0
 10
-7.8266
 20
-9.2623
 30
0.0
 10
-11.3455
 20
-9.8648
 30
0.0
 10
-11.3455
 20
-9.8648
 30
0.0
 10
-24.4205
 20
-8.8174
 30
0.0
 10
-36.5217
 20
-11.5725
 30
0.0
 10
-47.6492
 20
-18.1299
 30
0.0
 10
-47.6492
 20
-18.1299
 30
0.0
 10
-49.2874
 20
-8.7117
 30
0.0
 10
-53.1031
 20
-1.7246
 30
0.0
 10
-59.0959
 20
2.8314
 30
0.0
 10
-59.0959
 20
2.8314
 30
0.0
 10
-59.0959
 20
2.8314
 30
0.0
 10
-66.206
 20
-1.9469
 30
0.0
 10
-66.206
 20
-1.9469
 30
0.0
 10
-66.206
 20
-1.9469
 30
0.0
 10
-59.4483
 20
-7.4225
 30
0.0
 10
-56.3149
 20
-14.9617
 30
0.0
 10
-56.806
 20
-24.5643
 30
0.0
 10
-56.806
 20
-24.5643
 30
0.0
 10
-60.6928
 20
-27.759
 30
0.0
 10
-64.4482
 20
-31.467
 30
0.0
 10
-68.0722
 20
-35.6881
 30
0.0
 10
-68.0722
 20
-35.6881
 30
0.0
 10
-77.1014
 20
-46.7663
 30
0.0
 10
-91.8122
 20
-57.4202
 30
0.0
 10
-112.2046
 20
-67.6499
 30
0.0
 10
-112.2046
 20
-67.6499
 30
0.0
 10
-112.6574
 20
28.567
 30
0.0
 10
-68.6662
 20
81.0039
 30
0.0
 10
19.7691
 20
89.6605
 30
0.0
 10
19.7691
 20
89.6605
 30
0.0
 10
19.7691
 20
89.6605
 30
0.0
 10
19.7691
 20
51.18
 30
0.0
 10
19.7691
 20
51.18
 30
0.0
 10
19.7691
 20
51.18
 30
0.0
 10
19.7691
 20
51.18
 30
0.0
 10
0.3058
 20
51.18
 30
0.0
 10
0.3058
 20
51.18
 30
0.0
 10
0.3058
 20
51.18
 30
0.0
 10
0.3058
 20
51.18
 30
0.0
 10
0.3058
 20
-112.8199
 30
0.0
 10
0.3058
 20
-112.8199
 30
0.0
 10
0.3058
 20
-112.8199
 30
0.0
 10
0.3058
 20
-112.8199
 30
0.0
 10
114.3057
 20
-112.8199
 30
0.0
 10
114.3057
 20
-112.8199
 30
0.0
 10
114.3057
 20
-112.8199
 30
0.0
 10
114.3057
 20
-112.8199
 30
0.0
 10
114.3057
 20
51.18
 30
0.0
 10
114.3057
 20
51.18
 30
0.0
 10
114.3057
 20
51.18
 30
0.0
 10
114.3057
 20
51.18
 30
0.0
 10
111.8299
 20
51.18
 30
0.0
 10
111.8299
 20
51.18
 30
0.0
 10
111.8299
 20
51.18
 30
0.0
 10
113.3876
 20
56.1549
 30
0.0
 10
113.5482
 20
61.4824
 30
0.0
 10
112.27
 20
66.5666
 30
0.0
 10
112.27
 20
66.5666
 30
0.0
 10
117.0695
 20
63.2587
 30
0.0
 10
122.1454
 20
59.9503
 30
0.0
 10
127.4978
 20
56.6415
 30
0.0
 10
127.4978
 20
56.6415
 30
0.0
 10
127.4978
 20
56.6415
 30
0.0
 10
130.0381
 20
59.9224
 30
0.0
 10
130.0381
 20
59.9224
 30
0.0
 10
130.0381
 20
59.9224
 30
0.0
 10
118.913
 20
67.4311
 30
0.0
 10
110.127
 20
74.1497
 30
0.0
 10
103.6801
 20
80.078
 30
0.0
 10
103.6801
 20
80.078
 30
0.0
 10
110.0701
 20
76.1295
 30
0.0
 10
118.0197
 20
75.2221
 30
0.0
 10
125.2762
 20
77.861
 30
0.0
 10
125.2762
 20
77.861
 30
0.0
 10
117.5585
 20
85.7438
 30
0.0
 10
109.0216
 20
87.7831
 30
0.0
 10
99.6652
 20
83.9789
 30
0.0
 10
99.6652
 20
83.9789
 30
0.0
 10
97.5825
 20
86.1319
 30
0.0
 10
95.8492
 20
88.1669
 30
0.0
 10
94.4653
 20
90.0839
 30
0.0
 10
94.4653
 20
90.0839
 30
0.0
 10
110.3393
 20
88.921
 30
0.0
 10
126.0806
 20
86.9518
 30
0.0
 10
141.6891
 20
84.1763
 30
0.0
 10
141.6891
 20
84.1763
 30
0.0
 10
141.6891
 20
84.1763
 30
0.0
 10
141.6891
 20
25.7801
 30
0.0
 10
141.6891
 20
25.7801
 30
0.0
 10
141.6891
 20
25.7801
 30
0.0
 10
141.6891
 20
25.7801
 30
0.0
 10
125.6126
 20
25.7801
 30
0.0
 10
125.6126
 20
25.7801
 30
0.0
 10
125.6126
 20
25.7801
 30
0.0
 10
125.6126
 20
25.7801
 30
0.0
 10
125.6126
 20
-138.2198
 30
0.0
 10
125.6126
 20
-138.2198
 30
0.0
 10
125.6126
 20
-138.2198
 30
0.0
 10
125.6126
 20
-138.2198
 30
0.0
 10
239.6125
 20
-138.2198
 30
0.0
 10
239.6125
 20
-138.2198
 30
0.0
 10
239.6125
 20
-138.2198
 30
0.0
 10
239.6125
 20
-138.2198
 30
0.0
 10
239.6125
 20
25.7801
 30
0.0
 10
239.6125
 20
25.7801
 30
0.0
 10
239.6125
 20
25.7801
 30
0.0
 10
239.6125
 20
25.7801
 30
0.0
 10
208.1524
 20
25.7801
 30
0.0
 10
208.1524
 20
25.7801
 30
0.0
 10
208.1524
 20
25.7801
 30
0.0
 10
208.1524
 20
25.7801
 30
0.0
 10
208.1524
 20
68.4268
 30
0.0
 10
208.1524
 20
68.4268
 30
0.0
 10
208.1524
 20
68.4268
 30
0.0
 10
209.6132
 20
68.2981
 30
0.0
 10
211.0395
 20
68.2124
 30
0.0
 10
212.4317
 20
68.1695
 30
0.0
 10
212.4317
 20
68.1695
 30
0.0
 10
217.764
 20
64.7482
 30
0.0
 10
221.8206
 20
60.3821
 30
0.0
 10
224.6017
 20
55.0716
 30
0.0
 10
224.6017
 20
55.0716
 30
0.0
 10
221.4454
 20
52.6783
 30
0.0
 10
219.5121
 20
49.0091
 30
0.0
 10
219.3228
 20
45.0525
 30
0.0
 10
219.3228
 20
45.0525
 30
0.0
 10
219.1335
 20
41.0959
 30
0.0
 10
220.7076
 20
37.2589
 30
0.0
 10
223.621
 20
34.5752
 30
0.0
 10
223.621
 20
34.5752
 30
0.0
 10
227.6212
 20
36.4366
 30
0.0
 10
230.5777
 20
39.9915
 30
0.0
 10
231.6791
 20
44.2639
 30
0.0
 10
231.6791
 20
44.2639
 30
0.0
 10
233.7799
 20
52.4139
 30
0.0
 10
227.1061
 20
62.5306
 30
0.0
 10
220.7895
 20
68.4679
 30
0.0
 10
220.7895
 20
68.4679
 30
0.0
 10
224.1131
 20
68.8326
 30
0.0
 10
227.1988
 20
69.4983
 30
0.0
 10
230.0518
 20
70.4627
 30
0.0
 10
230.0518
 20
70.4627
 30
0.0
 10
239.3599
 20
63.1892
 30
0.0
 10
253.641
 20
61.0501
 30
0.0
 10
264.6143
 20
65.6912
 30
0.0
 10
264.6143
 20
65.6912
 30
0.0
 10
260.5075
 20
70.4297
 30
0.0
 10
254.2131
 20
73.8908
 30
0.0
 10
247.1504
 20
75.2941
 30
0.0
 10
247.1504
 20
75.2941
 30
0.0
 10
244.8755
 20
75.7461
 30
0.0
 10
242.5827
 20
75.9723
 30
0.0
 10
240.3263
 20
75.9787
 30
0.0
 10
240.3263
 20
75.9787
 30
0.0
 10
242.5559
 20
77.7384
 30
0.0
 10
244.561
 20
79.7918
 30
0.0
 10
246.3469
 20
82.1367
 30
0.0
 10
246.3469
 20
82.1367
 30
0.0
 10
250.4479
 20
87.5211
 30
0.0
 10
251.7211
 20
91.8951
 30
0.0
 10
253.8815
 20
98.1749
 30
0.0
 10
253.8815
 20
98.1749
 30
0.0
 10
254.4323
 20
99.776
 30
0.0
 10
254.8531
 20
101.005
 30
0.0
 10
254.9312
 20
101.2073
 30
0.0
 10
254.9312
 20
101.2073
 30
0.0
 10
254.9312
 20
101.2073
 30
0.0
 10
251.4387
 20
102.5301
 30
0.0
 10
251.4387
 20
102.5301
 30
0.0
 10
251.4387
 20
102.5301
 30
0.0
 10
250.1426
 20
99.0239
 30
0.0
 10
248.6147
 20
95.8794
 30
0.0
 10
246.8549
 20
93.0967
 30
0.0
 10
246.8549
 20
93.0967
 30
0.0
 10
247.1353
 20
104.1696
 30
0.0
 10
240.846
 20
114.7609
 30
0.0
 10
230.2454
 20
119.5529
 30
0.0
 10
230.2454
 20
119.5529
 30
0.0
 10
227.4803
 20
112.9015
 30
0.0
 10
227.5089
 20
105.4171
 30
0.0
 10
230.3247
 20
98.7871
 30
0.0
 10
230.3247
 20
98.7871
 30
0.0
 10
232.5677
 20
93.5056
 30
0.0
 10
236.4289
 20
89.1205
 30
0.0
 10
241.2969
 20
86.2262
 30
0.0
 10
241.2969
 20
86.2262
 30
0.0
 10
229.8036
 20
75.2014
 30
0.0
 10
211.9505
 20
74.1016
 30
0.0
 10
187.7374
 20
82.9268
 30
0.0
 10
187.7374
 20
82.9268
 30
0.0
 10
195.5088
 20
87.7144
 30
0.0
 10
199.9856
 20
96.9498
 30
0.0
 10
200.6008
 20
109.1166
 30
0.0
 10
200.6008
 20
109.1166
 30
0.0
 10
192.8893
 20
109.351
 30
0.0
 10
185.4192
 20
106.051
 30
0.0
 10
179.8749
 20
99.9608
 30
0.0
 10
179.8749
 20
99.9608
 30
0.0
 10
179.5145
 20
99.565
 30
0.0
 10
179.1795
 20
99.1702
 30
0.0
 10
178.868
 20
98.7757
 30
0.0
 10
178.868
 20
98.7757
 30
0.0
 10
176.2345
 20
105.3065
 30
0.0
 10
171.1748
 20
110.849
 30
0.0
 10
164.3038
 20
113.955
 30
0.0
 10
164.3038
 20
113.955
 30
0.0
 10
161.5387
 20
107.3036
 30
0.0
 10
161.5673
 20
99.8192
 30
0.0
 10
164.3831
 20
93.1892
 30
0.0
 10
164.3831
 20
93.1892
 30
0.0
 10
164.8572
 20
92.0728
 30
0.0
 10
165.4036
 20
90.9965
 30
0.0
 10
166.0166
 20
89.9659
 30
0.0
 10
166.0166
 20
89.9659
 30
0.0
 10
134.2608
 20
99.8074
 30
0.0
 10
109.8167
 20
105.629
 30
0.0
 10
92.6841
 20
107.4305
 30
0.0
 10
92.6841
 20
107.4305
 30
0.0
 10
94.2529
 20
108.3277
 30
0.0
 10
95.6309
 20
109.2619
 30
0.0
 10
96.8181
 20
110.2328
 30
0.0
 10
96.8181
 20
110.2328
 30
0.0
 10
99.6281
 20
112.5309
 30
0.0
 10
101.0085
 20
114.9972
 30
0.0
 10
104.2156
 20
117.3368
 30
0.0
 10
104.2156
 20
117.3368
 30
0.0
 10
105.3268
 20
118.1473
 30
0.0
 10
106.5857
 20
118.9711
 30
0.0
 10
107.9923
 20
119.808
 30
0.0
 10
107.9923
 20
119.808
 30
0.0
 10
111.9138
 20
116.6851
 30
0.0
 10
117.5376
 20
116.28
 30
0.0
 10
121.943
 20
119.1629
 30
0.0
 10
121.943
 20
119.1629
 30
0.0
 10
125.482
 20
121.6593
 30
0.0
 10
128.6392
 20
123.251
 30
0.0
 10
131.4147
 20
123.938
 30
0.0
 10
131.4147
 20
123.938
 30
0.0
 10
128.3321
 20
128.1675
 30
0.0
 10
123.3051
 20
130.5327
 30
0.0
 10
118.0812
 20
130.211
 30
0.0
 10
118.0812
 20
130.211
 30
0.0
 10
116.1062
 20
130.0894
 30
0.0
 10
114.2063
 20
129.5901
 30
0.0
 10
112.4696
 20
128.7688
 30
0.0
 10
112.4696
 20
128.7688
 30
0.0
 10
108.4944
 20
127.6476
 30
0.0
 10
104.6448
 20
125.7092
 30
0.0
 10
100.9207
 20
122.9534
 30
0.0
 10
100.9207
 20
122.9534
 30
0.0
 10
102.2432
 20
128.6518
 30
0.0
 10
99.7704
 20
134.7621
 30
0.0
 10
94.4687
 20
137.8354
 30
0.0
 10
94.4687
 20
137.8354
 30
0.0
 10
90.0959
 20
140.1705
 30
0.0
 10
86.8446
 20
142.5804
 30
0.0
 10
84.7147
 20
145.0653
 30
0.0
 10
84.7147
 20
145.0653
 30
0.0
 10
81.975
 20
139.738
 30
0.0
 10
82.1417
 20
133.3811
 30
0.0
 10
85.1571
 20
128.2048
 30
0.0
 10
85.1571
 20
128.2048
 30
0.0
 10
87.7434
 20
123.765
 30
0.0
 10
92.1187
 20
120.7197
 30
0.0
 10
97.0883
 20
119.7886
 30
0.0
 10
97.0883
 20
119.7886
 30
0.0
 10
88.5696
 20
112.4492
 30
0.0
 10
80.0882
 20
108.9834
 30
0.0
 10
71.6441
 20
109.391
 30
0.0
 10
71.6441
 20
109.391
 30
0.0
 10
59.7065
 20
110.8784
 30
0.0
 10
48.3416
 20
111.8292
 30
0.0
 10
37.5495
 20
112.2434
 30
0.0
 10
37.5495
 20
112.2434
 30
0.0
 10
38.511
 20
114.9244
 30
0.0
 10
39.2617
 20
118.0959
 30
0.0
 10
39.8015
 20
121.758
 30
0.0
 10
39.8015
 20
121.758
 30
0.0
 10
44.4552
 20
125.2502
 30
0.0
 10
47.633
 20
130.4616
 30
0.0
 10
48.5328
 20
136.3439
 30
0.0
 10
48.5328
 20
136.3439
 30
0.0
 10
49.6933
 20
143.9309
 30
0.0
 10
46.9037
 20
151.5859
 30
0.0
 10
41.1338
 20
156.6475
 30
0.0
 10
41.1338
 20
156.6475
 30
0.0
 10
39.7634
 20
152.6845
 30
0.0
 10
37.0212
 20
148.2837
 30
0.0
 10
32.9072
 20
143.4451
 30
0.0
 10
32.9072
 20
143.4451
 30
0.0
 10
28.1683
 20
137.4606
 30
0.0
 10
27.966
 20
129.3121
 30
0.0
 10
31.8687
 20
123.194
 30
0.0
 10
31.8687
 20
123.194
 30
0.0
 10
31.8834
 20
119.3423
 30
0.0
 10
30.8981
 20
115.7649
 30
0.0
 10
28.913
 20
112.4618
 30
0.0
 10
28.913
 20
112.4618
 30
0.0
 10
28.913
 20
112.4618
 30
0.0
 10
28.0687
 20
112.4706
 30
0.0
 10
28.0687
 20
112.4706
 30
0.0
 10
28.0687
 20
112.4706
 30
0.0
 10
27.5534
 20
121.231
 30
0.0
 10
26.8859
 20
129.2319
 30
0.0
 10
26.0664
 20
136.4733
 30
0.0
 10
26.0664
 20
136.4733
 30
0.0
 10
27.1903
 20
149.0885
 30
0.0
 10
21.7575
 20
155.1563
 30
0.0
 10
9.768
 20
154.6767
 30
0.0
 10
9.768
 20
154.6767
 30
0.0
 10
12.3715
 20
140.7358
 30
0.0
 10
13.6257
 20
126.5907
 30
0.0
 10
13.5307
 20
112.2414
 30
0.0
 10
13.5307
 20
112.2414
 30
0.0
 10
-2.1664
 20
111.5822
 30
0.0
 10
-16.4254
 20
109.5757
 30
0.0
 10
-29.2463
 20
106.2219
 30
0.0
 10
-29.2463
 20
106.2219
 30
0.0
 10
-25.5616
 20
120.4391
 30
0.0
 10
-23.9489
 20
131.8875
 30
0.0
 10
-24.4081
 20
140.5672
 30
0.0
 10
-24.4081
 20
140.5672
 30
0.0
 10
-19.8288
 20
144.4622
 30
0.0
 10
-17.9986
 20
150.9605
 30
0.0
 10
-20.2824
 20
156.8591
 30
0.0
 10
-20.2824
 20
156.8591
 30
0.0
 10
-22.3562
 20
161.7059
 30
0.0
 10
-23.4498
 20
165.8687
 30
0.0
 10
-23.5632
 20
169.3475
 30
0.0
 10
-23.5632
 20
169.3475
 30
0.0
 10
-29.3811
 20
166.7511
 30
0.0
 10
-33.4728
 20
161.3665
 30
0.0
 10
-34.4158
 20
155.0657
 30
0.0
 10
-34.4158
 20
155.0657
 30
0.0
 10
-35.165
 20
150.0601
 30
0.0
 10
-33.8446
 20
145.0256
 30
0.0
 10
-30.862
 20
141.0685
 30
0.0
 10
-30.862
 20
141.0685
 30
0.0
 10
-30.8555
 20
139.5101
 30
0.0
 10
-30.8961
 20
137.9721
 30
0.0
 10
-30.9837
 20
136.4544
 30
0.0
 10
-30.9837
 20
136.4544
 30
0.0
 10
-36.7267
 20
147.8011
 30
0.0
 10
-49.5734
 20
154.1073
 30
0.0
 10
-62.3651
 20
151.2372
 30
0.0
 10
-62.3651
 20
151.2372
 30
0.0
 10
-60.5739
 20
144.2603
 30
0.0
 10
-56.0498
 20
138.2979
 30
0.0
 10
-49.8127
 20
134.6945
 30
0.0
 10
-49.8127
 20
134.6945
 30
0.0
 10
-45.3514
 20
132.117
 30
0.0
 10
-40.2823
 20
130.9015
 30
0.0
 10
-35.2181
 20
131.1257
 30
0.0
 10
-35.2181
 20
131.1257
 30
0.0
 10
-33.6266
 20
130.4985
 30
0.0
 10
-32.6596
 20
128.9199
 30
0.0
 10
-32.3172
 20
126.3899
 30
0.0
 10
-32.3172
 20
126.3899
 30
0.0
 10
-34.2482
 20
117.2868
 30
0.0
 10
-38.1
 20
109.0156
 30
0.0
 10
-43.8728
 20
101.5765
 30
0.0
 10
-43.8728
 20
101.5765
 30
0.0
 10
-50.4371
 20
99.088
 30
0.0
 10
-56.5468
 20
96.1736
 30
0.0
 10
-62.202
 20
92.8333
 30
0.0
 10
-62.202
 20
92.8333
 30
0.0
 10
-61.8163
 20
93.2206
 30
0.0
 10
-61.453
 20
93.6253
 30
0.0
 10
-61.1146
 20
94.0485
 30
0.0
 10
-61.1146
 20
94.0485
 30
0.0
 10
-61.1146
 20
94.0485
 30
0.0
 10
-60.2706
 20
95.1041
 30
0.0
 10
-60.2706
 20
95.1041
 30
0.0
 10
-60.2706
 20
95.1041
 30
0.0
 10
-58.493
 20
96.0092
 30
0.0
 10
-56.6042
 20
96.9484
 30
0.0
 10
-54.6042
 20
97.922
 30
0.0
 10
-54.6042
 20
97.922
 30
0.0
 10
-52.3448
 20
98.4269
 30
0.0
 10
-52.952
 20
99.3579
 30
0.0
 10
-56.4258
 20
100.7151
 30
0.0
 10
-56.4258
 20
100.7151
 30
0.0
 10
-57.1842
 20
101.6654
 30
0.0
 10
-59.1285
 20
100.8318
 30
0.0
 10
-62.2583
 20
98.2152
 30
0.0
 10
-62.2583
 20
98.2152
 30
0.0
 10
-62.2583
 20
98.2152
 30
0.0
 10
-63.4959
 20
99.2048
 30
0.0
 10
-63.4959
 20
99.2048
 30
0.0
 10
-63.4959
 20
99.2048
 30
0.0
 10
-63.4959
 20
99.2048
 30
0.0
 10
-65.0821
 20
97.221
 30
0.0
 10
-65.0821
 20
97.221
 30
0.0
 10
-65.0821
 20
97.221
 30
0.0
 10
-65.4022
 20
96.8207
 30
0.0
 10
-65.7608
 20
96.4403
 30
0.0
 10
-66.1521
 20
96.079
 30
0.0
 10
-66.1521
 20
96.079
 30
0.0
 10
-67.3116
 20
96.045
 30
0.0
 10
-68.5947
 20
96.47
 30
0.0
 10
-70.0017
 20
97.3548
 30
0.0
 10
-70.0017
 20
97.3548
 30
0.0
 10
-75.4417
 20
104.8899
 30
0.0
 10
-82.8716
 20
115.0954
 30
0.0
 10
-88.0693
 20
116.0619
 30
0.0
 10
-88.0693
 20
116.0619
 30
0.0
 10
-90.8841
 20
116.5855
 30
0.0
 10
-93.7882
 20
115.868
 30
0.0
 10
-96.0359
 20
114.0942
 30
0.0
 10
-96.0359
 20
114.0942
 30
0.0
 10
-96.6253
 20
113.4398
 30
0.0
 10
-97.497
 20
112.73
 30
0.0
 10
-98.6505
 20
111.9644
 30
0.0
 10
-98.6505
 20
111.9644
 30
0.0
 10
-97.0677
 20
113.8937
 30
0.0
 10
-95.9062
 20
116.0986
 30
0.0
 10
-96.4662
 20
117.8456
 30
0.0
 10
-96.4662
 20
117.8456
 30
0.0
 10
-96.9216
 20
119.2673
 30
0.0
 10
-98.2268
 20
120.2459
 30
0.0
 10
-99.7193
 20
120.2854
 30
0.0
 10
-99.7193
 20
120.2854
 30
0.0
 10
-101.2118
 20
120.3248
 30
0.0
 10
-102.5663
 20
119.4168
 30
0.0
 10
-103.0964
 20
118.0213
 30
0.0
 10
-103.0964
 20
118.0213
 30
0.0
 10
-103.6273
 20
119.4168
 30
0.0
 10
-104.9819
 20
120.3251
 30
0.0
 10
-106.4744
 20
120.2854
 30
0.0
 10
-106.4744
 20
120.2854
 30
0.0
 10
-107.9666
 20
120.2459
 30
0.0
 10
-109.2719
 20
119.2673
 30
0.0
 10
-109.7276
 20
117.8456
 30
0.0
 10
-109.7276
 20
117.8456
 30
0.0
 10
-110.4426
 20
115.6159
 30
0.0
 10
-108.353
 20
112.6397
 30
0.0
 10
-106.1616
 20
110.4438
 30
0.0
 10
-106.1616
 20
110.4438
 30
0.0
 10
-112.5367
 20
111.8596
 30
0.0
 10
-117.5606
 20
109.8787
 30
0.0
 10
-121.2333
 20
104.5009
 30
0.0
 10
-121.2333
 20
104.5009
 30
0.0
 10
-127.0611
 20
97.3297
 30
0.0
 10
-131.5136
 20
95.2652
 30
0.0
 10
-134.5908
 20
98.3079
 30
0.0
 10
-134.5908
 20
98.3079
 30
0.0
 10
-138.2546
 20
101.5327
 30
0.0
 10
-140.5011
 20
102.6256
 30
0.0
 10
-141.3303
 20
101.5866
 30
0.0
 10
-141.3303
 20
101.5866
 30
0.0
 10
-144.8041
 20
100.2294
 30
0.0
 10
-145.4113
 20
99.2984
 30
0.0
 10
-143.1519
 20
98.7935
 30
0.0
 10
-143.1519
 20
98.7935
 30
0.0
 10
-135.3507
 20
94.996
 30
0.0
 10
-129.241
 20
91.7193
 30
0.0
 10
-124.8225
 20
88.9631
 30
0.0
 10
-124.8225
 20
88.9631
 30
0.0
 10
-132.8275
 20
89.4925
 30
0.0
 10
-140.8087
 20
88.2357
 30
0.0
 10
-147.4139
 20
83.5384
 30
0.0
 10
-147.4139
 20
83.5384
 30
0.0
 10
-148.8921
 20
113.0538
 30
0.0
 10
-140.9126
 20
135.6742
 30
0.0
 10
-123.4754
 20
151.3998
 30
0.0
 10
-123.4754
 20
151.3998
 30
0.0
 10
-119.6463
 20
150.1558
 30
0.0
 10
-115.4363
 20
150.3921
 30
0.0
 10
-111.7145
 20
152.155
 30
0.0
 10
-111.7145
 20
152.155
 30
0.0
 10
-106.85
 20
154.4593
 30
0.0
 10
-103.4753
 20
159.0608
 30
0.0
 10
-102.7393
 20
164.3929
 30
0.0
 10
-102.7393
 20
164.3929
 30
0.0
 10
-111.0154
 20
165.9243
 30
0.0
 10
-119.3343
 20
162.7678
 30
0.0
 10
-124.5304
 20
156.4227
 30
0.0
 10
-124.5304
 20
156.4227
 30
0.0
 10
-126.5232
 20
155.598
 30
0.0
 10
-128.7316
 20
155.4678
 30
0.0
 10
-131.1556
 20
156.0321
 30
0.0
 10
-131.1556
 20
156.0321
 30
0.0
 10
-131.2225
 20
157.146
 30
0.0
 10
-130.9395
 20
158.8314
 30
0.0
 10
-130.3066
 20
161.0882
 30
0.0
 10
-130.3066
 20
161.0882
 30
0.0
 10
-121.5926
 20
166.5332
 30
0.0
 10
-115.9612
 20
175.9485
 30
0.0
 10
-115.4393
 20
186.4063
 30
0.0
 10
-115.4393
 20
186.4063
 30
0.0
 10
-121.9263
 20
185.9393
 30
0.0
 10
-127.8522
 20
182.5576
 30
0.0
 10
-131.5543
 20
177.2102
 30
0.0
 10
-131.5543
 20
177.2102
 30
0.0
 10
-134.1879
 20
173.406
 30
0.0
 10
-135.4942
 20
168.8987
 30
0.0
 10
-135.3641
 20
164.3686
 30
0.0
 10
-135.3641
 20
164.3686
 30
0.0
 10
-136.9227
 20
162.0239
 30
0.0
 10
-138.4143
 20
159.6738
 30
0.0
 10
-139.839
 20
157.3182
 30
0.0
 10
-139.839
 20
157.3182
 30
0.0
 10
-140.4462
 20
159.1737
 30
0.0
 10
-141.3419
 20
160.9432
 30
0.0
 10
-142.5118
 20
162.5574
 30
0.0
 10
-142.5118
 20
162.5574
 30
0.0
 10
-145.7111
 20
166.9716
 30
0.0
 10
-150.6526
 20
169.7987
 30
0.0
 10
-156.0793
 20
170.3196
 30
0.0
 10
-156.0793
 20
170.3196
 30
0.0
 10
-157.6301
 20
164.9709
 30
0.0
 10
-156.6257
 20
159.2058
 30
0.0
 10
-153.3576
 20
154.6966
 30
0.0
 10
-153.3576
 20
154.6966
 30
0.0
 10
-151.2214
 20
151.7492
 30
0.0
 10
-148.2742
 20
149.554
 30
0.0
 10
-144.9345
 20
148.3336
 30
0.0
 10
-144.9345
 20
148.3336
 30
0.0
 10
-150.9372
 20
137.0004
 30
0.0
 10
-155.4083
 20
125.5426
 30
0.0
 10
-158.348
 20
113.9602
 30
0.0
 10
-158.348
 20
113.9602
 30
0.0
 10
-165.3494
 20
137.1203
 30
0.0
 10
-173.1829
 20
159.1099
 30
0.0
 10
-181.8486
 20
179.9289
 30
0.0
 10
-181.8486
 20
179.9289
 30
0.0
 10
-177.6759
 20
183.791
 30
0.0
 10
-175.0658
 20
189.147
 30
0.0
 10
-174.6815
 20
194.9558
 30
0.0
 10
-174.6815
 20
194.9558
 30
0.0
 10
-174.1747
 20
202.6184
 30
0.0
 10
-177.6113
 20
210.0102
 30
0.0
 10
-183.7967
 20
214.5616
 30
0.0
 10
-183.7967
 20
214.5616
 30
0.0
 10
-184.8232
 20
210.4936
 30
0.0
 10
-187.1798
 20
205.8717
 30
0.0
 10
-190.8664
 20
200.696
 30
0.0
 10
-190.8664
 20
200.696
 30
0.0
 10
-195.3865
 20
193.8567
 30
0.0
 10
-194.4829
 20
184.98
 30
0.0
 10
-189.1319
 20
179.1908
 30
0.0
 10
-189.1319
 20
179.1908
 30
0.0
 10
-189.0478
 20
176.7249
 30
0.0
 10
-188.9286
 20
174.8683
 30
0.0
 10
-188.7745
 20
173.6211
 30
0.0
 10
-188.7745
 20
173.6211
 30
0.0
 10
-190.0419
 20
174.7214
 30
0.0
 10
-191.1705
 20
175.6312
 30
0.0
 10
-192.1603
 20
176.3504
 30
0.0
 10
-192.1603
 20
176.3504
 30
0.0
 10
-194.1686
 20
180.6457
 30
0.0
 10
-197.375
 20
184.359
 30
0.0
 10
-201.5008
 20
186.9834
 30
0.0
 10
-201.5008
 20
186.9834
 30
0.0
 10
-208.7876
 20
191.6185
 30
0.0
 10
-217.9353
 20
192.2167
 30
0.0
 10
-225.7637
 20
188.57
 30
0.0
 10
-225.7637
 20
188.57
 30
0.0
 10
-222.304
 20
185.362
 30
0.0
 10
-219.0156
 20
180.5427
 30
0.0
 10
-215.8983
 20
174.1124
 30
0.0
 10
-215.8983
 20
174.1124
 30
0.0
 10
-211.0293
 20
164.9017
 30
0.0
 10
-199.8551
 20
161.1209
 30
0.0
 10
-190.4337
 20
165.3709
 30
0.0
 10
-190.4337
 20
165.3709
 30
0.0
 10
-189.0918
 20
161.757
 30
0.0
 10
-187.8063
 20
158.2626
 30
0.0
 10
-186.5773
 20
154.8878
 30
0.0
 10
-186.5773
 20
154.8878
 30
0.0
 10
-186.5773
 20
154.8878
 30
0.0
 10
-228.9918
 20
154.8878
 30
0.0
 10
-228.9918
 20
154.8878
 30
0.0
 10
-228.9918
 20
154.8878
 30
0.0
 10
-228.9918
 20
154.8878
 30
0.0
 10
-228.9918
 20
141.7645
 30
0.0
 10
-228.9918
 20
141.7645
 30
0.0
 10
-228.9918
 20
141.7645
 30
0.0
 10
-228.9918
 20
141.7645
 30
0.0
 10
-181.87
 20
141.7645
 30
0.0
 10
-181.87
 20
141.7645
 30
0.0
 10
-181.87
 20
141.7645
 30
0.0
 10
-167.943
 20
102.2714
 30
0.0
 10
-163.489
 20
82.8432
 30
0.0
 10
-168.508
 20
83.4801
 30
0.0
 10
-168.508
 20
83.4801
 30
0.0
 10
-177.2386
 20
83.7386
 30
0.0
 10
-185.7247
 20
83.6965
 30
0.0
 10
-193.9665
 20
83.3538
 30
0.0
 10
-193.9665
 20
83.3538
 30
0.0
 10
-193.9665
 20
83.3538
 30
0.0
 10
-193.9665
 20
118.6731
 30
0.0
 10
-193.9665
 20
118.6731
 30
0.0
 10
-193.9665
 20
118.6731
 30
0.0
 10
-193.9665
 20
118.6731
 30
0.0
 10
-206.6665
 20
112.5348
 30
0.0
 10
-206.6665
 20
112.5348
 30
0.0
 10
-206.6665
 20
112.5348
 30
0.0
 10
-206.6665
 20
112.5348
 30
0.0
 10
-206.6665
 20
82.5721
 30
0.0
 10
-206.6665
 20
82.5721
 30
0.0
 10
-206.6665
 20
82.5721
 30
0.0
 10
-214.5285
 20
81.926
 30
0.0
 10
-222.1536
 20
80.9888
 30
0.0
 10
-229.5419
 20
79.7603
 30
0.0
 10
-229.5419
 20
79.7603
 30
0.0
 10
-221.3753
 20
87.5591
 30
0.0
 10
-217.2844
 20
99.1998
 30
0.0
 10
-219.5519
 20
110.9986
 30
0.0
 10
-219.5519
 20
110.9986
 30
0.0
 10
-228.0697
 20
109.0898
 30
0.0
 10
-235.4609
 20
103.8329
 30
0.0
 10
-240.0587
 20
96.413
 30
0.0
 10
-240.0587
 20
96.413
 30
0.0
 10
-242.2819
 20
92.8253
 30
0.0
 10
-243.7616
 20
88.8779
 30
0.0
 10
-244.4617
 20
84.7992
 30
0.0
 10
-244.4617
 20
84.7992
 30
0.0
 10
-247.5498
 20
98.5377
 30
0.0
 10
-258.3077
 20
109.8358
 30
0.0
 10
-272.801
 20
113.0441
 30
0.0
 10
-272.801
 20
113.0441
 30
0.0
 10
-274.5717
 20
103.6994
 30
0.0
 10
-272.5066
 20
94.0352
 30
0.0
 10
-267.0711
 20
86.2305
 30
0.0
 10
-267.0711
 20
86.2305
 30
0.0
 10
-264.1444
 20
82.028
 30
0.0
 10
-260.3732
 20
78.5551
 30
0.0
 10
-256.0513
 20
75.9979
 30
0.0
 10
-256.0513
 20
75.9979
 30
0.0
 10
-269.7603
 20
74.689
 30
0.0
 10
-282.1921
 20
74.0061
 30
0.0
 10
-293.3467
 20
73.9493
 30
0.0
 10
-293.3467
 20
73.9493
 30
0.0
 10
-301.8971
 20
73.9058
 30
0.0
 10
-315.294
 20
75.2006
 30
0.0
 10
-324.9368
 20
76.3424
 30
0.0
 10
-324.9368
 20
76.3424
 30
0.0
 10
-325.0037
 20
77.7868
 30
0.0
 10
-325.0285
 20
79.2201
 30
0.0
 10
-325.011
 20
80.6424
 30
0.0
 10
-325.011
 20
80.6424
 30
0.0
 10
-318.7777
 20
84.4504
 30
0.0
 10
-315.7076
 20
92.1233
 30
0.0
 10
-317.9735
 20
99.3788
 30
0.0
 10
-317.9735
 20
99.3788
 30
0.0
 10
-319.9323
 20
104.9586
 30
0.0
 10
-320.845
 20
109.6995
 30
0.0
 10
-320.7118
 20
113.6015
 30
0.0
 10
-320.7118
 20
113.6015
 30
0.0
 10
-327.4176
 20
111.1306
 30
0.0
 10
-332.3997
 20
105.4098
 30
0.0
 10
-333.9263
 20
98.4282
 30
0.0
 10
-333.9263
 20
98.4282
 30
0.0
 10
-335.2376
 20
92.4305
 30
0.0
 10
-333.8431
 20
86.2141
 30
0.0
 10
-330.2142
 20
81.3831
 30
0.0
 10
-330.2142
 20
81.3831
 30
0.0
 10
-330.4102
 20
80.0184
 30
0.0
 10
-330.575
 20
78.5786
 30
0.0
 10
-330.7085
 20
77.0637
 30
0.0
 10
-330.7085
 20
77.0637
 30
0.0
 10
-330.7085
 20
77.0637
 30
0.0
 10
-332.3995
 20
77.2926
 30
0.0
 10
-332.3995
 20
77.2926
 30
0.0
 10
-332.3995
 20
77.2926
 30
0.0
 10
-335.4073
 20
74.3804
 30
0.0
 10
-336.4657
 20
69.1593
 30
0.0
 10
-335.5745
 20
61.6293
 30
0.0
 10
-335.5745
 20
61.6293
 30
0.0
 10
-331.9195
 20
62.3663
 30
0.0
 10
-327.4039
 20
62.5074
 30
0.0
 10
-322.0278
 20
62.0526
 30
0.0
 10
-322.0278
 20
62.0526
 30
0.0
 10
-326.3868
 20
57.1218
 30
0.0
 10
-329.7572
 20
52.6395
 30
0.0
 10
-332.139
 20
48.6057
 30
0.0
 10
-332.139
 20
48.6057
 30
0.0
 10
-338.2701
 20
46.7615
 30
0.0
 10
-342.974
 20
41.3756
 30
0.0
 10
-343.6481
 20
34.6348
 30
0.0
 10
-343.6481
 20
34.6348
 30
0.0
 10
-344.0309
 20
28.7335
 30
0.0
 10
-345.0478
 20
24.0139
 30
0.0
 10
-346.6984
 20
20.4757
 30
0.0
 10
-346.6984
 20
20.4757
 30
0.0
 10
-339.5606
 20
20.1231
 30
0.0
 10
-332.736
 20
23.4359
 30
0.0
 10
-328.5973
 20
29.2621
 30
0.0
 10
-328.5973
 20
29.2621
 30
0.0
 10
-325.5629
 20
33.5338
 30
0.0
 10
-324.2797
 20
38.724
 30
0.0
 10
-324.8683
 20
43.8002
 30
0.0
 10
-324.8683
 20
43.8002
 30
0.0
 10
-321.2523
 20
52.9753
 30
0.0
 10
-305.4487
 20
59.5173
 30
0.0
 10
-277.4575
 20
63.4262
 30
0.0
 10
-277.4575
 20
63.4262
 30
0.0
 10
-277.4575
 20
63.4262
 30
0.0
 10
-277.4575
 20
-2.4778
 30
0.0
 10
-277.4575
 20
-2.4778
 30
0.0
 10
-277.4575
 20
-2.4778
 30
0.0
 10
-277.4575
 20
-2.4778
 30
0.0
 10
-292.7117
 20
-2.4778
 30
0.0
 10
-292.7117
 20
-2.4778
 30
0.0
 10
-292.7117
 20
-2.4778
 30
0.0
 10
-292.7117
 20
-2.4778
 30
0.0
 10
-292.7117
 20
-166.4777
 30
0.0
 10
-292.7117
 20
-166.4777
 30
0.0
 10
-292.7117
 20
-166.4777
 30
0.0
 10
-292.7117
 20
-166.4777
 30
0.0
 10
-178.7118
 20
-166.4777
 30
0.0
 10
-178.7118
 20
-166.4777
 30
0.0
 10
-178.7118
 20
-166.4777
 30
0.0
 10
-178.7118
 20
-166.4777
 30
0.0
 10
-178.7118
 20
-89.3591
 30
0.0
 10
-178.7118
 20
-89.3591
 30
0.0
 10
-178.7118
 20
-89.3591
 30
0.0
 10
-162.7988
 20
-97.4828
 30
0.0
 10
-155.6933
 20
-107.109
 30
0.0
 10
-157.3956
 20
-118.2381
 30
0.0
 10
-157.3956
 20
-118.2381
 30
0.0
 10
-160.6246
 20
-143.6236
 30
0.0
 10
-163.3057
 20
-166.4837
 30
0.0
 10
-165.4389
 20
-186.8182
 30
0.0
 10
-165.4389
 20
-186.8182
 30
0.0
 10
-165.4389
 20
-186.8182
 30
0.0
 10
-157.3389
 20
-186.8182
 30
0.0
 10
-157.3389
 20
-186.8182
 30
0.0
  0
SPLINE
  5
76
330
1F
100
AcDbEntity
  8
Layer 1
 62
   250
370
    20
100
AcDbSpline
210
0.0
220
0.0
230
1.0
 70
    11
 71
     3
 72
    24
 73
    20
 74
     0
 42
0.000000001
 43
0.0000000001
 40
0.0
 40
0.0
 40
0.0
 40
0.0
 40
0.1666666666666667
 40
0.1666666666666667
 40
0.1666666666666667
 40
0.1666666666666667
 40
0.3333333333333333
 40
0.3333333333333333
 40
0.3333333333333333
 40
0.3333333333333333
 40
0.5
 40
0.5
 40
0.5
 40
0.5
 40
0.6666666666666666
 40
0.6666666666666666
 40
0.6666666666666666
 40
0.6666666666666666
 40
1.0
 40
1.0
 40
1.0
 40
1.0
 10
-83.4918
 20
89.7137
 30
0.0
 10
-83.4918
 20
89.7137
 30
0.0
 10
-83.7295
 20
89.6775
 30
0.0
 10
-83.7295
 20
89.6775
 30
0.0
 10
-83.7295
 20
89.6775
 30
0.0
 10
-86.2259
 20
89.301
 30
0.0
 10
-88.7511
 20
89.024
 30
0.0
 10
-91.2851
 20
88.8218
 30
0.0
 10
-91.2851
 20
88.8218
 30
0.0
 10
-91.1927
 20
89.9739
 30
0.0
 10
-91.0654
 20
91.0706
 30
0.0
 10
-90.9034
 20
92.1119
 30
0.0
 10
-90.9034
 20
92.1119
 30
0.0
 10
-90.5313
 20
91.8867
 30
0.0
 10
-90.1469
 20
91.6664
 30
0.0
 10
-89.7488
 20
91.4513
 30
0.0
 10
-89.7488
 20
91.4513
 30
0.0
 10
-87.7197
 20
90.6555
 30
0.0
 10
-85.634
 20
90.0763
 30
0.0
 10
-83.4918
 20
89.7137
 30
0.0
  0
SPLINE
  5
77
330
1F
100
AcDbEntity
  8
Layer 1
 62
   250
370
    20
100
AcDbSpline
210
0.0
220
0.0
230
1.0
 70
    11
 71
     3
 72
    36
 73
    32
 74
     0
 42
0.000000001
 43
0.0000000001
 40
0.0
 40
0.0
 40
0.0
 40
0.0
 40
0.1111111111111111
 40
0.1111111111111111
 40
0.1111111111111111
 40
0.1111111111111111
 40
0.2222222222222222
 40
0.2222222222222222
 40
0.2222222222222222
 40
0.2222222222222222
 40
0.3333333333333333
 40
0.3333333333333333
 40
0.3333333333333333
 40
0.3333333333333333
 40
0.4444444444444444
 40
0.4444444444444444
 40
0.4444444444444444
 40
0.4444444444444444
 40
0.5555555555555556
 40
0.5555555555555556
 40
0.5555555555555556
 40
0.5555555555555556
 40
0.6666666666666666
 40
0.6666666666666666
 40
0.6666666666666666
 40
0.6666666666666666
 40
0.7777777777777778
 40
0.7777777777777778
 40
0.7777777777777778
 40
0.7777777777777778
 40
1.0
 40
1.0
 40
1.0
 40
1.0
 10
-96.2222
 20
96.7406
 30
0.0
 10
-100.4787
 20
95.1747
 30
0.0
 10
-104.1729
 20
92.2456
 30
0.0
 10
-106.6683
 20
88.3168
 30
0.0
 10
-106.6683
 20
88.3168
 30
0.0
 10
-107.4078
 20
88.3199
 30
0.0
 10
-108.1474
 20
88.3263
 30
0.0
 10
-108.8871
 20
88.3358
 30
0.0
 10
-108.8871
 20
88.3358
 30
0.0
 10
-102.9117
 20
92.3784
 30
0.0
 10
-100.672
 20
96.8561
 30
0.0
 10
-102.1681
 20
101.7688
 30
0.0
 10
-102.1681
 20
101.7688
 30
0.0
 10
-102.7337
 20
104.6479
 30
0.0
 10
-102.5316
 20
107.0364
 30
0.0
 10
-101.5612
 20
108.9334
 30
0.0
 10
-101.5612
 20
108.9334
 30
0.0
 10
-101.5612
 20
108.9334
 30
0.0
 10
-101.6484
 20
108.9702
 30
0.0
 10
-101.6484
 20
108.9702
 30
0.0
 10
-101.6484
 20
108.9702
 30
0.0
 10
-101.0278
 20
109.4824
 30
0.0
 10
-100.3562
 20
110.0987
 30
0.0
 10
-99.7057
 20
110.7778
 30
0.0
 10
-99.7057
 20
110.7778
 30
0.0
 10
-98.4792
 20
109.8316
 30
0.0
 10
-98.1363
 20
108.6904
 30
0.0
 10
-98.6774
 20
107.3544
 30
0.0
 10
-98.6774
 20
107.3544
 30
0.0
 10
-99.289
 20
103.2687
 30
0.0
 10
-98.4705
 20
99.7309
 30
0.0
 10
-96.2222
 20
96.7406
 30
0.0
  0
SPLINE
  5
78
330
1F
100
AcDbEntity
  8
Layer 1
 62
   250
370
    20
100
AcDbSpline
210
0.0
220
0.0
230
1.0
 70
    11
 71
     3
 72
    36
 73
    32
 74
     0
 42
0.000000001
 43
0.0000000001
 40
0.0
 40
0.0
 40
0.0
 40
0.0
 40
0.1111111111111111
 40
0.1111111111111111
 40
0.1111111111111111
 40
0.1111111111111111
 40
0.2222222222222222
 40
0.2222222222222222
 40
0.2222222222222222
 40
0.2222222222222222
 40
0.3333333333333333
 40
0.3333333333333333
 40
0.3333333333333333
 40
0.3333333333333333
 40
0.4444444444444444
 40
0.4444444444444444
 40
0.4444444444444444
 40
0.4444444444444444
 40
0.5555555555555556
 40
0.5555555555555556
 40
0.5555555555555556
 40
0.5555555555555556
 40
0.6666666666666666
 40
0.6666666666666666
 40
0.6666666666666666
 40
0.6666666666666666
 40
0.7777777777777778
 40
0.7777777777777778
 40
0.7777777777777778
 40
0.7777777777777778
 40
1.0
 40
1.0
 40
1.0
 40
1.0
 10
-145.1934
 20
74.5656
 30
0.0
 10
-145.5334
 20
75.7062
 30
0.0
 10
-145.8715
 20
76.8726
 30
0.0
 10
-146.2077
 20
78.0647
 30
0.0
 10
-146.2077
 20
78.0647
 30
0.0
 10
-146.2077
 20
78.0647
 30
0.0
 10
-145.3358
 20
78.7506
 30
0.0
 10
-145.3358
 20
78.7506
 30
0.0
 10
-145.3358
 20
78.7506
 30
0.0
 10
-139.4143
 20
83.4086
 30
0.0
 10
-131.9318
 20
84.4206
 30
0.0
 10
-124.6103
 20
83.8552
 30
0.0
 10
-124.6103
 20
83.8552
 30
0.0
 10
-124.6103
 20
83.8552
 30
0.0
 10
-124.5658
 20
83.8522
 30
0.0
 10
-124.5658
 20
83.8522
 30
0.0
 10
-124.5658
 20
83.8522
 30
0.0
 10
-119.391
 20
83.5438
 30
0.0
 10
-114.1963
 20
83.3249
 30
0.0
 10
-109.0041
 20
83.257
 30
0.0
 10
-109.0041
 20
83.257
 30
0.0
 10
-110.1518
 20
79.5321
 30
0.0
 10
-110.2391
 20
75.5484
 30
0.0
 10
-109.2439
 20
71.7651
 30
0.0
 10
-109.2439
 20
71.7651
 30
0.0
 10
-110.6056
 20
66.1231
 30
0.0
 10
-111.6089
 20
56.1093
 30
0.0
 10
-111.7448
 20
49.4194
 30
0.0
 10
-111.7448
 20
49.4194
 30
0.0
 10
-122.6616
 20
58.4013
 30
0.0
 10
-133.8112
 20
66.7834
 30
0.0
 10
-145.1934
 20
74.5656
 30
0.0
  0
SPLINE
  5
79
330
1F
100
AcDbEntity
  8
Layer 1
 62
   250
370
    20
100
AcDbSpline
210
0.0
220
0.0
230
1.0
 70
    11
 71
     3
 72
    20
 73
    16
 74
     0
 42
0.000000001
 43
0.0000000001
 40
0.0
 40
0.0
 40
0.0
 40
0.0
 40
0.2
 40
0.2
 40
0.2
 40
0.2
 40
0.4
 40
0.4
 40
0.4
 40
0.4
 40
0.6
 40
0.6
 40
0.6
 40
0.6
 40
1.0
 40
1.0
 40
1.0
 40
1.0
 10
104.3056
 20
-102.82
 30
0.0
 10
104.3056
 20
-102.82
 30
0.0
 10
10.3057
 20
-102.82
 30
0.0
 10
10.3057
 20
-102.82
 30
0.0
 10
10.3057
 20
-102.82
 30
0.0
 10
10.3057
 20
-102.82
 30
0.0
 10
10.3057
 20
41.1799
 30
0.0
 10
10.3057
 20
41.1799
 30
0.0
 10
10.3057
 20
41.1799
 30
0.0
 10
10.3057
 20
41.1799
 30
0.0
 10
104.3056
 20
41.1799
 30
0.0
 10
104.3056
 20
41.1799
 30
0.0
 10
104.3056
 20
41.1799
 30
0.0
 10
104.3056
 20
41.1799
 30
0.0
 10
104.3056
 20
-102.82
 30
0.0
 10
104.3056
 20
-102.82
 30
0.0
  0
SPLINE
  5
7A
330
1F
100
AcDbEntity
  8
Layer 1
 62
   250
370
    20
100
AcDbSpline
210
0.0
220
0.0
230
1.0
 70
    11
 71
     3
 72
    36
 73
    32
 74
     0
 42
0.000000001
 43
0.0000000001
 40
0.0
 40
0.0
 40
0.0
 40
0.0
 40
0.1111111111111111
 40
0.1111111111111111
 40
0.1111111111111111
 40
0.1111111111111111
 40
0.2222222222222222
 40
0.2222222222222222
 40
0.2222222222222222
 40
0.2222222222222222
 40
0.3333333333333333
 40
0.3333333333333333
 40
0.3333333333333333
 40
0.3333333333333333
 40
0.4444444444444444
 40
0.4444444444444444
 40
0.4444444444444444
 40
0.4444444444444444
 40
0.5555555555555556
 40
0.5555555555555556
 40
0.5555555555555556
 40
0.5555555555555556
 40
0.6666666666666666
 40
0.6666666666666666
 40
0.6666666666666666
 40
0.6666666666666666
 40
0.7777777777777778
 40
0.7777777777777778
 40
0.7777777777777778
 40
0.7777777777777778
 40
1.0
 40
1.0
 40
1.0
 40
1.0
 10
32.4691
 20
51.18
 30
0.0
 10
32.4691
 20
51.18
 30
0.0
 10
32.4691
 20
90.5645
 30
0.0
 10
32.4691
 20
90.5645
 30
0.0
 10
32.4691
 20
90.5645
 30
0.0
 10
49.1251
 20
91.5034
 30
0.0
 10
65.6411
 20
91.5917
 30
0.0
 10
82.0171
 20
90.8293
 30
0.0
 10
82.0171
 20
90.8293
 30
0.0
 10
84.7325
 20
88.2253
 30
0.0
 10
87.6194
 20
85.621
 30
0.0
 10
90.6778
 20
83.0165
 30
0.0
 10
90.6778
 20
83.0165
 30
0.0
 10
84.6751
 20
76.3382
 30
0.0
 10
86.5417
 20
66.2941
 30
0.0
 10
96.2776
 20
52.8843
 30
0.0
 10
96.2776
 20
52.8843
 30
0.0
 10
100.385
 20
61.5601
 30
0.0
 10
102.0684
 20
68.7554
 30
0.0
 10
101.3277
 20
74.4703
 30
0.0
 10
101.3277
 20
74.4703
 30
0.0
 10
102.2937
 20
73.7374
 30
0.0
 10
103.2733
 20
73.0044
 30
0.0
 10
104.2664
 20
72.2715
 30
0.0
 10
104.2664
 20
72.2715
 30
0.0
 10
101.8096
 20
66.3122
 30
0.0
 10
100.7366
 20
59.2817
 30
0.0
 10
101.0474
 20
51.18
 30
0.0
 10
101.0474
 20
51.18
 30
0.0
 10
101.0474
 20
51.18
 30
0.0
 10
32.4691
 20
51.18
 30
0.0
 10
32.4691
 20
51.18
 30
0.0
  0
SPLINE
  5
7B
330
1F
100
AcDbEntity
  8
Layer 1
 62
   250
370
    20
100
AcDbSpline
210
0.0
220
0.0
230
1.0
 70
    11
 71
     3
 72
    24
 73
    20
 74
     0
 42
0.000000001
 43
0.0000000001
 40
0.0
 40
0.0
 40
0.0
 40
0.0
 40
0.1666666666666667
 40
0.1666666666666667
 40
0.1666666666666667
 40
0.1666666666666667
 40
0.3333333333333333
 40
0.3333333333333333
 40
0.3333333333333333
 40
0.3333333333333333
 40
0.5
 40
0.5
 40
0.5
 40
0.5
 40
0.6666666666666666
 40
0.6666666666666666
 40
0.6666666666666666
 40
0.6666666666666666
 40
1.0
 40
1.0
 40
1.0
 40
1.0
 10
154.3891
 20
25.7801
 30
0.0
 10
154.3891
 20
25.7801
 30
0.0
 10
154.3891
 20
81.734
 30
0.0
 10
154.3891
 20
81.734
 30
0.0
 10
154.3891
 20
81.734
 30
0.0
 10
159.9449
 20
80.5847
 30
0.0
 10
165.4837
 20
79.3323
 30
0.0
 10
171.0055
 20
77.9768
 30
0.0
 10
171.0055
 20
77.9768
 30
0.0
 10
179.8846
 20
74.5786
 30
0.0
 10
188.0251
 20
72.0681
 30
0.0
 10
195.4524
 20
70.4336
 30
0.0
 10
195.4524
 20
70.4336
 30
0.0
 10
195.4524
 20
70.4336
 30
0.0
 10
195.4524
 20
25.7801
 30
0.0
 10
195.4524
 20
25.7801
 30
0.0
 10
195.4524
 20
25.7801
 30
0.0
 10
195.4524
 20
25.7801
 30
0.0
 10
154.3891
 20
25.7801
 30
0.0
 10
154.3891
 20
25.7801
 30
0.0
  0
SPLINE
  5
7C
330
1F
100
AcDbEntity
  8
Layer 1
 62
   250
370
    20
100
AcDbSpline
210
0.0
220
0.0
230
1.0
 70
    11
 71
     3
 72
    32
 73
    28
 74
     0
 42
0.000000001
 43
0.0000000001
 40
0.0
 40
0.0
 40
0.0
 40
0.0
 40
0.125
 40
0.125
 40
0.125
 40
0.125
 40
0.25
 40
0.25
 40
0.25
 40
0.25
 40
0.375
 40
0.375
 40
0.375
 40
0.375
 40
0.5
 40
0.5
 40
0.5
 40
0.5
 40
0.625
 40
0.625
 40
0.625
 40
0.625
 40
0.75
 40
0.75
 40
0.75
 40
0.75
 40
1.0
 40
1.0
 40
1.0
 40
1.0
 10
-69.3293
 20
88.2288
 30
0.0
 10
-82.0444
 20
79.2571
 30
0.0
 10
-92.1028
 20
67.7964
 30
0.0
 10
-99.5046
 20
53.8468
 30
0.0
 10
-99.5046
 20
53.8468
 30
0.0
 10
-101.0965
 20
51.3133
 30
0.0
 10
-102.6675
 20
49.0604
 30
0.0
 10
-104.2176
 20
47.088
 30
0.0
 10
-104.2176
 20
47.088
 30
0.0
 10
-104.8245
 20
53.2335
 30
0.0
 10
-104.6542
 20
62.6763
 30
0.0
 10
-104.2013
 20
68.312
 30
0.0
 10
-104.2013
 20
68.312
 30
0.0
 10
-97.094
 20
69.887
 30
0.0
 10
-91.7073
 20
76.1143
 30
0.0
 10
-91.4686
 20
83.6899
 30
0.0
 10
-91.4686
 20
83.6899
 30
0.0
 10
-91.4686
 20
83.6899
 30
0.0
 10
-91.4687
 20
83.7127
 30
0.0
 10
-91.4687
 20
83.7127
 30
0.0
 10
-91.4687
 20
83.7127
 30
0.0
 10
-88.6198
 20
83.9275
 30
0.0
 10
-85.7794
 20
84.2309
 30
0.0
 10
-82.972
 20
84.6543
 30
0.0
 10
-82.972
 20
84.6543
 30
0.0
 10
-78.8077
 20
85.2823
 30
0.0
 10
-73.7691
 20
86.3138
 30
0.0
 10
-69.3293
 20
88.2288
 30
0.0
  0
SPLINE
  5
7D
330
1F
100
AcDbEntity
  8
Layer 1
 62
   250
370
    20
100
AcDbSpline
210
0.0
220
0.0
230
1.0
 70
    11
 71
     3
 72
    28
 73
    24
 74
     0
 42
0.000000001
 43
0.0000000001
 40
0.0
 40
0.0
 40
0.0
 40
0.0
 40
0.1428571428571428
 40
0.1428571428571428
 40
0.1428571428571428
 40
0.1428571428571428
 40
0.2857142857142857
 40
0.2857142857142857
 40
0.2857142857142857
 40
0.2857142857142857
 40
0.4285714285714285
 40
0.4285714285714285
 40
0.4285714285714285
 40
0.4285714285714285
 40
0.5714285714285714
 40
0.5714285714285714
 40
0.5714285714285714
 40
0.5714285714285714
 40
0.7142857142857143
 40
0.7142857142857143
 40
0.7142857142857143
 40
0.7142857142857143
 40
1.0
 40
1.0
 40
1.0
 40
1.0
 10
-156.1256
 20
50.6719
 30
0.0
 10
-142.145
 20
14.2317
 30
0.0
 10
-139.0406
 20
-32.3349
 30
0.0
 10
-146.8123
 20
-89.0281
 30
0.0
 10
-146.8123
 20
-89.0281
 30
0.0
 10
-159.5477
 20
-80.4434
 30
0.0
 10
-170.1809
 20
-74.3222
 30
0.0
 10
-178.7118
 20
-70.6647
 30
0.0
 10
-178.7118
 20
-70.6647
 30
0.0
 10
-178.7118
 20
-70.6647
 30
0.0
 10
-178.7118
 20
-2.4778
 30
0.0
 10
-178.7118
 20
-2.4778
 30
0.0
 10
-178.7118
 20
-2.4778
 30
0.0
 10
-178.7118
 20
-2.4778
 30
0.0
 10
-193.9665
 20
-2.4778
 30
0.0
 10
-193.9665
 20
-2.4778
 30
0.0
 10
-193.9665
 20
-2.4778
 30
0.0
 10
-193.9665
 20
-2.4778
 30
0.0
 10
-193.9665
 20
69.863
 30
0.0
 10
-193.9665
 20
69.863
 30
0.0
 10
-193.9665
 20
69.863
 30
0.0
 10
-172.1608
 20
69.1547
 30
0.0
 10
-159.5472
 20
62.7577
 30
0.0
 10
-156.1256
 20
50.6719
 30
0.0
  0
SPLINE
  5
7E
330
1F
100
AcDbEntity
  8
Layer 1
 62
   250
370
    20
100
AcDbSpline
210
0.0
220
0.0
230
1.0
 70
    11
 71
     3
 72
    12
 73
     8
 74
     0
 42
0.000000001
 43
0.0000000001
 40
0.0
 40
0.0
 40
0.0
 40
0.0
 40
0.3333333333333333
 40
0.3333333333333333
 40
0.3333333333333333
 40
0.3333333333333333
 40
1.0
 40
1.0
 40
1.0
 40
1.0
 10
-113.7503
 20
38.3503
 30
0.0
 10
-123.1641
 20
33.2737
 30
0.0
 10
-131.7097
 20
39.8341
 30
0.0
 10
-139.3871
 20
58.0318
 30
0.0
 10
-139.3871
 20
58.0318
 30
0.0
 10
-130.2243
 20
51.8928
 30
0.0
 10
-121.6786
 20
45.3323
 30
0.0
 10
-113.7503
 20
38.3503
 30
0.0
  0
SPLINE
  5
7F
330
1F
100
AcDbEntity
  8
Layer 1
 62
   250
370
    20
100
AcDbSpline
210
0.0
220
0.0
230
1.0
 70
    11
 71
     3
 72
    20
 73
    16
 74
     0
 42
0.000000001
 43
0.0000000001
 40
0.0
 40
0.0
 40
0.0
 40
0.0
 40
0.2
 40
0.2
 40
0.2
 40
0.2
 40
0.4
 40
0.4
 40
0.4
 40
0.4
 40
0.6
 40
0.6
 40
0.6
 40
0.6
 40
1.0
 40
1.0
 40
1.0
 40
1.0
 10
135.6125
 20
-128.2199
 30
0.0
 10
135.6125
 20
-128.2199
 30
0.0
 10
135.6125
 20
15.78
 30
0.0
 10
135.6125
 20
15.78
 30
0.0
 10
135.6125
 20
15.78
 30
0.0
 10
135.6125
 20
15.78
 30
0.0
 10
229.6124
 20
15.78
 30
0.0
 10
229.6124
 20
15.78
 30
0.0
 10
229.6124
 20
15.78
 30
0.0
 10
229.6124
 20
15.78
 30
0.0
 10
229.6124
 20
-128.2199
 30
0.0
 10
229.6124
 20
-128.2199
 30
0.0
 10
229.6124
 20
-128.2199
 30
0.0
 10
229.6124
 20
-128.2199
 30
0.0
 10
135.6125
 20
-128.2199
 30
0.0
 10
135.6125
 20
-128.2199
 30
0.0
  0
SPLINE
  5
80
330
1F
100
AcDbEntity
  8
Layer 1
 62
   250
370
    20
100
AcDbSpline
210
0.0
220
0.0
230
1.0
 70
    11
 71
     3
 72
    24
 73
    20
 74
     0
 42
0.000000001
 43
0.0000000001
 40
0.0
 40
0.0
 40
0.0
 40
0.0
 40
0.1666666666666667
 40
0.1666666666666667
 40
0.1666666666666667
 40
0.1666666666666667
 40
0.3333333333333333
 40
0.3333333333333333
 40
0.3333333333333333
 40
0.3333333333333333
 40
0.5
 40
0.5
 40
0.5
 40
0.5
 40
0.6666666666666666
 40
0.6666666666666666
 40
0.6666666666666666
 40
0.6666666666666666
 40
1.0
 40
1.0
 40
1.0
 40
1.0
 10
-188.7119
 20
-67.2764
 30
0.0
 10
-188.7119
 20
-67.2764
 30
0.0
 10
-188.7119
 20
-156.4778
 30
0.0
 10
-188.7119
 20
-156.4778
 30
0.0
 10
-188.7119
 20
-156.4778
 30
0.0
 10
-188.7119
 20
-156.4778
 30
0.0
 10
-282.7118
 20
-156.4778
 30
0.0
 10
-282.7118
 20
-156.4778
 30
0.0
 10
-282.7118
 20
-156.4778
 30
0.0
 10
-282.7118
 20
-156.4778
 30
0.0
 10
-282.7118
 20
-12.4779
 30
0.0
 10
-282.7118
 20
-12.4779
 30
0.0
 10
-282.7118
 20
-12.4779
 30
0.0
 10
-282.7118
 20
-12.4779
 30
0.0
 10
-188.7119
 20
-12.4779
 30
0.0
 10
-188.7119
 20
-12.4779
 30
0.0
 10
-188.7119
 20
-12.4779
 30
0.0
 10
-188.7119
 20
-12.4779
 30
0.0
 10
-188.7119
 20
-67.2764
 30
0.0
 10
-188.7119
 20
-67.2764
 30
0.0
  0
SPLINE
  5
81
330
1F
100
AcDbEntity
  8
Layer 1
 62
   250
370
    20
100
AcDbSpline
210
0.0
220
0.0
230
1.0
 70
    11
 71
     3
 72
    24
 73
    20
 74
     0
 42
0.000000001
 43
0.0000000001
 40
0.0
 40
0.0
 40
0.0
 40
0.0
 40
0.1666666666666667
 40
0.1666666666666667
 40
0.1666666666666667
 40
0.1666666666666667
 40
0.3333333333333333
 40
0.3333333333333333
 40
0.3333333333333333
 40
0.3333333333333333
 40
0.5
 40
0.5
 40
0.5
 40
0.5
 40
0.6666666666666666
 40
0.6666666666666666
 40
0.6666666666666666
 40
0.6666666666666666
 40
1.0
 40
1.0
 40
1.0
 40
1.0
 10
-206.6665
 20
69.6909
 30
0.0
 10
-206.6665
 20
69.6909
 30
0.0
 10
-206.6665
 20
-2.4778
 30
0.0
 10
-206.6665
 20
-2.4778
 30
0.0
 10
-206.6665
 20
-2.4778
 30
0.0
 10
-206.6665
 20
-2.4778
 30
0.0
 10
-264.7575
 20
-2.4778
 30
0.0
 10
-264.7575
 20
-2.4778
 30
0.0
 10
-264.7575
 20
-2.4778
 30
0.0
 10
-264.7575
 20
-2.4778
 30
0.0
 10
-264.7575
 20
64.9359
 30
0.0
 10
-264.7575
 20
64.9359
 30
0.0
 10
-264.7575
 20
64.9359
 30
0.0
 10
-254.5294
 20
65.9629
 30
0.0
 10
-243.0132
 20
66.7115
 30
0.0
 10
-230.209
 20
67.1819
 30
0.0
 10
-230.209
 20
67.1819
 30
0.0
 10
-221.625
 20
68.474
 30
0.0
 10
-213.7775
 20
69.3103
 30
0.0
 10
-206.6665
 20
69.6909
 30
0.0
  0
SPLINE
  5
82
330
1F
100
AcDbEntity
  8
Layer 1
 62
   250
370
    20
100
AcDbSpline
210
0.0
220
0.0
230
1.0
 70
    11
 71
     3
 72
    44
 73
    40
 74
     0
 42
0.000000001
 43
0.0000000001
 40
0.0
 40
0.0
 40
0.0
 40
0.0
 40
0.0909090909090909
 40
0.0909090909090909
 40
0.0909090909090909
 40
0.0909090909090909
 40
0.1818181818181818
 40
0.1818181818181818
 40
0.1818181818181818
 40
0.1818181818181818
 40
0.2727272727272727
 40
0.2727272727272727
 40
0.2727272727272727
 40
0.2727272727272727
 40
0.3636363636363636
 40
0.3636363636363636
 40
0.3636363636363636
 40
0.3636363636363636
 40
0.4545454545454545
 40
0.4545454545454545
 40
0.4545454545454545
 40
0.4545454545454545
 40
0.5454545454545454
 40
0.5454545454545454
 40
0.5454545454545454
 40
0.5454545454545454
 40
0.6363636363636364
 40
0.6363636363636364
 40
0.6363636363636364
 40
0.6363636363636364
 40
0.7272727272727273
 40
0.7272727272727273
 40
0.7272727272727273
 40
0.7272727272727273
 40
0.8181818181818182
 40
0.8181818181818182
 40
0.8181818181818182
 40
0.8181818181818182
 40
1.0
 40
1.0
 40
1.0
 40
1.0
 10
413.1204
 20
-152.3109
 30
0.0
 10
413.1204
 20
-152.3109
 30
0.0
 10
413.1204
 20
-5.311
 30
0.0
 10
413.1204
 20
-5.311
 30
0.0
 10
413.1204
 20
-5.311
 30
0.0
 10
413.1204
 20
-5.311
 30
0.0
 10
413.1204
 20
4.6891
 30
0.0
 10
413.1204
 20
4.6891
 30
0.0
 10
413.1204
 20
4.6891
 30
0.0
 10
413.1204
 20
4.6891
 30
0.0
 10
420.1203
 20
4.6891
 30
0.0
 10
420.1203
 20
4.6891
 30
0.0
 10
420.1203
 20
4.6891
 30
0.0
 10
420.1203
 20
4.6891
 30
0.0
 10
420.1203
 20
-159.3108
 30
0.0
 10
420.1203
 20
-159.3108
 30
0.0
 10
420.1203
 20
-159.3108
 30
0.0
 10
420.1203
 20
-159.3108
 30
0.0
 10
306.1204
 20
-159.3108
 30
0.0
 10
306.1204
 20
-159.3108
 30
0.0
 10
306.1204
 20
-159.3108
 30
0.0
 10
306.1204
 20
-159.3108
 30
0.0
 10
306.1204
 20
4.6891
 30
0.0
 10
306.1204
 20
4.6891
 30
0.0
 10
306.1204
 20
4.6891
 30
0.0
 10
306.1204
 20
4.6891
 30
0.0
 10
313.1205
 20
4.6891
 30
0.0
 10
313.1205
 20
4.6891
 30
0.0
 10
313.1205
 20
4.6891
 30
0.0
 10
313.1205
 20
4.6891
 30
0.0
 10
313.1205
 20
-5.311
 30
0.0
 10
313.1205
 20
-5.311
 30
0.0
 10
313.1205
 20
-5.311
 30
0.0
 10
313.1205
 20
-5.311
 30
0.0
 10
313.1205
 20
-152.3109
 30
0.0
 10
313.1205
 20
-152.3109
 30
0.0
 10
313.1205
 20
-152.3109
 30
0.0
 10
313.1205
 20
-152.3109
 30
0.0
 10
413.1204
 20
-152.3109
 30
0.0
 10
413.1204
 20
-152.3109
 30
0.0
  0
SPLINE
  5
83
330
1F
100
AcDbEntity
  8
Layer 1
 62
   250
370
    20
100
AcDbSpline
210
0.0
220
0.0
230
1.0
 70
    11
 71
     3
 72
    44
 73
    40
 74
     0
 42
0.000000001
 43
0.0000000001
 40
0.0
 40
0.0
 40
0.0
 40
0.0
 40
0.0909090909090909
 40
0.0909090909090909
 40
0.0909090909090909
 40
0.0909090909090909
 40
0.1818181818181818
 40
0.1818181818181818
 40
0.1818181818181818
 40
0.1818181818181818
 40
0.2727272727272727
 40
0.2727272727272727
 40
0.2727272727272727
 40
0.2727272727272727
 40
0.3636363636363636
 40
0.3636363636363636
 40
0.3636363636363636
 40
0.3636363636363636
 40
0.4545454545454545
 40
0.4545454545454545
 40
0.4545454545454545
 40
0.4545454545454545
 40
0.5454545454545454
 40
0.5454545454545454
 40
0.5454545454545454
 40
0.5454545454545454
 40
0.6363636363636364
 40
0.6363636363636364
 40
0.6363636363636364
 40
0.6363636363636364
 40
0.7272727272727273
 40
0.7272727272727273
 40
0.7272727272727273
 40
0.7272727272727273
 40
0.8181818181818182
 40
0.8181818181818182
 40
0.8181818181818182
 40
0.8181818181818182
 40
1.0
 40
1.0
 40
1.0
 40
1.0
 10
304.1202
 20
6.6893
 30
0.0
 10
304.1202
 20
6.6893
 30
0.0
 10
304.1202
 20
-140.3106
 30
0.0
 10
304.1202
 20
-140.3106
 30
0.0
 10
304.1202
 20
-140.3106
 30
0.0
 10
304.1202
 20
-140.3106
 30
0.0
 10
304.1202
 20
-150.3107
 30
0.0
 10
304.1202
 20
-150.3107
 30
0.0
 10
304.1202
 20
-150.3107
 30
0.0
 10
304.1202
 20
-150.3107
 30
0.0
 10
297.1203
 20
-150.3107
 30
0.0
 10
297.1203
 20
-150.3107
 30
0.0
 10
297.1203
 20
-150.3107
 30
0.0
 10
297.1203
 20
-150.3107
 30
0.0
 10
297.1203
 20
13.6892
 30
0.0
 10
297.1203
 20
13.6892
 30
0.0
 10
297.1203
 20
13.6892
 30
0.0
 10
297.1203
 20
13.6892
 30
0.0
 10
411.1202
 20
13.6892
 30
0.0
 10
411.1202
 20
13.6892
 30
0.0
 10
411.1202
 20
13.6892
 30
0.0
 10
411.1202
 20
13.6892
 30
0.0
 10
411.1202
 20
-150.3107
 30
0.0
 10
411.1202
 20
-150.3107
 30
0.0
 10
411.1202
 20
-150.3107
 30
0.0
 10
411.1202
 20
-150.3107
 30
0.0
 10
404.1201
 20
-150.3107
 30
0.0
 10
404.1201
 20
-150.3107
 30
0.0
 10
404.1201
 20
-150.3107
 30
0.0
 10
404.1201
 20
-150.3107
 30
0.0
 10
404.1201
 20
-140.3106
 30
0.0
 10
404.1201
 20
-140.3106
 30
0.0
 10
404.1201
 20
-140.3106
 30
0.0
 10
404.1201
 20
-140.3106
 30
0.0
 10
404.1201
 20
6.6893
 30
0.0
 10
404.1201
 20
6.6893
 30
0.0
 10
404.1201
 20
6.6893
 30
0.0
 10
404.1201
 20
6.6893
 30
0.0
 10
304.1202
 20
6.6893
 30
0.0
 10
304.1202
 20
6.6893
 30
0.0
  0
SPLINE
  5
84
330
1F
100
AcDbEntity
  8
Layer 1
 62
   230
100
AcDbSpline
210
0.0
220
0.0
230
1.0
 70
    11
 71
     3
 72
    80
 73
    76
 74
     0
 42
0.000000001
 43
0.0000000001
 40
0.0
 40
0.0
 40
0.0
 40
0.0
 40
0.05
 40
0.05
 40
0.05
 40
0.05
 40
0.1
 40
0.1
 40
0.1
 40
0.1
 40
0.15
 40
0.15
 40
0.15
 40
0.15
 40
0.2
 40
0.2
 40
0.2
 40
0.2
 40
0.25
 40
0.25
 40
0.25
 40
0.25
 40
0.3
 40
0.3
 40
0.3
 40
0.3
 40
0.35
 40
0.35
 40
0.35
 40
0.35
 40
0.4
 40
0.4
 40
0.4
 40
0.4
 40
0.45
 40
0.45
 40
0.45
 40
0.45
 40
0.5
 40
0.5
 40
0.5
 40
0.5
 40
0.55
 40
0.55
 40
0.55
 40
0.55
 40
0.6
 40
0.6
 40
0.6
 40
0.6
 40
0.65
 40
0.65
 40
0.65
 40
0.65
 40
0.7
 40
0.7
 40
0.7
 40
0.7
 40
0.75
 40
0.75
 40
0.75
 40
0.75
 40
0.8
 40
0.8
 40
0.8
 40
0.8
 40
0.85
 40
0.85
 40
0.85
 40
0.85
 40
0.9
 40
0.9
 40
0.9
 40
0.9
 40
1.0
 40
1.0
 40
1.0
 40
1.0
 10
-92.5744
 20
-506.7827
 30
0.0
 10
-92.5744
 20
-506.7827
 30
0.0
 10
-96.4156
 20
-507.0918
 30
0.0
 10
-96.4156
 20
-507.0918
 30
0.0
 10
-96.4156
 20
-507.0918
 30
0.0
 10
-96.7614
 20
-505.5686
 30
0.0
 10
-97.2545
 20
-504.4574
 30
0.0
 10
-97.8947
 20
-503.7657
 30
0.0
 10
-97.8947
 20
-503.7657
 30
0.0
 10
-98.9469
 20
-502.6546
 30
0.0
 10
-100.2494
 20
-502.1027
 30
0.0
 10
-101.7947
 20
-502.1027
 30
0.0
 10
-101.7947
 20
-502.1027
 30
0.0
 10
-103.0383
 20
-502.1027
 30
0.0
 10
-104.1421
 20
-502.4485
 30
0.0
 10
-105.0914
 20
-503.1402
 30
0.0
 10
-105.0914
 20
-503.1402
 30
0.0
 10
-106.3129
 20
-504.0306
 30
0.0
 10
-107.2695
 20
-505.3257
 30
0.0
 10
-107.9833
 20
-507.0329
 30
0.0
 10
-107.9833
 20
-507.0329
 30
0.0
 10
-108.6897
 20
-508.7475
 30
0.0
 10
-109.0576
 20
-511.1832
 30
0.0
 10
-109.0871
 20
-514.34
 30
0.0
 10
-109.0871
 20
-514.34
 30
0.0
 10
-108.1525
 20
-512.9198
 30
0.0
 10
-107.0046
 20
-511.8602
 30
0.0
 10
-105.6506
 20
-511.1758
 30
0.0
 10
-105.6506
 20
-511.1758
 30
0.0
 10
-104.2966
 20
-510.4841
 30
0.0
 10
-102.8838
 20
-510.1383
 30
0.0
 10
-101.3973
 20
-510.1383
 30
0.0
 10
-101.3973
 20
-510.1383
 30
0.0
 10
-98.8071
 20
-510.1383
 30
0.0
 10
-96.5995
 20
-511.0949
 30
0.0
 10
-94.7746
 20
-513.0007
 30
0.0
 10
-94.7746
 20
-513.0007
 30
0.0
 10
-92.957
 20
-514.9066
 30
0.0
 10
-92.0446
 20
-517.3644
 30
0.0
 10
-92.0446
 20
-520.3888
 30
0.0
 10
-92.0446
 20
-520.3888
 30
0.0
 10
-92.0446
 20
-522.3756
 30
0.0
 10
-92.4714
 20
-524.2152
 30
0.0
 10
-93.325
 20
-525.9224
 30
0.0
 10
-93.325
 20
-525.9224
 30
0.0
 10
-94.1859
 20
-527.6296
 30
0.0
 10
-95.3559
 20
-528.9321
 30
0.0
 10
-96.8571
 20
-529.8372
 30
0.0
 10
-96.8571
 20
-529.8372
 30
0.0
 10
-98.3509
 20
-530.7423
 30
0.0
 10
-100.0507
 20
-531.1985
 30
0.0
 10
-101.9492
 20
-531.1985
 30
0.0
 10
-101.9492
 20
-531.1985
 30
0.0
 10
-105.1797
 20
-531.1985
 30
0.0
 10
-107.8214
 20
-530.0064
 30
0.0
 10
-109.8671
 20
-527.6296
 30
0.0
 10
-109.8671
 20
-527.6296
 30
0.0
 10
-111.9054
 20
-525.2528
 30
0.0
 10
-112.9282
 20
-521.3307
 30
0.0
 10
-112.9282
 20
-515.8706
 30
0.0
 10
-112.9282
 20
-515.8706
 30
0.0
 10
-112.9282
 20
-509.763
 30
0.0
 10
-111.795
 20
-505.3184
 30
0.0
 10
-109.5359
 20
-502.5442
 30
0.0
 10
-109.5359
 20
-502.5442
 30
0.0
 10
-107.5638
 20
-500.1306
 30
0.0
 10
-104.9074
 20
-498.9238
 30
0.0
 10
-101.5592
 20
-498.9238
 30
0.0
 10
-101.5592
 20
-498.9238
 30
0.0
 10
-99.072
 20
-498.9238
 30
0.0
 10
-97.0263
 20
-499.6228
 30
0.0
 10
-95.4369
 20
-501.0136
 30
0.0
 10
-95.4369
 20
-501.0136
 30
0.0
 10
-93.8474
 20
-502.4044
 30
0.0
 10
-92.8908
 20
-504.325
 30
0.0
 10
-92.5744
 20
-506.7827
 30
0.0
  0
SPLINE
  5
85
330
1F
100
AcDbEntity
  8
Layer 1
 62
   230
100
AcDbSpline
210
0.0
220
0.0
230
1.0
 70
    11
 71
     3
 72
    40
 73
    36
 74
     0
 42
0.000000001
 43
0.0000000001
 40
0.0
 40
0.0
 40
0.0
 40
0.0
 40
0.1
 40
0.1
 40
0.1
 40
0.1
 40
0.2
 40
0.2
 40
0.2
 40
0.2
 40
0.3
 40
0.3
 40
0.3
 40
0.3
 40
0.4
 40
0.4
 40
0.4
 40
0.4
 40
0.5
 40
0.5
 40
0.5
 40
0.5
 40
0.6
 40
0.6
 40
0.6
 40
0.6
 40
0.7
 40
0.7
 40
0.7
 40
0.7
 40
0.8
 40
0.8
 40
0.8
 40
0.8
 40
1.0
 40
1.0
 40
1.0
 40
1.0
 10
-108.4689
 20
-520.4256
 30
0.0
 10
-108.4689
 20
-521.7648
 30
0.0
 10
-108.182
 20
-523.0452
 30
0.0
 10
-107.6153
 20
-524.2667
 30
0.0
 10
-107.6153
 20
-524.2667
 30
0.0
 10
-107.0487
 20
-525.4883
 30
0.0
 10
-106.254
 20
-526.4154
 30
0.0
 10
-105.2459
 20
-527.0556
 30
0.0
 10
-105.2459
 20
-527.0556
 30
0.0
 10
-104.2304
 20
-527.6958
 30
0.0
 10
-103.156
 20
-528.0196
 30
0.0
 10
-102.0155
 20
-528.0196
 30
0.0
 10
-102.0155
 20
-528.0196
 30
0.0
 10
-100.3598
 20
-528.0196
 30
0.0
 10
-98.9469
 20
-527.3573
 30
0.0
 10
-97.7769
 20
-526.0328
 30
0.0
 10
-97.7769
 20
-526.0328
 30
0.0
 10
-96.6069
 20
-524.7082
 30
0.0
 10
-96.0182
 20
-522.9128
 30
0.0
 10
-96.0182
 20
-520.639
 30
0.0
 10
-96.0182
 20
-520.639
 30
0.0
 10
-96.0182
 20
-518.4535
 30
0.0
 10
-96.5995
 20
-516.7315
 30
0.0
 10
-97.7548
 20
-515.4732
 30
0.0
 10
-97.7548
 20
-515.4732
 30
0.0
 10
-98.9101
 20
-514.2149
 30
0.0
 10
-100.3819
 20
-513.5821
 30
0.0
 10
-102.17
 20
-513.5821
 30
0.0
 10
-102.17
 20
-513.5821
 30
0.0
 10
-103.9213
 20
-513.5821
 30
0.0
 10
-105.4151
 20
-514.2149
 30
0.0
 10
-106.6367
 20
-515.4732
 30
0.0
 10
-106.6367
 20
-515.4732
 30
0.0
 10
-107.8582
 20
-516.7315
 30
0.0
 10
-108.4689
 20
-518.3799
 30
0.0
 10
-108.4689
 20
-520.4256
 30
0.0
  0
SPLINE
  5
86
330
1F
100
AcDbEntity
  8
Layer 1
 62
   230
100
AcDbSpline
210
0.0
220
0.0
230
1.0
 70
    11
 71
     3
 72
    64
 73
    60
 74
     0
 42
0.000000001
 43
0.0000000001
 40
0.0
 40
0.0
 40
0.0
 40
0.0
 40
0.0625
 40
0.0625
 40
0.0625
 40
0.0625
 40
0.125
 40
0.125
 40
0.125
 40
0.125
 40
0.1875
 40
0.1875
 40
0.1875
 40
0.1875
 40
0.25
 40
0.25
 40
0.25
 40
0.25
 40
0.3125
 40
0.3125
 40
0.3125
 40
0.3125
 40
0.375
 40
0.375
 40
0.375
 40
0.375
 40
0.4375
 40
0.4375
 40
0.4375
 40
0.4375
 40
0.5
 40
0.5
 40
0.5
 40
0.5
 40
0.5625
 40
0.5625
 40
0.5625
 40
0.5625
 40
0.625
 40
0.625
 40
0.625
 40
0.625
 40
0.6875
 40
0.6875
 40
0.6875
 40
0.6875
 40
0.75
 40
0.75
 40
0.75
 40
0.75
 40
0.8125
 40
0.8125
 40
0.8125
 40
0.8125
 40
0.875
 40
0.875
 40
0.875
 40
0.875
 40
1.0
 40
1.0
 40
1.0
 40
1.0
 10
-86.739
 20
-530.6687
 30
0.0
 10
-86.739
 20
-530.6687
 30
0.0
 10
-86.739
 20
-499.0562
 30
0.0
 10
-86.739
 20
-499.0562
 30
0.0
 10
-86.739
 20
-499.0562
 30
0.0
 10
-86.739
 20
-499.0562
 30
0.0
 10
-80.4695
 20
-499.0562
 30
0.0
 10
-80.4695
 20
-499.0562
 30
0.0
 10
-80.4695
 20
-499.0562
 30
0.0
 10
-80.4695
 20
-499.0562
 30
0.0
 10
-72.9932
 20
-521.4337
 30
0.0
 10
-72.9932
 20
-521.4337
 30
0.0
 10
-72.9932
 20
-521.4337
 30
0.0
 10
-72.3015
 20
-523.5162
 30
0.0
 10
-71.8011
 20
-525.0762
 30
0.0
 10
-71.4847
 20
-526.1137
 30
0.0
 10
-71.4847
 20
-526.1137
 30
0.0
 10
-71.1241
 20
-524.9658
 30
0.0
 10
-70.5575
 20
-523.2733
 30
0.0
 10
-69.7922
 20
-521.0437
 30
0.0
 10
-69.7922
 20
-521.0437
 30
0.0
 10
-69.7922
 20
-521.0437
 30
0.0
 10
-62.1834
 20
-499.0562
 30
0.0
 10
-62.1834
 20
-499.0562
 30
0.0
 10
-62.1834
 20
-499.0562
 30
0.0
 10
-62.1834
 20
-499.0562
 30
0.0
 10
-56.5836
 20
-499.0562
 30
0.0
 10
-56.5836
 20
-499.0562
 30
0.0
 10
-56.5836
 20
-499.0562
 30
0.0
 10
-56.5836
 20
-499.0562
 30
0.0
 10
-56.5836
 20
-530.6687
 30
0.0
 10
-56.5836
 20
-530.6687
 30
0.0
 10
-56.5836
 20
-530.6687
 30
0.0
 10
-56.5836
 20
-530.6687
 30
0.0
 10
-60.6013
 20
-530.6687
 30
0.0
 10
-60.6013
 20
-530.6687
 30
0.0
 10
-60.6013
 20
-530.6687
 30
0.0
 10
-60.6013
 20
-530.6687
 30
0.0
 10
-60.6013
 20
-504.222
 30
0.0
 10
-60.6013
 20
-504.222
 30
0.0
 10
-60.6013
 20
-504.222
 30
0.0
 10
-60.6013
 20
-504.222
 30
0.0
 10
-69.829
 20
-530.6687
 30
0.0
 10
-69.829
 20
-530.6687
 30
0.0
 10
-69.829
 20
-530.6687
 30
0.0
 10
-69.829
 20
-530.6687
 30
0.0
 10
-73.5966
 20
-530.6687
 30
0.0
 10
-73.5966
 20
-530.6687
 30
0.0
 10
-73.5966
 20
-530.6687
 30
0.0
 10
-73.5966
 20
-530.6687
 30
0.0
 10
-82.7213
 20
-503.7363
 30
0.0
 10
-82.7213
 20
-503.7363
 30
0.0
 10
-82.7213
 20
-503.7363
 30
0.0
 10
-82.7213
 20
-503.7363
 30
0.0
 10
-82.7213
 20
-530.6687
 30
0.0
 10
-82.7213
 20
-530.6687
 30
0.0
 10
-82.7213
 20
-530.6687
 30
0.0
 10
-82.7213
 20
-530.6687
 30
0.0
 10
-86.739
 20
-530.6687
 30
0.0
 10
-86.739
 20
-530.6687
 30
0.0
  0
SPLINE
  5
87
330
1F
100
AcDbEntity
  8
Layer 1
 62
   230
100
AcDbSpline
210
0.0
220
0.0
230
1.0
 70
    11
 71
     3
 72
    64
 73
    60
 74
     0
 42
0.000000001
 43
0.0000000001
 40
0.0
 40
0.0
 40
0.0
 40
0.0
 40
0.0625
 40
0.0625
 40
0.0625
 40
0.0625
 40
0.125
 40
0.125
 40
0.125
 40
0.125
 40
0.1875
 40
0.1875
 40
0.1875
 40
0.1875
 40
0.25
 40
0.25
 40
0.25
 40
0.25
 40
0.3125
 40
0.3125
 40
0.3125
 40
0.3125
 40
0.375
 40
0.375
 40
0.375
 40
0.375
 40
0.4375
 40
0.4375
 40
0.4375
 40
0.4375
 40
0.5
 40
0.5
 40
0.5
 40
0.5
 40
0.5625
 40
0.5625
 40
0.5625
 40
0.5625
 40
0.625
 40
0.625
 40
0.625
 40
0.625
 40
0.6875
 40
0.6875
 40
0.6875
 40
0.6875
 40
0.75
 40
0.75
 40
0.75
 40
0.75
 40
0.8125
 40
0.8125
 40
0.8125
 40
0.8125
 40
0.875
 40
0.875
 40
0.875
 40
0.875
 40
1.0
 40
1.0
 40
1.0
 40
1.0
 10
-49.9608
 20
-530.6687
 30
0.0
 10
-49.9608
 20
-530.6687
 30
0.0
 10
-49.9608
 20
-499.0562
 30
0.0
 10
-49.9608
 20
-499.0562
 30
0.0
 10
-49.9608
 20
-499.0562
 30
0.0
 10
-49.9608
 20
-499.0562
 30
0.0
 10
-43.6913
 20
-499.0562
 30
0.0
 10
-43.6913
 20
-499.0562
 30
0.0
 10
-43.6913
 20
-499.0562
 30
0.0
 10
-43.6913
 20
-499.0562
 30
0.0
 10
-36.215
 20
-521.4337
 30
0.0
 10
-36.215
 20
-521.4337
 30
0.0
 10
-36.215
 20
-521.4337
 30
0.0
 10
-35.5233
 20
-523.5162
 30
0.0
 10
-35.0229
 20
-525.0762
 30
0.0
 10
-34.7065
 20
-526.1137
 30
0.0
 10
-34.7065
 20
-526.1137
 30
0.0
 10
-34.3459
 20
-524.9658
 30
0.0
 10
-33.7793
 20
-523.2733
 30
0.0
 10
-33.014
 20
-521.0437
 30
0.0
 10
-33.014
 20
-521.0437
 30
0.0
 10
-33.014
 20
-521.0437
 30
0.0
 10
-25.4052
 20
-499.0562
 30
0.0
 10
-25.4052
 20
-499.0562
 30
0.0
 10
-25.4052
 20
-499.0562
 30
0.0
 10
-25.4052
 20
-499.0562
 30
0.0
 10
-19.8054
 20
-499.0562
 30
0.0
 10
-19.8054
 20
-499.0562
 30
0.0
 10
-19.8054
 20
-499.0562
 30
0.0
 10
-19.8054
 20
-499.0562
 30
0.0
 10
-19.8054
 20
-530.6687
 30
0.0
 10
-19.8054
 20
-530.6687
 30
0.0
 10
-19.8054
 20
-530.6687
 30
0.0
 10
-19.8054
 20
-530.6687
 30
0.0
 10
-23.8231
 20
-530.6687
 30
0.0
 10
-23.8231
 20
-530.6687
 30
0.0
 10
-23.8231
 20
-530.6687
 30
0.0
 10
-23.8231
 20
-530.6687
 30
0.0
 10
-23.8231
 20
-504.222
 30
0.0
 10
-23.8231
 20
-504.222
 30
0.0
 10
-23.8231
 20
-504.222
 30
0.0
 10
-23.8231
 20
-504.222
 30
0.0
 10
-33.0508
 20
-530.6687
 30
0.0
 10
-33.0508
 20
-530.6687
 30
0.0
 10
-33.0508
 20
-530.6687
 30
0.0
 10
-33.0508
 20
-530.6687
 30
0.0
 10
-36.8184
 20
-530.6687
 30
0.0
 10
-36.8184
 20
-530.6687
 30
0.0
 10
-36.8184
 20
-530.6687
 30
0.0
 10
-36.8184
 20
-530.6687
 30
0.0
 10
-45.9431
 20
-503.7363
 30
0.0
 10
-45.9431
 20
-503.7363
 30
0.0
 10
-45.9431
 20
-503.7363
 30
0.0
 10
-45.9431
 20
-503.7363
 30
0.0
 10
-45.9431
 20
-530.6687
 30
0.0
 10
-45.9431
 20
-530.6687
 30
0.0
 10
-45.9431
 20
-530.6687
 30
0.0
 10
-45.9431
 20
-530.6687
 30
0.0
 10
-49.9608
 20
-530.6687
 30
0.0
 10
-49.9608
 20
-530.6687
 30
0.0
  0
SPLINE
  5
88
330
1F
100
AcDbEntity
  8
Layer 1
 62
   230
100
AcDbSpline
210
0.0
220
0.0
230
1.0
 70
    11
 71
     3
 72
   124
 73
   120
 74
     0
 42
0.000000001
 43
0.0000000001
 40
0.0
 40
0.0
 40
0.0
 40
0.0
 40
0.032258064516129
 40
0.032258064516129
 40
0.032258064516129
 40
0.032258064516129
 40
0.0645161290322581
 40
0.0645161290322581
 40
0.0645161290322581
 40
0.0645161290322581
 40
0.0967741935483871
 40
0.0967741935483871
 40
0.0967741935483871
 40
0.0967741935483871
 40
0.1290322580645161
 40
0.1290322580645161
 40
0.1290322580645161
 40
0.1290322580645161
 40
0.1612903225806452
 40
0.1612903225806452
 40
0.1612903225806452
 40
0.1612903225806452
 40
0.1935483870967742
 40
0.1935483870967742
 40
0.1935483870967742
 40
0.1935483870967742
 40
0.2258064516129032
 40
0.2258064516129032
 40
0.2258064516129032
 40
0.2258064516129032
 40
0.2580645161290323
 40
0.2580645161290323
 40
0.2580645161290323
 40
0.2580645161290323
 40
0.2903225806451613
 40
0.2903225806451613
 40
0.2903225806451613
 40
0.2903225806451613
 40
0.3225806451612903
 40
0.3225806451612903
 40
0.3225806451612903
 40
0.3225806451612903
 40
0.3548387096774194
 40
0.3548387096774194
 40
0.3548387096774194
 40
0.3548387096774194
 40
0.3870967741935484
 40
0.3870967741935484
 40
0.3870967741935484
 40
0.3870967741935484
 40
0.4193548387096774
 40
0.4193548387096774
 40
0.4193548387096774
 40
0.4193548387096774
 40
0.4516129032258064
 40
0.4516129032258064
 40
0.4516129032258064
 40
0.4516129032258064
 40
0.4838709677419355
 40
0.4838709677419355
 40
0.4838709677419355
 40
0.4838709677419355
 40
0.5161290322580645
 40
0.5161290322580645
 40
0.5161290322580645
 40
0.5161290322580645
 40
0.5483870967741935
 40
0.5483870967741935
 40
0.5483870967741935
 40
0.5483870967741935
 40
0.5806451612903226
 40
0.5806451612903226
 40
0.5806451612903226
 40
0.5806451612903226
 40
0.6129032258064516
 40
0.6129032258064516
 40
0.6129032258064516
 40
0.6129032258064516
 40
0.6451612903225806
 40
0.6451612903225806
 40
0.6451612903225806
 40
0.6451612903225806
 40
0.6774193548387096
 40
0.6774193548387096
 40
0.6774193548387096
 40
0.6774193548387096
 40
0.7096774193548387
 40
0.7096774193548387
 40
0.7096774193548387
 40
0.7096774193548387
 40
0.7419354838709677
 40
0.7419354838709677
 40
0.7419354838709677
 40
0.7419354838709677
 40
0.7741935483870968
 40
0.7741935483870968
 40
0.7741935483870968
 40
0.7741935483870968
 40
0.8064516129032258
 40
0.8064516129032258
 40
0.8064516129032258
 40
0.8064516129032258
 40
0.8387096774193549
 40
0.8387096774193549
 40
0.8387096774193549
 40
0.8387096774193549
 40
0.8709677419354839
 40
0.8709677419354839
 40
0.8709677419354839
 40
0.8709677419354839
 40
0.9032258064516129
 40
0.9032258064516129
 40
0.9032258064516129
 40
0.9032258064516129
 40
0.9354838709677419
 40
0.9354838709677419
 40
0.9354838709677419
 40
0.9354838709677419
 40
1.0
 40
1.0
 40
1.0
 40
1.0
 10
-392.127
 20
231.4067
 30
0.0
 10
-392.127
 20
231.4067
 30
0.0
 10
-388.2417
 20
231.9365
 30
0.0
 10
-388.2417
 20
231.9365
 30
0.0
 10
-388.2417
 20
231.9365
 30
0.0
 10
-387.7928
 20
229.7289
 30
0.0
 10
-387.0423
 20
228.1395
 30
0.0
 10
-385.9753
 20
227.1681
 30
0.0
 10
-385.9753
 20
227.1681
 30
0.0
 10
-384.9083
 20
226.1968
 30
0.0
 10
-383.5984
 20
225.7111
 30
0.0
 10
-382.0458
 20
225.7111
 30
0.0
 10
-382.0458
 20
225.7111
 30
0.0
 10
-380.2061
 20
225.7111
 30
0.0
 10
-378.6535
 20
226.344
 30
0.0
 10
-377.4025
 20
227.6097
 30
0.0
 10
-377.4025
 20
227.6097
 30
0.0
 10
-376.1516
 20
228.8753
 30
0.0
 10
-375.5261
 20
230.4427
 30
0.0
 10
-375.5261
 20
232.3118
 30
0.0
 10
-375.5261
 20
232.3118
 30
0.0
 10
-375.5261
 20
234.0926
 30
0.0
 10
-376.1074
 20
235.5643
 30
0.0
 10
-377.2774
 20
236.7269
 30
0.0
 10
-377.2774
 20
236.7269
 30
0.0
 10
-378.4401
 20
237.8822
 30
0.0
 10
-379.9191
 20
238.4636
 30
0.0
 10
-381.722
 20
238.4636
 30
0.0
 10
-381.722
 20
238.4636
 30
0.0
 10
-382.4579
 20
238.4636
 30
0.0
 10
-383.3703
 20
238.3164
 30
0.0
 10
-384.4668
 20
238.0294
 30
0.0
 10
-384.4668
 20
238.0294
 30
0.0
 10
-384.4668
 20
238.0294
 30
0.0
 10
-384.0326
 20
241.4291
 30
0.0
 10
-384.0326
 20
241.4291
 30
0.0
 10
-384.0326
 20
241.4291
 30
0.0
 10
-383.775
 20
241.3996
 30
0.0
 10
-383.5616
 20
241.3849
 30
0.0
 10
-383.4071
 20
241.3849
 30
0.0
 10
-383.4071
 20
241.3849
 30
0.0
 10
-381.7441
 20
241.3849
 30
0.0
 10
-380.2576
 20
241.8191
 30
0.0
 10
-378.9257
 20
242.68
 30
0.0
 10
-378.9257
 20
242.68
 30
0.0
 10
-377.6012
 20
243.541
 30
0.0
 10
-376.9389
 20
244.8655
 30
0.0
 10
-376.9389
 20
246.6537
 30
0.0
 10
-376.9389
 20
246.6537
 30
0.0
 10
-376.9389
 20
248.0739
 30
0.0
 10
-377.4246
 20
249.2512
 30
0.0
 10
-378.3886
 20
250.1858
 30
0.0
 10
-378.3886
 20
250.1858
 30
0.0
 10
-379.3525
 20
251.1203
 30
0.0
 10
-380.5961
 20
251.5839
 30
0.0
 10
-382.1194
 20
251.5839
 30
0.0
 10
-382.1194
 20
251.5839
 30
0.0
 10
-383.6352
 20
251.5839
 30
0.0
 10
-384.8935
 20
251.1056
 30
0.0
 10
-385.9017
 20
250.149
 30
0.0
 10
-385.9017
 20
250.149
 30
0.0
 10
-386.9098
 20
249.1924
 30
0.0
 10
-387.5574
 20
247.7575
 30
0.0
 10
-387.8443
 20
245.8442
 30
0.0
 10
-387.8443
 20
245.8442
 30
0.0
 10
-387.8443
 20
245.8442
 30
0.0
 10
-391.7297
 20
246.5506
 30
0.0
 10
-391.7297
 20
246.5506
 30
0.0
 10
-391.7297
 20
246.5506
 30
0.0
 10
-391.2514
 20
249.1556
 30
0.0
 10
-390.177
 20
251.1792
 30
0.0
 10
-388.4919
 20
252.6141
 30
0.0
 10
-388.4919
 20
252.6141
 30
0.0
 10
-386.8141
 20
254.049
 30
0.0
 10
-384.7169
 20
254.7628
 30
0.0
 10
-382.215
 20
254.7628
 30
0.0
 10
-382.215
 20
254.7628
 30
0.0
 10
-380.4931
 20
254.7628
 30
0.0
 10
-378.9037
 20
254.3949
 30
0.0
 10
-377.454
 20
253.6517
 30
0.0
 10
-377.454
 20
253.6517
 30
0.0
 10
-375.997
 20
252.9158
 30
0.0
 10
-374.8859
 20
251.9077
 30
0.0
 10
-374.1206
 20
250.6347
 30
0.0
 10
-374.1206
 20
250.6347
 30
0.0
 10
-373.3479
 20
249.3543
 30
0.0
 10
-372.9653
 20
248.0003
 30
0.0
 10
-372.9653
 20
246.5654
 30
0.0
 10
-372.9653
 20
246.5654
 30
0.0
 10
-372.9653
 20
245.204
 30
0.0
 10
-373.3332
 20
243.9678
 30
0.0
 10
-374.0617
 20
242.8493
 30
0.0
 10
-374.0617
 20
242.8493
 30
0.0
 10
-374.7976
 20
241.7308
 30
0.0
 10
-375.8866
 20
240.8404
 30
0.0
 10
-377.3216
 20
240.1781
 30
0.0
 10
-377.3216
 20
240.1781
 30
0.0
 10
-375.4525
 20
239.7513
 30
0.0
 10
-374.0028
 20
238.8536
 30
0.0
 10
-372.9653
 20
237.4922
 30
0.0
 10
-372.9653
 20
237.4922
 30
0.0
 10
-371.9351
 20
236.1383
 30
0.0
 10
-371.42
 20
234.4311
 30
0.0
 10
-371.42
 20
232.3927
 30
0.0
 10
-371.42
 20
232.3927
 30
0.0
 10
-371.42
 20
229.6333
 30
0.0
 10
-372.4281
 20
227.2859
 30
0.0
 10
-374.437
 20
225.3653
 30
0.0
 10
-374.437
 20
225.3653
 30
0.0
 10
-376.4533
 20
223.4447
 30
0.0
 10
-378.9993
 20
222.4881
 30
0.0
 10
-382.0752
 20
222.4881
 30
0.0
 10
-382.0752
 20
222.4881
 30
0.0
 10
-384.8494
 20
222.4881
 30
0.0
 10
-387.1526
 20
223.3196
 30
0.0
 10
-388.9849
 20
224.9753
 30
0.0
 10
-388.9849
 20
224.9753
 30
0.0
 10
-390.8246
 20
226.631
 30
0.0
 10
-391.8695
 20
228.7723
 30
0.0
 10
-392.127
 20
231.4067
 30
0.0
  0
SPLINE
  5
89
330
1F
100
AcDbEntity
  8
Layer 1
 62
   230
100
AcDbSpline
210
0.0
220
0.0
230
1.0
 70
    11
 71
     3
 72
    64
 73
    60
 74
     0
 42
0.000000001
 43
0.0000000001
 40
0.0
 40
0.0
 40
0.0
 40
0.0
 40
0.0625
 40
0.0625
 40
0.0625
 40
0.0625
 40
0.125
 40
0.125
 40
0.125
 40
0.125
 40
0.1875
 40
0.1875
 40
0.1875
 40
0.1875
 40
0.25
 40
0.25
 40
0.25
 40
0.25
 40
0.3125
 40
0.3125
 40
0.3125
 40
0.3125
 40
0.375
 40
0.375
 40
0.375
 40
0.375
 40
0.4375
 40
0.4375
 40
0.4375
 40
0.4375
 40
0.5
 40
0.5
 40
0.5
 40
0.5
 40
0.5625
 40
0.5625
 40
0.5625
 40
0.5625
 40
0.625
 40
0.625
 40
0.625
 40
0.625
 40
0.6875
 40
0.6875
 40
0.6875
 40
0.6875
 40
0.75
 40
0.75
 40
0.75
 40
0.75
 40
0.8125
 40
0.8125
 40
0.8125
 40
0.8125
 40
0.875
 40
0.875
 40
0.875
 40
0.875
 40
1.0
 40
1.0
 40
1.0
 40
1.0
 10
-366.1144
 20
223.0179
 30
0.0
 10
-366.1144
 20
223.0179
 30
0.0
 10
-366.1144
 20
254.6304
 30
0.0
 10
-366.1144
 20
254.6304
 30
0.0
 10
-366.1144
 20
254.6304
 30
0.0
 10
-366.1144
 20
254.6304
 30
0.0
 10
-359.8449
 20
254.6304
 30
0.0
 10
-359.8449
 20
254.6304
 30
0.0
 10
-359.8449
 20
254.6304
 30
0.0
 10
-359.8449
 20
254.6304
 30
0.0
 10
-352.3686
 20
232.2529
 30
0.0
 10
-352.3686
 20
232.2529
 30
0.0
 10
-352.3686
 20
232.2529
 30
0.0
 10
-351.6769
 20
230.1704
 30
0.0
 10
-351.1765
 20
228.6104
 30
0.0
 10
-350.8601
 20
227.5729
 30
0.0
 10
-350.8601
 20
227.5729
 30
0.0
 10
-350.4995
 20
228.7208
 30
0.0
 10
-349.9329
 20
230.4133
 30
0.0
 10
-349.1676
 20
232.6429
 30
0.0
 10
-349.1676
 20
232.6429
 30
0.0
 10
-349.1676
 20
232.6429
 30
0.0
 10
-341.5588
 20
254.6304
 30
0.0
 10
-341.5588
 20
254.6304
 30
0.0
 10
-341.5588
 20
254.6304
 30
0.0
 10
-341.5588
 20
254.6304
 30
0.0
 10
-335.959
 20
254.6304
 30
0.0
 10
-335.959
 20
254.6304
 30
0.0
 10
-335.959
 20
254.6304
 30
0.0
 10
-335.959
 20
254.6304
 30
0.0
 10
-335.959
 20
223.0179
 30
0.0
 10
-335.959
 20
223.0179
 30
0.0
 10
-335.959
 20
223.0179
 30
0.0
 10
-335.959
 20
223.0179
 30
0.0
 10
-339.9767
 20
223.0179
 30
0.0
 10
-339.9767
 20
223.0179
 30
0.0
 10
-339.9767
 20
223.0179
 30
0.0
 10
-339.9767
 20
223.0179
 30
0.0
 10
-339.9767
 20
249.4646
 30
0.0
 10
-339.9767
 20
249.4646
 30
0.0
 10
-339.9767
 20
249.4646
 30
0.0
 10
-339.9767
 20
249.4646
 30
0.0
 10
-349.2044
 20
223.0179
 30
0.0
 10
-349.2044
 20
223.0179
 30
0.0
 10
-349.2044
 20
223.0179
 30
0.0
 10
-349.2044
 20
223.0179
 30
0.0
 10
-352.972
 20
223.0179
 30
0.0
 10
-352.972
 20
223.0179
 30
0.0
 10
-352.972
 20
223.0179
 30
0.0
 10
-352.972
 20
223.0179
 30
0.0
 10
-362.0967
 20
249.9503
 30
0.0
 10
-362.0967
 20
249.9503
 30
0.0
 10
-362.0967
 20
249.9503
 30
0.0
 10
-362.0967
 20
249.9503
 30
0.0
 10
-362.0967
 20
223.0179
 30
0.0
 10
-362.0967
 20
223.0179
 30
0.0
 10
-362.0967
 20
223.0179
 30
0.0
 10
-362.0967
 20
223.0179
 30
0.0
 10
-366.1144
 20
223.0179
 30
0.0
 10
-366.1144
 20
223.0179
 30
0.0
  0
SPLINE
  5
8A
330
1F
100
AcDbEntity
  8
Layer 1
 62
   230
100
AcDbSpline
210
0.0
220
0.0
230
1.0
 70
    11
 71
     3
 72
    64
 73
    60
 74
     0
 42
0.000000001
 43
0.0000000001
 40
0.0
 40
0.0
 40
0.0
 40
0.0
 40
0.0625
 40
0.0625
 40
0.0625
 40
0.0625
 40
0.125
 40
0.125
 40
0.125
 40
0.125
 40
0.1875
 40
0.1875
 40
0.1875
 40
0.1875
 40
0.25
 40
0.25
 40
0.25
 40
0.25
 40
0.3125
 40
0.3125
 40
0.3125
 40
0.3125
 40
0.375
 40
0.375
 40
0.375
 40
0.375
 40
0.4375
 40
0.4375
 40
0.4375
 40
0.4375
 40
0.5
 40
0.5
 40
0.5
 40
0.5
 40
0.5625
 40
0.5625
 40
0.5625
 40
0.5625
 40
0.625
 40
0.625
 40
0.625
 40
0.625
 40
0.6875
 40
0.6875
 40
0.6875
 40
0.6875
 40
0.75
 40
0.75
 40
0.75
 40
0.75
 40
0.8125
 40
0.8125
 40
0.8125
 40
0.8125
 40
0.875
 40
0.875
 40
0.875
 40
0.875
 40
1.0
 40
1.0
 40
1.0
 40
1.0
 10
-329.3362
 20
223.0179
 30
0.0
 10
-329.3362
 20
223.0179
 30
0.0
 10
-329.3362
 20
254.6304
 30
0.0
 10
-329.3362
 20
254.6304
 30
0.0
 10
-329.3362
 20
254.6304
 30
0.0
 10
-329.3362
 20
254.6304
 30
0.0
 10
-323.0667
 20
254.6304
 30
0.0
 10
-323.0667
 20
254.6304
 30
0.0
 10
-323.0667
 20
254.6304
 30
0.0
 10
-323.0667
 20
254.6304
 30
0.0
 10
-315.5904
 20
232.2529
 30
0.0
 10
-315.5904
 20
232.2529
 30
0.0
 10
-315.5904
 20
232.2529
 30
0.0
 10
-314.8987
 20
230.1704
 30
0.0
 10
-314.3983
 20
228.6104
 30
0.0
 10
-314.0819
 20
227.5729
 30
0.0
 10
-314.0819
 20
227.5729
 30
0.0
 10
-313.7213
 20
228.7208
 30
0.0
 10
-313.1547
 20
230.4133
 30
0.0
 10
-312.3894
 20
232.6429
 30
0.0
 10
-312.3894
 20
232.6429
 30
0.0
 10
-312.3894
 20
232.6429
 30
0.0
 10
-304.7806
 20
254.6304
 30
0.0
 10
-304.7806
 20
254.6304
 30
0.0
 10
-304.7806
 20
254.6304
 30
0.0
 10
-304.7806
 20
254.6304
 30
0.0
 10
-299.1808
 20
254.6304
 30
0.0
 10
-299.1808
 20
254.6304
 30
0.0
 10
-299.1808
 20
254.6304
 30
0.0
 10
-299.1808
 20
254.6304
 30
0.0
 10
-299.1808
 20
223.0179
 30
0.0
 10
-299.1808
 20
223.0179
 30
0.0
 10
-299.1808
 20
223.0179
 30
0.0
 10
-299.1808
 20
223.0179
 30
0.0
 10
-303.1985
 20
223.0179
 30
0.0
 10
-303.1985
 20
223.0179
 30
0.0
 10
-303.1985
 20
223.0179
 30
0.0
 10
-303.1985
 20
223.0179
 30
0.0
 10
-303.1985
 20
249.4646
 30
0.0
 10
-303.1985
 20
249.4646
 30
0.0
 10
-303.1985
 20
249.4646
 30
0.0
 10
-303.1985
 20
249.4646
 30
0.0
 10
-312.4262
 20
223.0179
 30
0.0
 10
-312.4262
 20
223.0179
 30
0.0
 10
-312.4262
 20
223.0179
 30
0.0
 10
-312.4262
 20
223.0179
 30
0.0
 10
-316.1938
 20
223.0179
 30
0.0
 10
-316.1938
 20
223.0179
 30
0.0
 10
-316.1938
 20
223.0179
 30
0.0
 10
-316.1938
 20
223.0179
 30
0.0
 10
-325.3185
 20
249.9503
 30
0.0
 10
-325.3185
 20
249.9503
 30
0.0
 10
-325.3185
 20
249.9503
 30
0.0
 10
-325.3185
 20
249.9503
 30
0.0
 10
-325.3185
 20
223.0179
 30
0.0
 10
-325.3185
 20
223.0179
 30
0.0
 10
-325.3185
 20
223.0179
 30
0.0
 10
-325.3185
 20
223.0179
 30
0.0
 10
-329.3362
 20
223.0179
 30
0.0
 10
-329.3362
 20
223.0179
 30
0.0
  0
SPLINE
  5
8B
330
1F
100
AcDbEntity
  8
Layer 1
 62
   250
370
    18
100
AcDbSpline
210
0.0
220
0.0
230
1.0
 70
    11
 71
     3
 72
    20
 73
    16
 74
     0
 42
0.000000001
 43
0.0000000001
 40
0.0
 40
0.0
 40
0.0
 40
0.0
 40
0.2
 40
0.2
 40
0.2
 40
0.2
 40
0.4
 40
0.4
 40
0.4
 40
0.4
 40
0.6
 40
0.6
 40
0.6
 40
0.6
 40
1.0
 40
1.0
 40
1.0
 40
1.0
 10
587.1202
 20
-42.3109
 30
0.0
 10
587.1202
 20
-42.3109
 30
0.0
 10
587.1202
 20
71.689
 30
0.0
 10
587.1202
 20
71.689
 30
0.0
 10
587.1202
 20
71.689
 30
0.0
 10
587.1202
 20
71.689
 30
0.0
 10
423.1203
 20
71.689
 30
0.0
 10
423.1203
 20
71.689
 30
0.0
 10
423.1203
 20
71.689
 30
0.0
 10
423.1203
 20
71.689
 30
0.0
 10
423.1203
 20
-42.3109
 30
0.0
 10
423.1203
 20
-42.3109
 30
0.0
 10
423.1203
 20
-42.3109
 30
0.0
 10
423.1203
 20
-42.3109
 30
0.0
 10
587.1202
 20
-42.3109
 30
0.0
 10
587.1202
 20
-42.3109
 30
0.0
  0
SPLINE
  5
8C
330
1F
100
AcDbEntity
  8
Layer 1
 62
   250
370
    18
100
AcDbSpline
210
0.0
220
0.0
230
1.0
 70
    11
 71
     3
 72
    20
 73
    16
 74
     0
 42
0.000000001
 43
0.0000000001
 40
0.0
 40
0.0
 40
0.0
 40
0.0
 40
0.2
 40
0.2
 40
0.2
 40
0.2
 40
0.4
 40
0.4
 40
0.4
 40
0.4
 40
0.6
 40
0.6
 40
0.6
 40
0.6
 40
1.0
 40
1.0
 40
1.0
 40
1.0
 10
587.1202
 20
74.689
 30
0.0
 10
587.1202
 20
74.689
 30
0.0
 10
587.1202
 20
188.6889
 30
0.0
 10
587.1202
 20
188.6889
 30
0.0
 10
587.1202
 20
188.6889
 30
0.0
 10
587.1202
 20
188.6889
 30
0.0
 10
423.1203
 20
188.6889
 30
0.0
 10
423.1203
 20
188.6889
 30
0.0
 10
423.1203
 20
188.6889
 30
0.0
 10
423.1203
 20
188.6889
 30
0.0
 10
423.1203
 20
74.689
 30
0.0
 10
423.1203
 20
74.689
 30
0.0
 10
423.1203
 20
74.689
 30
0.0
 10
423.1203
 20
74.689
 30
0.0
 10
587.1202
 20
74.689
 30
0.0
 10
587.1202
 20
74.689
 30
0.0
  0
SPLINE
  5
8D
330
1F
100
AcDbEntity
  8
Layer 1
 62
   250
370
    20
100
AcDbSpline
210
0.0
220
0.0
230
1.0
 70
    11
 71
     3
 72
    44
 73
    40
 74
     0
 42
0.000000001
 43
0.0000000001
 40
0.0
 40
0.0
 40
0.0
 40
0.0
 40
0.0909090909090909
 40
0.0909090909090909
 40
0.0909090909090909
 40
0.0909090909090909
 40
0.1818181818181818
 40
0.1818181818181818
 40
0.1818181818181818
 40
0.1818181818181818
 40
0.2727272727272727
 40
0.2727272727272727
 40
0.2727272727272727
 40
0.2727272727272727
 40
0.3636363636363636
 40
0.3636363636363636
 40
0.3636363636363636
 40
0.3636363636363636
 40
0.4545454545454545
 40
0.4545454545454545
 40
0.4545454545454545
 40
0.4545454545454545
 40
0.5454545454545454
 40
0.5454545454545454
 40
0.5454545454545454
 40
0.5454545454545454
 40
0.6363636363636364
 40
0.6363636363636364
 40
0.6363636363636364
 40
0.6363636363636364
 40
0.7272727272727273
 40
0.7272727272727273
 40
0.7272727272727273
 40
0.7272727272727273
 40
0.8181818181818182
 40
0.8181818181818182
 40
0.8181818181818182
 40
0.8181818181818182
 40
1.0
 40
1.0
 40
1.0
 40
1.0
 10
413.1204
 20
22.5259
 30
0.0
 10
413.1204
 20
22.5259
 30
0.0
 10
413.1204
 20
169.5258
 30
0.0
 10
413.1204
 20
169.5258
 30
0.0
 10
413.1204
 20
169.5258
 30
0.0
 10
413.1204
 20
169.5258
 30
0.0
 10
413.1204
 20
179.5259
 30
0.0
 10
413.1204
 20
179.5259
 30
0.0
 10
413.1204
 20
179.5259
 30
0.0
 10
413.1204
 20
179.5259
 30
0.0
 10
420.1203
 20
179.5259
 30
0.0
 10
420.1203
 20
179.5259
 30
0.0
 10
420.1203
 20
179.5259
 30
0.0
 10
420.1203
 20
179.5259
 30
0.0
 10
420.1203
 20
15.526
 30
0.0
 10
420.1203
 20
15.526
 30
0.0
 10
420.1203
 20
15.526
 30
0.0
 10
420.1203
 20
15.526
 30
0.0
 10
306.1204
 20
15.526
 30
0.0
 10
306.1204
 20
15.526
 30
0.0
 10
306.1204
 20
15.526
 30
0.0
 10
306.1204
 20
15.526
 30
0.0
 10
306.1204
 20
179.5259
 30
0.0
 10
306.1204
 20
179.5259
 30
0.0
 10
306.1204
 20
179.5259
 30
0.0
 10
306.1204
 20
179.5259
 30
0.0
 10
313.1205
 20
179.5259
 30
0.0
 10
313.1205
 20
179.5259
 30
0.0
 10
313.1205
 20
179.5259
 30
0.0
 10
313.1205
 20
179.5259
 30
0.0
 10
313.1205
 20
169.5258
 30
0.0
 10
313.1205
 20
169.5258
 30
0.0
 10
313.1205
 20
169.5258
 30
0.0
 10
313.1205
 20
169.5258
 30
0.0
 10
313.1205
 20
22.5259
 30
0.0
 10
313.1205
 20
22.5259
 30
0.0
 10
313.1205
 20
22.5259
 30
0.0
 10
313.1205
 20
22.5259
 30
0.0
 10
413.1204
 20
22.5259
 30
0.0
 10
413.1204
 20
22.5259
 30
0.0
  0
ENDSEC
  0
SECTION
  2
OBJECTS
  0
DICTIONARY
  5
C
330
0
100
AcDbDictionary
281
     1
  3
ACAD_DETAILVIEWSTYLE
350
C9
  3
ACAD_GROUP
350
D
  3
ACAD_LAYOUT
350
1A
  3
ACAD_MATERIAL
350
43
  3
ACAD_MLEADERSTYLE
350
6B
  3
ACAD_MLINESTYLE
350
17
  3
ACAD_PLOTSETTINGS
350
19
  3
ACAD_PLOTSTYLENAME
350
E
  3
ACAD_SCALELIST
350
47
  3
ACAD_SECTIONVIEWSTYLE
350
CA
  3
ACAD_TABLESTYLE
350
69
  3
ACAD_VISUALSTYLE
350
2A
  3
ACDB_RECOMPOSE_DATA
350
C6
  3
AcDbVariableDictionary
350
8E
  0
SUN
  5
6D
330
29
100
AcDbSun
 90
        1
290
     0
 63
     7
421
 16777215
 40
1.0
291
     1
 91
  2455826
 92
 54000000
292
     0
 70
     2
 71
   256
280
     1
  0
DICTIONARY
  5
C9
102
{ACAD_REACTORS
330
C
102
}
330
C
100
AcDbDictionary
281
     1
  0
DICTIONARY
  5
D
102
{ACAD_REACTORS
330
C
102
}
330
C
100
AcDbDictionary
281
     1
  0
DICTIONARY
  5
1A
102
{ACAD_REACTORS
330
C
102
}
330
C
100
AcDbDictionary
281
     1
  3
Layout1
350
1E
  3
Layout2
350
26
  3
Model
350
22
  0
DICTIONARY
  5
43
102
{ACAD_REACTORS
330
C
102
}
330
C
100
AcDbDictionary
281
     1
  3
ByBlock
350
45
  3
ByLayer
350
44
  3
Global
350
46
  0
DICTIONARY
  5
6B
102
{ACAD_REACTORS
330
C
102
}
330
C
100
AcDbDictionary
281
     1
  3
Standard
350
6C
  0
DICTIONARY
  5
17
102
{ACAD_REACTORS
330
C
102
}
330
C
100
AcDbDictionary
281
     1
  3
Standard
350
18
  0
DICTIONARY
  5
19
102
{ACAD_REACTORS
330
C
102
}
330
C
100
AcDbDictionary
281
     1
  0
ACDBDICTIONARYWDFLT
  5
E
102
{ACAD_REACTORS
330
C
102
}
330
C
100
AcDbDictionary
281
     1
  3
Normal
350
F
100
AcDbDictionaryWithDefault
340
F
  0
DICTIONARY
  5
47
102
{ACAD_REACTORS
330
C
102
}
330
C
100
AcDbDictionary
281
     1
  3
A0
350
48
  3
A1
350
49
  3
A2
350
4A
  3
A3
350
4B
  3
A4
350
4C
  3
A5
350
4D
  3
A6
350
4E
  3
A7
350
4F
  3
A8
350
50
  3
A9
350
51
  3
B0
350
52
  3
B1
350
53
  3
B2
350
54
  3
B3
350
55
  3
B4
350
56
  3
B5
350
57
  3
B6
350
58
  3
B7
350
59
  3
B8
350
5A
  3
B9
350
5B
  3
C0
350
5C
  3
C1
350
5D
  3
C2
350
5E
  3
C3
350
5F
  3
C4
350
60
  3
C5
350
61
  3
C6
350
62
  3
C7
350
63
  3
C8
350
64
  3
C9
350
65
  3
D0
350
66
  3
D1
350
67
  3
D2
350
68
  0
DICTIONARY
  5
CA
102
{ACAD_REACTORS
330
C
102
}
330
C
100
AcDbDictionary
281
     1
  0
DICTIONARY
  5
69
102
{ACAD_REACTORS
330
C
102
}
330
C
100
AcDbDictionary
281
     1
  3
Standard
350
6A
  0
DICTIONARY
  5
2A
102
{ACAD_REACTORS
330
C
102
}
330
C
100
AcDbDictionary
281
     1
  3
2dWireframe
350
2F
  3
Basic
350
32
  3
Brighten
350
36
  3
ColorChange
350
3A
  3
Conceptual
350
34
  3
Dim
350
35
  3
EdgeColorOff
350
3D
  3
Facepattern
350
39
  3
Flat
350
2B
  3
FlatWithEdges
350
2C
  3
Gouraud
350
2D
  3
GouraudWithEdges
350
2E
  3
Hidden
350
31
  3
JitterOff
350
3B
  3
Linepattern
350
38
  3
OverhangOff
350
3C
  3
Realistic
350
33
  3
Shaded
350
42
  3
Shaded with edges
350
41
  3
Shades of Gray
350
3E
  3
Sketchy
350
3F
  3
Thicken
350
37
  3
Wireframe
350
30
  3
X-Ray
350
40
  0
XRECORD
  5
C6
102
{ACAD_REACTORS
330
C
102
}
330
C
100
AcDbXrecord
280
     1
 90
        1
330
6A
  0
DICTIONARY
  5
8E
102
{ACAD_REACTORS
330
C
102
}
330
C
100
AcDbDictionary
281
     1
  3
CANNOSCALE
350
8F
  3
CMLEADERSTYLE
350
C8
  3
CTABLESTYLE
350
C7
  3
XCLIPFRAME
350
90
  0
LAYOUT
  5
1E
102
{ACAD_REACTORS
330
1A
102
}
330
1A
100
AcDbPlotSettings
  1

  2
none_device
  4

  6

 40
0.0
 41
0.0
 42
0.0
 43
0.0
 44
0.0
 45
0.0
 46
0.0
 47
0.0
 48
0.0
 49
0.0
140
0.0
141
0.0
142
1.0
143
1.0
 70
   688
 72
     0
 73
     0
 74
     5
  7

 75
    16
 76
     0
 77
     2
 78
   300
147
1.0
148
0.0
149
0.0
100
AcDbLayout
  1
Layout1
 70
     1
 71
     1
 10
0.0
 20
0.0
 11
12.0
 21
9.0
 12
0.0
 22
0.0
 32
0.0
 14
1.000000000000000E+20
 24
1.000000000000000E+20
 34
1.000000000000000E+20
 15
-1.000000000000000E+20
 25
-1.000000000000000E+20
 35
-1.000000000000000E+20
146
0.0
 13
0.0
 23
0.0
 33
0.0
 16
1.0
 26
0.0
 36
0.0
 17
0.0
 27
1.0
 37
0.0
 76
     0
330
1B
  0
LAYOUT
  5
26
102
{ACAD_REACTORS
330
1A
102
}
330
1A
100
AcDbPlotSettings
  1

  2
none_device
  4

  6

 40
0.0
 41
0.0
 42
0.0
 43
0.0
 44
0.0
 45
0.0
 46
0.0
 47
0.0
 48
0.0
 49
0.0
140
0.0
141
0.0
142
1.0
143
1.0
 70
   688
 72
     0
 73
     0
 74
     5
  7

 75
    16
 76
     0
 77
     2
 78
   300
147
1.0
148
0.0
149
0.0
100
AcDbLayout
  1
Layout2
 70
     1
 71
     2
 10
0.0
 20
0.0
 11
0.0
 21
0.0
 12
0.0
 22
0.0
 32
0.0
 14
0.0
 24
0.0
 34
0.0
 15
0.0
 25
0.0
 35
0.0
146
0.0
 13
0.0
 23
0.0
 33
0.0
 16
1.0
 26
0.0
 36
0.0
 17
0.0
 27
1.0
 37
0.0
 76
     0
330
23
  0
LAYOUT
  5
22
102
{ACAD_REACTORS
330
1A
102
}
330
1A
100
AcDbPlotSettings
  1

  2
none_device
  4
Letter_(8.50_x_11.00_Inches)
  6

 40
6.35
 41
6.35
 42
6.35000508
 43
6.35000508
 44
215.9
 45
279.4
 46
0.0
 47
0.0
 48
0.0
 49
0.0
140
0.0
141
0.0
142
1.0
143
1.0
 70
  1712
 72
     0
 73
     0
 74
     0
  7

 75
     0
 76
     0
 77
     2
 78
   300
147
1.0
148
0.0
149
0.0
100
AcDbLayout
  1
Model
 70
     1
 71
     0
 10
0.0
 20
0.0
 11
12.0
 21
9.0
 12
0.0
 22
0.0
 32
0.0
 14
-554.1104
 24
-617.0196
 34
0.0
 15
717.7595
 25
347.0871
 35
0.0
146
0.0
 13
0.0
 23
0.0
 33
0.0
 16
1.0
 26
0.0
 36
0.0
 17
0.0
 27
1.0
 37
0.0
 76
     0
330
1F
331
29
  0
MATERIAL
  5
45
102
{ACAD_REACTORS
330
43
102
}
330
43
100
AcDbMaterial
  1
ByBlock
 72
     1
 94
      127
  0
MATERIAL
  5
44
102
{ACAD_REACTORS
330
43
102
}
330
43
100
AcDbMaterial
  1
ByLayer
 72
     1
 94
      127
  0
MATERIAL
  5
46
102
{ACAD_REACTORS
330
43
102
}
330
43
100
AcDbMaterial
  1
Global
 72
     1
 94
      127
  0
MLEADERSTYLE
  5
6C
102
{ACAD_REACTORS
330
6B
102
}
102
{ACAD_XDICTIONARY
360
C4
102
}
330
6B
100
AcDbMLeaderStyle
170
     2
171
     1
172
     0
 90
        2
 40
0.0
 41
0.0
173
     1
 91
-1056964608
340
14
 92
       -2
290
     1
 42
0.09
291
     1
 43
0.36
  3
Standard
341
0
 44
0.18
300

342
11
174
     1
178
     6
175
     1
176
     0
 93
-1056964608
 45
0.18
292
     0
297
     0
 46
0.18
343
0
 94
-1056964608
 47
1.0
 49
1.0
140
1.0
293
     1
141
0.0
294
     1
177
     0
142
1.0
295
     0
296
     0
143
0.125
1001
ACAD_MLEADERVER
1070
     2
  0
MLINESTYLE
  5
18
102
{ACAD_REACTORS
330
17
102
}
330
17
100
AcDbMlineStyle
  2
Standard
 70
     0
  3

 62
   256
 51
90.0
 52
90.0
 71
     2
 49
0.5
 62
   256
  6
BYLAYER
 49
-0.5
 62
   256
  6
BYLAYER
  0
ACDBPLACEHOLDER
  5
F
102
{ACAD_REACTORS
330
E
102
}
330
E
  0
SCALE
  5
48
102
{ACAD_REACTORS
330
47
102
}
330
47
100
AcDbScale
 70
     0
300
1:1
140
1.0
141
1.0
290
     1
  0
SCALE
  5
49
102
{ACAD_REACTORS
330
47
102
}
330
47
100
AcDbScale
 70
     0
300
1:2
140
1.0
141
2.0
290
     0
  0
SCALE
  5
4A
102
{ACAD_REACTORS
330
47
102
}
330
47
100
AcDbScale
 70
     0
300
1:4
140
1.0
141
4.0
290
     0
  0
SCALE
  5
4B
102
{ACAD_REACTORS
330
47
102
}
330
47
100
AcDbScale
 70
     0
300
1:5
140
1.0
141
5.0
290
     0
  0
SCALE
  5
4C
102
{ACAD_REACTORS
330
47
102
}
330
47
100
AcDbScale
 70
     0
300
1:8
140
1.0
141
8.0
290
     0
  0
SCALE
  5
4D
102
{ACAD_REACTORS
330
47
102
}
330
47
100
AcDbScale
 70
     0
300
1:10
140
1.0
141
10.0
290
     0
  0
SCALE
  5
4E
102
{ACAD_REACTORS
330
47
102
}
330
47
100
AcDbScale
 70
     0
300
1:16
140
1.0
141
16.0
290
     0
  0
SCALE
  5
4F
102
{ACAD_REACTORS
330
47
102
}
330
47
100
AcDbScale
 70
     0
300
1:20
140
1.0
141
20.0
290
     0
  0
SCALE
  5
50
102
{ACAD_REACTORS
330
47
102
}
330
47
100
AcDbScale
 70
     0
300
1:30
140
1.0
141
30.0
290
     0
  0
SCALE
  5
51
102
{ACAD_REACTORS
330
47
102
}
330
47
100
AcDbScale
 70
     0
300
1:40
140
1.0
141
40.0
290
     0
  0
SCALE
  5
52
102
{ACAD_REACTORS
330
47
102
}
330
47
100
AcDbScale
 70
     0
300
1:50
140
1.0
141
50.0
290
     0
  0
SCALE
  5
53
102
{ACAD_REACTORS
330
47
102
}
330
47
100
AcDbScale
 70
     0
300
1:100
140
1.0
141
100.0
290
     0
  0
SCALE
  5
54
102
{ACAD_REACTORS
330
47
102
}
330
47
100
AcDbScale
 70
     0
300
2:1
140
2.0
141
1.0
290
     0
  0
SCALE
  5
55
102
{ACAD_REACTORS
330
47
102
}
330
47
100
AcDbScale
 70
     0
300
4:1
140
4.0
141
1.0
290
     0
  0
SCALE
  5
56
102
{ACAD_REACTORS
330
47
102
}
330
47
100
AcDbScale
 70
     0
300
8:1
140
8.0
141
1.0
290
     0
  0
SCALE
  5
57
102
{ACAD_REACTORS
330
47
102
}
330
47
100
AcDbScale
 70
     0
300
10:1
140
10.0
141
1.0
290
     0
  0
SCALE
  5
58
102
{ACAD_REACTORS
330
47
102
}
330
47
100
AcDbScale
 70
     0
300
100:1
140
100.0
141
1.0
290
     0
  0
SCALE
  5
59
102
{ACAD_REACTORS
330
47
102
}
330
47
100
AcDbScale
 70
     0
300
1/128" = 1'-0"
140
0.0078125
141
12.0
290
     0
  0
SCALE
  5
5A
102
{ACAD_REACTORS
330
47
102
}
330
47
100
AcDbScale
 70
     0
300
1/64" = 1'-0"
140
0.015625
141
12.0
290
     0
  0
SCALE
  5
5B
102
{ACAD_REACTORS
330
47
102
}
330
47
100
AcDbScale
 70
     0
300
1/32" = 1'-0"
140
0.03125
141
12.0
290
     0
  0
SCALE
  5
5C
102
{ACAD_REACTORS
330
47
102
}
330
47
100
AcDbScale
 70
     0
300
1/16" = 1'-0"
140
0.0625
141
12.0
290
     0
  0
SCALE
  5
5D
102
{ACAD_REACTORS
330
47
102
}
330
47
100
AcDbScale
 70
     0
300
3/32" = 1'-0"
140
0.09375
141
12.0
290
     0
  0
SCALE
  5
5E
102
{ACAD_REACTORS
330
47
102
}
330
47
100
AcDbScale
 70
     0
300
1/8" = 1'-0"
140
0.125
141
12.0
290
     0
  0
SCALE
  5
5F
102
{ACAD_REACTORS
330
47
102
}
330
47
100
AcDbScale
 70
     0
300
3/16" = 1'-0"
140
0.1875
141
12.0
290
     0
  0
SCALE
  5
60
102
{ACAD_REACTORS
330
47
102
}
330
47
100
AcDbScale
 70
     0
300
1/4" = 1'-0"
140
0.25
141
12.0
290
     0
  0
SCALE
  5
61
102
{ACAD_REACTORS
330
47
102
}
330
47
100
AcDbScale
 70
     0
300
3/8" = 1'-0"
140
0.375
141
12.0
290
     0
  0
SCALE
  5
62
102
{ACAD_REACTORS
330
47
102
}
330
47
100
AcDbScale
 70
     0
300
1/2" = 1'-0"
140
0.5
141
12.0
290
     0
  0
SCALE
  5
63
102
{ACAD_REACTORS
330
47
102
}
330
47
100
AcDbScale
 70
     0
300
3/4" = 1'-0"
140
0.75
141
12.0
290
     0
  0
SCALE
  5
64
102
{ACAD_REACTORS
330
47
102
}
330
47
100
AcDbScale
 70
     0
300
1" = 1'-0"
140
1.0
141
12.0
290
     0
  0
SCALE
  5
65
102
{ACAD_REACTORS
330
47
102
}
330
47
100
AcDbScale
 70
     0
300
1-1/2" = 1'-0"
140
1.5
141
12.0
290
     0
  0
SCALE
  5
66
102
{ACAD_REACTORS
330
47
102
}
330
47
100
AcDbScale
 70
     0
300
3" = 1'-0"
140
3.0
141
12.0
290
     0
  0
SCALE
  5
67
102
{ACAD_REACTORS
330
47
102
}
330
47
100
AcDbScale
 70
     0
300
6" = 1'-0"
140
6.0
141
12.0
290
     0
  0
SCALE
  5
68
102
{ACAD_REACTORS
330
47
102
}
330
47
100
AcDbScale
 70
     0
300
1'-0" = 1'-0"
140
12.0
141
12.0
290
     0
  0
TABLESTYLE
  5
6A
102
{ACAD_REACTORS
330
69
102
}
102
{ACAD_XDICTIONARY
360
C1
102
}
330
69
100
AcDbTableStyle
  3
Standard
 70
     0
 71
     0
 40
0.06
 41
0.06
280
     0
281
     0
  7
Standard
140
0.18
170
     2
 62
     0
 63
   257
283
     0
 90
        4
 91
        0
  1

274
    -2
284
     1
 64
     0
275
    -2
285
     1
 65
     0
276
    -2
286
     1
 66
     0
277
    -2
287
     1
 67
     0
278
    -2
288
     1
 68
     0
279
    -2
289
     1
 69
     0
  7
Standard
140
0.25
170
     5
 62
     0
 63
   257
283
     0
 90
        4
 91
        0
  1

274
    -2
284
     1
 64
     0
275
    -2
285
     1
 65
     0
276
    -2
286
     1
 66
     0
277
    -2
287
     1
 67
     0
278
    -2
288
     1
 68
     0
279
    -2
289
     1
 69
     0
  7
Standard
140
0.18
170
     5
 62
     0
 63
   257
283
     0
 90
        4
 91
        0
  1

274
    -2
284
     1
 64
     0
275
    -2
285
     1
 65
     0
276
    -2
286
     1
 66
     0
277
    -2
287
     1
 67
     0
278
    -2
288
     1
 68
     0
279
    -2
289
     1
 69
     0
  0
VISUALSTYLE
  5
2F
102
{ACAD_REACTORS
330
2A
102
}
102
{ACAD_XDICTIONARY
360
99
102
}
330
2A
100
AcDbVisualStyle
  2
2dWireframe
 70
     4
 71
     0
 72
     2
 73
     0
 90
        0
 40
0.6
 41
30.0
 62
     5
 63
     7
421
 16777215
 74
     1
 91
        4
 64
     7
 65
   257
 75
     1
175
     1
 42
1.0
 92
        0
 66
   257
 43
1.0
 76
     1
 77
     6
 78
     2
 67
     7
 79
     5
170
     0
171
     0
290
     0
174
     0
 93
        1
 44
0.0
173
     0
291
     0
 45
0.0
  0
VISUALSTYLE
  5
32
102
{ACAD_REACTORS
330
2A
102
}
102
{ACAD_XDICTIONARY
360
9F
102
}
330
2A
100
AcDbVisualStyle
  2
Basic
 70
     7
 71
     1
 72
     0
 73
     1
 90
        0
 40
0.6
 41
30.0
 62
     5
 63
     7
421
 16777215
 74
     0
 91
        4
 64
     7
 65
   257
 75
     1
175
     1
 42
1.0
 92
        8
 66
     7
 43
1.0
 76
     1
 77
     6
 78
     2
 67
     7
 79
     5
170
     0
171
     0
290
     0
174
     0
 93
        1
 44
0.0
173
     0
291
     1
 45
0.0
  0
VISUALSTYLE
  5
36
102
{ACAD_REACTORS
330
2A
102
}
102
{ACAD_XDICTIONARY
360
A7
102
}
330
2A
100
AcDbVisualStyle
  2
Brighten
 70
    12
 71
     2
 72
     2
 73
     0
 90
        0
 40
0.6
 41
30.0
 62
     5
 63
     7
421
 16777215
 74
     1
 91
        4
 64
     7
 65
   257
 75
     1
175
     1
 42
1.0
 92
        8
 66
     7
 43
1.0
 76
     1
 77
     6
 78
     2
 67
     7
 79
     5
170
     0
171
     0
290
     0
174
     0
 93
        1
 44
50.0
173
     0
291
     1
 45
0.0
  0
VISUALSTYLE
  5
3A
102
{ACAD_REACTORS
330
2A
102
}
102
{ACAD_XDICTIONARY
360
AF
102
}
330
2A
100
AcDbVisualStyle
  2
ColorChange
 70
    16
 71
     2
 72
     2
 73
     3
 90
        0
 40
0.6
 41
30.0
 62
     5
 63
     8
421
  8421504
 74
     1
 91
        4
 64
     7
 65
   257
 75
     1
175
     1
 42
1.0
 92
        8
 66
     8
424
  8421504
 43
1.0
 76
     1
 77
     6
 78
     2
 67
     7
 79
     5
170
     0
171
     0
290
     0
174
     0
 93
        1
 44
0.0
173
     0
291
     1
 45
0.0
  0
VISUALSTYLE
  5
34
102
{ACAD_REACTORS
330
2A
102
}
102
{ACAD_XDICTIONARY
360
A3
102
}
330
2A
100
AcDbVisualStyle
  2
Conceptual
 70
     9
 71
     3
 72
     2
 73
     0
 90
        0
 40
0.6
 41
30.0
 62
     5
 63
     7
421
 16777215
 74
     2
 91
        2
 64
     7
 65
   257
 75
     1
175
     1
 42
179.0
 92
        8
 66
     7
 43
1.0
 76
     1
 77
     6
 78
     2
 67
     7
 79
     3
170
     0
171
     0
290
     0
174
     0
 93
        1
 44
0.0
173
     0
291
     0
 45
0.0
  0
VISUALSTYLE
  5
35
102
{ACAD_REACTORS
330
2A
102
}
102
{ACAD_XDICTIONARY
360
A5
102
}
330
2A
100
AcDbVisualStyle
  2
Dim
 70
    11
 71
     2
 72
     2
 73
     0
 90
        0
 40
0.6
 41
30.0
 62
     5
 63
     7
421
 16777215
 74
     1
 91
        4
 64
     7
 65
   257
 75
     1
175
     1
 42
1.0
 92
        8
 66
     7
 43
1.0
 76
     1
 77
     6
 78
     2
 67
     7
 79
     5
170
     0
171
     0
290
     0
174
     0
 93
        1
 44
-50.0
173
     0
291
     1
 45
0.0
  0
VISUALSTYLE
  5
3D
102
{ACAD_REACTORS
330
2A
102
}
102
{ACAD_XDICTIONARY
360
B5
102
}
330
2A
100
AcDbVisualStyle
  2
EdgeColorOff
 70
    22
 71
     2
 72
     2
 73
     0
 90
        0
 40
0.6
 41
30.0
 62
     5
 63
     7
421
 16777215
 74
     1
 91
        4
 64
     7
 65
   257
 75
     1
175
     1
 42
1.0
 92
        8
 66
     7
 43
1.0
 76
     1
 77
     6
 78
     2
 67
     7
 79
     5
170
     0
171
     0
290
     0
174
     0
 93
        1
 44
0.0
173
     0
291
     1
 45
0.0
  0
VISUALSTYLE
  5
39
102
{ACAD_REACTORS
330
2A
102
}
102
{ACAD_XDICTIONARY
360
AD
102
}
330
2A
100
AcDbVisualStyle
  2
Facepattern
 70
    15
 71
     2
 72
     2
 73
     0
 90
        0
 40
0.6
 41
30.0
 62
     5
 63
     7
421
 16777215
 74
     1
 91
        4
 64
     7
 65
   257
 75
     1
175
     1
 42
1.0
 92
        8
 66
     7
 43
1.0
 76
     1
 77
     6
 78
     2
 67
     7
 79
     5
170
     0
171
     0
290
     0
174
     0
 93
        1
 44
0.0
173
     0
291
     1
 45
0.0
  0
VISUALSTYLE
  5
2B
102
{ACAD_REACTORS
330
2A
102
}
102
{ACAD_XDICTIONARY
360
91
102
}
330
2A
100
AcDbVisualStyle
  2
Flat
 70
     0
 71
     2
 72
     1
 73
     1
 90
        2
 40
0.6
 41
30.0
 62
     5
 63
     7
421
 16777215
 74
     0
 91
        0
 64
     7
 65
   257
 75
     1
175
     1
 42
1.0
 92
        8
 66
     7
 43
1.0
 76
     1
 77
     6
 78
     2
 67
     7
 79
     5
170
     0
171
     0
290
     0
174
     0
 93
       13
 44
0.0
173
     0
291
     1
 45
0.0
  0
VISUALSTYLE
  5
2C
102
{ACAD_REACTORS
330
2A
102
}
102
{ACAD_XDICTIONARY
360
93
102
}
330
2A
100
AcDbVisualStyle
  2
FlatWithEdges
 70
     1
 71
     2
 72
     1
 73
     1
 90
        2
 40
0.6
 41
30.0
 62
     5
 63
     7
421
 16777215
 74
     1
 91
        0
 64
     7
 65
   257
 75
     1
175
     1
 42
1.0
 92
        0
 66
   257
 43
1.0
 76
     1
 77
     6
 78
     2
 67
     7
 79
     5
170
     0
171
     0
290
     0
174
     0
 93
       13
 44
0.0
173
     0
291
     1
 45
0.0
  0
VISUALSTYLE
  5
2D
102
{ACAD_REACTORS
330
2A
102
}
102
{ACAD_XDICTIONARY
360
95
102
}
330
2A
100
AcDbVisualStyle
  2
Gouraud
 70
     2
 71
     2
 72
     2
 73
     1
 90
        2
 40
0.6
 41
30.0
 62
     5
 63
     7
421
 16777215
 74
     0
 91
        0
 64
     7
 65
   257
 75
     1
175
     1
 42
1.0
 92
        0
 66
     7
 43
1.0
 76
     1
 77
     6
 78
     2
 67
     7
 79
     5
170
     0
171
     0
290
     0
174
     0
 93
       13
 44
0.0
173
     0
291
     1
 45
0.0
  0
VISUALSTYLE
  5
2E
102
{ACAD_REACTORS
330
2A
102
}
102
{ACAD_XDICTIONARY
360
97
102
}
330
2A
100
AcDbVisualStyle
  2
GouraudWithEdges
 70
     3
 71
     2
 72
     2
 73
     1
 90
        2
 40
0.6
 41
30.0
 62
     5
 63
     7
421
 16777215
 74
     1
 91
        0
 64
     7
 65
   257
 75
     1
175
     1
 42
1.0
 92
        0
 66
   257
 43
1.0
 76
     1
 77
     6
 78
     2
 67
     7
 79
     5
170
     0
171
     0
290
     0
174
     0
 93
       13
 44
0.0
173
     0
291
     1
 45
0.0
  0
VISUALSTYLE
  5
31
102
{ACAD_REACTORS
330
2A
102
}
102
{ACAD_XDICTIONARY
360
9D
102
}
330
2A
100
AcDbVisualStyle
  2
Hidden
 70
     6
 71
     1
 72
     2
 73
     2
 90
        0
 40
0.6
 41
30.0
 62
     5
 63
     7
421
 16777215
 74
     2
 91
        2
 64
     7
 65
   257
 75
     2
175
     1
 42
40.0
 92
        0
 66
   257
 43
1.0
 76
     1
 77
     6
 78
     2
 67
     7
 79
     3
170
     0
171
     0
290
     0
174
     0
 93
        1
 44
0.0
173
     0
291
     0
 45
0.0
  0
VISUALSTYLE
  5
3B
102
{ACAD_REACTORS
330
2A
102
}
102
{ACAD_XDICTIONARY
360
B1
102
}
330
2A
100
AcDbVisualStyle
  2
JitterOff
 70
    20
 71
     2
 72
     2
 73
     0
 90
        0
 40
0.6
 41
30.0
 62
     5
 63
     7
421
 16777215
 74
     1
 91
        4
 64
     7
 65
   257
 75
     1
175
     1
 42
1.0
 92
       10
 66
     7
 43
1.0
 76
     1
 77
     6
 78
     2
 67
     7
 79
     5
170
     0
171
     0
290
     0
174
     0
 93
        1
 44
0.0
173
     0
291
     1
 45
0.0
  0
VISUALSTYLE
  5
38
102
{ACAD_REACTORS
330
2A
102
}
102
{ACAD_XDICTIONARY
360
AB
102
}
330
2A
100
AcDbVisualStyle
  2
Linepattern
 70
    14
 71
     2
 72
     2
 73
     0
 90
        0
 40
0.6
 41
30.0
 62
     5
 63
     7
421
 16777215
 74
     1
 91
        4
 64
     7
 65
   257
 75
     7
175
     7
 42
1.0
 92
        8
 66
     7
 43
1.0
 76
     1
 77
     6
 78
     2
 67
     7
 79
     5
170
     0
171
     0
290
     0
174
     0
 93
        1
 44
0.0
173
     0
291
     1
 45
0.0
  0
VISUALSTYLE
  5
3C
102
{ACAD_REACTORS
330
2A
102
}
102
{ACAD_XDICTIONARY
360
B3
102
}
330
2A
100
AcDbVisualStyle
  2
OverhangOff
 70
    21
 71
     2
 72
     2
 73
     0
 90
        0
 40
0.6
 41
30.0
 62
     5
 63
     7
421
 16777215
 74
     1
 91
        4
 64
     7
 65
   257
 75
     1
175
     1
 42
1.0
 92
        9
 66
     7
 43
1.0
 76
     1
 77
     6
 78
     2
 67
     7
 79
     5
170
     0
171
     0
290
     0
174
     0
 93
        1
 44
0.0
173
     0
291
     1
 45
0.0
  0
VISUALSTYLE
  5
33
102
{ACAD_REACTORS
330
2A
102
}
102
{ACAD_XDICTIONARY
360
A1
102
}
330
2A
100
AcDbVisualStyle
  2
Realistic
 70
     8
 71
     2
 72
     3
 73
     0
 90
        2
 40
0.6
 41
30.0
 62
     5
 63
     7
421
 16777215
 74
     0
 91
        0
 64
     7
 65
   257
 75
     1
175
     1
 42
1.0
 92
        8
 66
   257
 43
1.0
 76
     1
 77
     6
 78
     2
 67
     7
 79
     3
170
     0
171
     0
290
     0
174
     0
 93
       13
 44
0.0
173
     0
291
     0
 45
0.0
  0
VISUALSTYLE
  5
42
102
{ACAD_REACTORS
330
2A
102
}
102
{ACAD_XDICTIONARY
360
BF
102
}
330
2A
100
AcDbVisualStyle
  2
Shaded
 70
    27
 71
     2
 72
     2
 73
     1
 90
        2
 40
0.6
 41
30.0
 62
     5
 63
     7
421
 16777215
 74
     0
 91
        4
 64
     7
 65
   257
 75
     1
175
     1
 42
1.0
 92
        8
 66
   257
 43
1.0
 76
     1
 77
     6
 78
     2
 67
     8
425
  7895160
 79
     3
170
     0
171
     0
290
     0
174
     0
 93
        5
 44
0.0
173
     0
291
     0
 45
0.0
  0
VISUALSTYLE
  5
41
102
{ACAD_REACTORS
330
2A
102
}
102
{ACAD_XDICTIONARY
360
BD
102
}
330
2A
100
AcDbVisualStyle
  2
Shaded with edges
 70
    26
 71
     2
 72
     2
 73
     1
 90
        2
 40
0.6
 41
30.0
 62
     5
 63
     7
421
 16777215
 74
     1
 91
       10
 64
     7
 65
   257
 75
     2
175
     1
 42
1.0
 92
        8
 66
   257
 43
1.0
 76
     1
 77
     6
 78
     2
 67
     7
 79
     3
170
     0
171
     0
290
     0
174
     0
 93
        5
 44
0.0
173
     0
291
     0
 45
0.0
  0
VISUALSTYLE
  5
3E
102
{ACAD_REACTORS
330
2A
102
}
102
{ACAD_XDICTIONARY
360
B7
102
}
330
2A
100
AcDbVisualStyle
  2
Shades of Gray
 70
    23
 71
     2
 72
     2
 73
     3
 90
        0
 40
0.6
 41
30.0
 62
     5
 63
     7
421
 16777215
 74
     2
 91
        2
 64
     7
 65
     7
 75
     1
175
     1
 42
40.0
 92
        8
 66
     7
 43
1.0
 76
     1
 77
     6
 78
     2
 67
     7
 79
     3
170
     0
171
     0
290
     0
174
     0
 93
        1
 44
0.0
173
     0
291
     0
 45
0.0
  0
VISUALSTYLE
  5
3F
102
{ACAD_REACTORS
330
2A
102
}
102
{ACAD_XDICTIONARY
360
B9
102
}
330
2A
100
AcDbVisualStyle
  2
Sketchy
 70
    24
 71
     1
 72
     2
 73
     2
 90
        0
 40
0.6
 41
30.0
 62
     5
 63
     7
421
 16777215
 74
     2
 91
        2
 64
     7
 65
     7
 75
     1
175
     1
 42
40.0
 92
       11
 66
     7
 43
1.0
 76
     1
 77
     6
 78
     2
 67
     7
 79
     6
170
     0
171
     0
290
     0
174
     0
 93
        1
 44
0.0
173
     0
291
     0
 45
0.0
  0
VISUALSTYLE
  5
37
102
{ACAD_REACTORS
330
2A
102
}
102
{ACAD_XDICTIONARY
360
A9
102
}
330
2A
100
AcDbVisualStyle
  2
Thicken
 70
    13
 71
     2
 72
     2
 73
     0
 90
        0
 40
0.6
 41
30.0
 62
     5
 63
     7
421
 16777215
 74
     1
 91
        4
 64
     7
 65
   257
 75
     1
175
     1
 42
1.0
 92
       12
 66
     7
 43
1.0
 76
     1
 77
     6
 78
     2
 67
     7
 79
     5
170
     0
171
     0
290
     0
174
     0
 93
        1
 44
0.0
173
     0
291
     1
 45
0.0
  0
VISUALSTYLE
  5
30
102
{ACAD_REACTORS
330
2A
102
}
102
{ACAD_XDICTIONARY
360
9B
102
}
330
2A
100
AcDbVisualStyle
  2
Wireframe
 70
     5
 71
     0
 72
     2
 73
     0
 90
        0
 40
0.6
 41
30.0
 62
     5
 63
     7
421
 16777215
 74
     1
 91
        4
 64
     7
 65
   257
 75
     1
175
     1
 42
1.0
 92
        0
 66
   257
 43
1.0
 76
     1
 77
     6
 78
     2
 67
     7
 79
     3
170
     0
171
     0
290
     0
174
     0
 93
        1
 44
0.0
173
     0
291
     0
 45
0.0
  0
VISUALSTYLE
  5
40
102
{ACAD_REACTORS
330
2A
102
}
102
{ACAD_XDICTIONARY
360
BB
102
}
330
2A
100
AcDbVisualStyle
  2
X-Ray
 70
    25
 71
     2
 72
     2
 73
     1
 90
        1
 40
0.5
 41
30.0
 62
     5
 63
     7
421
 16777215
 74
     1
 91
        0
 64
     7
 65
   257
 75
     1
175
     1
 42
1.0
 92
        8
 66
     7
 43
1.0
 76
     1
 77
     6
 78
     2
 67
     7
 79
     3
170
     0
171
     0
290
     0
174
     0
 93
       13
 44
0.0
173
     0
291
     0
 45
0.0
  0
DICTIONARYVAR
  5
8F
102
{ACAD_REACTORS
330
8E
102
}
330
8E
100
DictionaryVariables
280
     0
  1
1:1
  0
DICTIONARYVAR
  5
C8
102
{ACAD_REACTORS
330
8E
102
}
330
8E
100
DictionaryVariables
280
     0
  1
Standard
  0
DICTIONARYVAR
  5
C7
102
{ACAD_REACTORS
330
8E
102
}
330
8E
100
DictionaryVariables
280
     0
  1
Standard
  0
DICTIONARYVAR
  5
90
102
{ACAD_REACTORS
330
8E
102
}
330
8E
100
DictionaryVariables
280
     0
  1
2
  0
DICTIONARY
  5
C4
330
6C
100
AcDbDictionary
280
     1
281
     1
  3
ACAD_XREC_ROUNDTRIP
360
C5
  0
DICTIONARY
  5
C1
330
6A
100
AcDbDictionary
280
     1
281
     1
  3
ACAD_ROUNDTRIP_2008_TABLESTYLE_CELLSTYLEMAP
360
C2
  0
DICTIONARY
  5
99
330
2F
100
AcDbDictionary
280
     1
281
     1
  3
ACAD_XREC_ROUNDTRIP
360
9A
  0
DICTIONARY
  5
9F
330
32
100
AcDbDictionary
280
     1
281
     1
  3
ACAD_XREC_ROUNDTRIP
360
A0
  0
DICTIONARY
  5
A7
330
36
100
AcDbDictionary
280
     1
281
     1
  3
ACAD_XREC_ROUNDTRIP
360
A8
  0
DICTIONARY
  5
AF
330
3A
100
AcDbDictionary
280
     1
281
     1
  3
ACAD_XREC_ROUNDTRIP
360
B0
  0
DICTIONARY
  5
A3
330
34
100
AcDbDictionary
280
     1
281
     1
  3
ACAD_XREC_ROUNDTRIP
360
A4
  0
DICTIONARY
  5
A5
330
35
100
AcDbDictionary
280
     1
281
     1
  3
ACAD_XREC_ROUNDTRIP
360
A6
  0
DICTIONARY
  5
B5
330
3D
100
AcDbDictionary
280
     1
281
     1
  3
ACAD_XREC_ROUNDTRIP
360
B6
  0
DICTIONARY
  5
AD
330
39
100
AcDbDictionary
280
     1
281
     1
  3
ACAD_XREC_ROUNDTRIP
360
AE
  0
DICTIONARY
  5
91
330
2B
100
AcDbDictionary
280
     1
281
     1
  3
ACAD_XREC_ROUNDTRIP
360
92
  0
DICTIONARY
  5
93
330
2C
100
AcDbDictionary
280
     1
281
     1
  3
ACAD_XREC_ROUNDTRIP
360
94
  0
DICTIONARY
  5
95
330
2D
100
AcDbDictionary
280
     1
281
     1
  3
ACAD_XREC_ROUNDTRIP
360
96
  0
DICTIONARY
  5
97
330
2E
100
AcDbDictionary
280
     1
281
     1
  3
ACAD_XREC_ROUNDTRIP
360
98
  0
DICTIONARY
  5
9D
330
31
100
AcDbDictionary
280
     1
281
     1
  3
ACAD_XREC_ROUNDTRIP
360
9E
  0
DICTIONARY
  5
B1
330
3B
100
AcDbDictionary
280
     1
281
     1
  3
ACAD_XREC_ROUNDTRIP
360
B2
  0
DICTIONARY
  5
AB
330
38
100
AcDbDictionary
280
     1
281
     1
  3
ACAD_XREC_ROUNDTRIP
360
AC
  0
DICTIONARY
  5
B3
330
3C
100
AcDbDictionary
280
     1
281
     1
  3
ACAD_XREC_ROUNDTRIP
360
B4
  0
DICTIONARY
  5
A1
330
33
100
AcDbDictionary
280
     1
281
     1
  3
ACAD_XREC_ROUNDTRIP
360
A2
  0
DICTIONARY
  5
BF
330
42
100
AcDbDictionary
280
     1
281
     1
  3
ACAD_XREC_ROUNDTRIP
360
C0
  0
DICTIONARY
  5
BD
330
41
100
AcDbDictionary
280
     1
281
     1
  3
ACAD_XREC_ROUNDTRIP
360
BE
  0
DICTIONARY
  5
B7
330
3E
100
AcDbDictionary
280
     1
281
     1
  3
ACAD_XREC_ROUNDTRIP
360
B8
  0
DICTIONARY
  5
B9
330
3F
100
AcDbDictionary
280
     1
281
     1
  3
ACAD_XREC_ROUNDTRIP
360
BA
  0
DICTIONARY
  5
A9
330
37
100
AcDbDictionary
280
     1
281
     1
  3
ACAD_XREC_ROUNDTRIP
360
AA
  0
DICTIONARY
  5
9B
330
30
100
AcDbDictionary
280
     1
281
     1
  3
ACAD_XREC_ROUNDTRIP
360
9C
  0
DICTIONARY
  5
BB
330
40
100
AcDbDictionary
280
     1
281
     1
  3
ACAD_XREC_ROUNDTRIP
360
BC
  0
XRECORD
  5
C5
102
{ACAD_REACTORS
330
C4
102
}
330
C4
100
AcDbXrecord
280
     1
102
ACAD_ROUNDTRIP_2010_MLEADER_STYLE
  0
CELLSTYLEMAP
  5
C2
102
{ACAD_REACTORS
330
C1
102
}
330
C1
100
AcDbCellStyleMap
 90
        3
300
CELLSTYLE
  1
TABLEFORMAT_BEGIN
 90
        5
170
     1
 91
        0
 92
    32768
 62
   257
 93
        1
300
CONTENTFORMAT
  1
CONTENTFORMAT_BEGIN
 90
        0
 91
        0
 92
        4
 93
        0
300

 40
0.0
140
1.0
 94
        5
 62
     0
340
11
144
0.25
309
CONTENTFORMAT_END
171
     1
301
MARGIN
  1
CELLMARGIN_BEGIN
 40
0.06
 40
0.06
 40
0.06
 40
0.06
 40
0.06
 40
0.06
309
CELLMARGIN_END
 94
        6
 95
        1
302
GRIDFORMAT
  1
GRIDFORMAT_BEGIN
 90
        0
 91
        1
 62
     0
 92
       -2
340
14
 93
        0
 40
0.045
309
GRIDFORMAT_END
 95
        2
302
GRIDFORMAT
  1
GRIDFORMAT_BEGIN
 90
        0
 91
        1
 62
     0
 92
       -2
340
14
 93
        0
 40
0.045
309
GRIDFORMAT_END
 95
        4
302
GRIDFORMAT
  1
GRIDFORMAT_BEGIN
 90
        0
 91
        1
 62
     0
 92
       -2
340
14
 93
        0
 40
0.045
309
GRIDFORMAT_END
 95
        8
302
GRIDFORMAT
  1
GRIDFORMAT_BEGIN
 90
        0
 91
        1
 62
     0
 92
       -2
340
14
 93
        0
 40
0.045
309
GRIDFORMAT_END
 95
       16
302
GRIDFORMAT
  1
GRIDFORMAT_BEGIN
 90
        0
 91
        1
 62
     0
 92
       -2
340
14
 93
        0
 40
0.045
309
GRIDFORMAT_END
 95
       32
302
GRIDFORMAT
  1
GRIDFORMAT_BEGIN
 90
        0
 91
        1
 62
     0
 92
       -2
340
14
 93
        0
 40
0.045
309
GRIDFORMAT_END
309
TABLEFORMAT_END
  1
CELLSTYLE_BEGIN
 90
        1
 91
        1
300
_TITLE
309
CELLSTYLE_END
300
CELLSTYLE
  1
TABLEFORMAT_BEGIN
 90
        5
170
     1
 91
        0
 92
        0
 62
   257
 93
        1
300
CONTENTFORMAT
  1
CONTENTFORMAT_BEGIN
 90
        0
 91
        0
 92
        4
 93
        0
300

 40
0.0
140
1.0
 94
        5
 62
     0
340
11
144
0.18
309
CONTENTFORMAT_END
171
     1
301
MARGIN
  1
CELLMARGIN_BEGIN
 40
0.06
 40
0.06
 40
0.06
 40
0.06
 40
0.06
 40
0.06
309
CELLMARGIN_END
 94
        6
 95
        1
302
GRIDFORMAT
  1
GRIDFORMAT_BEGIN
 90
        0
 91
        1
 62
     0
 92
       -2
340
14
 93
        0
 40
0.045
309
GRIDFORMAT_END
 95
        2
302
GRIDFORMAT
  1
GRIDFORMAT_BEGIN
 90
        0
 91
        1
 62
     0
 92
       -2
340
14
 93
        0
 40
0.045
309
GRIDFORMAT_END
 95
        4
302
GRIDFORMAT
  1
GRIDFORMAT_BEGIN
 90
        0
 91
        1
 62
     0
 92
       -2
340
14
 93
        0
 40
0.045
309
GRIDFORMAT_END
 95
        8
302
GRIDFORMAT
  1
GRIDFORMAT_BEGIN
 90
        0
 91
        1
 62
     0
 92
       -2
340
14
 93
        0
 40
0.045
309
GRIDFORMAT_END
 95
       16
302
GRIDFORMAT
  1
GRIDFORMAT_BEGIN
 90
        0
 91
        1
 62
     0
 92
       -2
340
14
 93
        0
 40
0.045
309
GRIDFORMAT_END
 95
       32
302
GRIDFORMAT
  1
GRIDFORMAT_BEGIN
 90
        0
 91
        1
 62
     0
 92
       -2
340
14
 93
        0
 40
0.045
309
GRIDFORMAT_END
309
TABLEFORMAT_END
  1
CELLSTYLE_BEGIN
 90
        2
 91
        1
300
_HEADER
309
CELLSTYLE_END
300
CELLSTYLE
  1
TABLEFORMAT_BEGIN
 90
        5
170
     1
 91
        0
 92
        0
 62
   257
 93
        1
300
CONTENTFORMAT
  1
CONTENTFORMAT_BEGIN
 90
        0
 91
        0
 92
        4
 93
        0
300

 40
0.0
140
1.0
 94
        2
 62
     0
340
11
144
0.18
309
CONTENTFORMAT_END
171
     1
301
MARGIN
  1
CELLMARGIN_BEGIN
 40
0.06
 40
0.06
 40
0.06
 40
0.06
 40
0.06
 40
0.06
309
CELLMARGIN_END
 94
        6
 95
        1
302
GRIDFORMAT
  1
GRIDFORMAT_BEGIN
 90
        0
 91
        1
 62
     0
 92
       -2
340
14
 93
        0
 40
0.045
309
GRIDFORMAT_END
 95
        2
302
GRIDFORMAT
  1
GRIDFORMAT_BEGIN
 90
        0
 91
        1
 62
     0
 92
       -2
340
14
 93
        0
 40
0.045
309
GRIDFORMAT_END
 95
        4
302
GRIDFORMAT
  1
GRIDFORMAT_BEGIN
 90
        0
 91
        1
 62
     0
 92
       -2
340
14
 93
        0
 40
0.045
309
GRIDFORMAT_END
 95
        8
302
GRIDFORMAT
  1
GRIDFORMAT_BEGIN
 90
        0
 91
        1
 62
     0
 92
       -2
340
14
 93
        0
 40
0.045
309
GRIDFORMAT_END
 95
       16
302
GRIDFORMAT
  1
GRIDFORMAT_BEGIN
 90
        0
 91
        1
 62
     0
 92
       -2
340
14
 93
        0
 40
0.045
309
GRIDFORMAT_END
 95
       32
302
GRIDFORMAT
  1
GRIDFORMAT_BEGIN
 90
        0
 91
        1
 62
     0
 92
       -2
340
14
 93
        0
 40
0.045
309
GRIDFORMAT_END
309
TABLEFORMAT_END
  1
CELLSTYLE_BEGIN
 90
        3
 91
        2
300
_DATA
309
CELLSTYLE_END
  0
XRECORD
  5
9A
102
{ACAD_REACTORS
330
99
102
}
330
99
100
AcDbXrecord
280
     1
102
RTVSPropertyOp0
 70
     1
102
RTVSPropertyOp1
 70
     1
102
RTVSPropertyOp2
 70
     1
102
RTVSPropertyOp3
 70
     1
102
RTVSPropertyOp4
 70
     1
102
RTVSPropertyOp5
 70
     1
102
RTVSPropertyOp6
 70
     1
102
RTVSPropertyOp7
 70
     1
102
RTVSPropertyOp8
 70
     1
102
RTVSPropertyOp9
 70
     1
102
RTVSPropertyOp10
 70
     1
102
RTVSPropertyOp11
 70
     1
102
RTVSPropertyOp12
 70
     1
102
RTVSPropertyOp13
 70
     1
102
RTVSPropertyOp14
 70
     1
102
RTVSPropertyOp15
 70
     1
102
RTVSPropertyOp16
 70
     1
102
RTVSPropertyOp17
 70
     1
102
RTVSPropertyOp18
 70
     1
102
RTVSPropertyOp19
 70
     1
102
RTVSPropertyOp20
 70
     1
102
RTVSPropertyOp21
 70
     1
102
RTVSPropertyOp22
 70
     1
102
RTVSPropertyOp23
 70
     1
102
RTVSPropertyOp24
 70
     1
102
RTVSPropertyOp25
 70
     1
102
RTVSPropertyOp26
 70
     1
102
RTVSPropertyOp27
 70
     1
102
RTVSPropertyOp28
 70
     1
102
RTVSPropertyOp29
 70
     1
102
RTVSPropertyOp30
 70
     1
102
RTVSPropertyOp31
 70
     1
102
RTVSPropertyOp32
 70
     1
102
RTVSPropertyOp33
 70
     1
102
RTVSPropertyOp34
 70
     1
102
RTVSPropertyOp35
 70
     1
102
RTVSPropertyOp36
 70
     1
102
RTVSPropertyOp37
 70
     1
102
RTVSPropertyOp38
 70
     1
102
RTVSPropertyOp39
 70
     1
102
RTVSPropertyOp40
 70
     1
102
RTVSPropertyOp41
 70
     1
102
RTVSPropertyOp42
 70
     1
102
RTVSPropertyOp43
 70
     1
102
RTVSPropertyOp44
 70
     1
102
RTVSPropertyOp45
 70
     1
102
RTVSPropertyOp46
 70
     1
102
RTVSPropertyOp47
 70
     1
102
RTVSPropertyOp48
 70
     1
102
RTVSPropertyOp49
 70
     1
102
RTVSPropertyOp50
 70
     1
102
RTVSPropertyOp51
 70
     0
102
RTVSPropertyOp52
 70
     0
102
RTVSPropertyOp53
 70
     1
102
RTVSPropertyOp54
 70
     1
102
RTVSPropertyOp55
 70
     1
102
RTVSPropertyOp56
 70
     1
102
RTVSPropertyOp57
 70
     1
102
RTVSPost2010Prop28
280
     1
102
RTVSPost2010PropOp28
 70
     1
102
RTVSPost2010Prop29
280
     1
102
RTVSPost2010PropOp29
 70
     1
102
RTVSPost2010Prop30
280
     0
102
RTVSPost2010PropOp30
 70
     1
102
RTVSPost2010Prop31
280
     0
102
RTVSPost2010PropOp31
 70
     1
102
RTVSPost2010Prop32
280
     0
102
RTVSPost2010PropOp32
 70
     1
102
RTVSPost2010Prop33
280
     0
102
RTVSPost2010PropOp33
 70
     1
102
RTVSPost2010Prop34
280
     0
102
RTVSPost2010PropOp34
 70
     1
102
RTVSPost2010Prop35
280
     0
102
RTVSPost2010PropOp35
 70
     1
102
RTVSPost2010Prop36
280
     0
102
RTVSPost2010PropOp36
 70
     1
102
RTVSPost2010Prop37
 90
       50
102
RTVSPost2010PropOp37
 70
     1
102
RTVSPost2010Prop38
140
0.0
102
RTVSPost2010PropOp38
 70
     1
102
RTVSPost2010Prop39
140
1.0
102
RTVSPost2010PropOp39
 70
     1
102
RTVSPost2010Prop40
 90
        0
102
RTVSPost2010PropOp40
 70
     1
102
RTVSPost2010Prop41ColorIndex
 90
       18
102
RTVSPost2010Prop41ColorRGB
 90
        0
102
RTVSPost2010PropOp41
 70
     1
102
RTVSPost2010Prop42
 90
       50
102
RTVSPost2010PropOp42
 70
     1
102
RTVSPost2010Prop43
 90
        3
102
RTVSPost2010PropOp43
 70
     1
102
RTVSPost2010Prop44ColorIndex
 90
        5
102
RTVSPost2010Prop44ColorRGB
 90
      255
102
RTVSPost2010PropOp44
 70
     1
102
RTVSPost2010Prop45
280
     0
102
RTVSPost2010PropOp45
 70
     1
102
RTVSPost2010Prop46
 90
       50
102
RTVSPost2010PropOp46
 70
     1
102
RTVSPost2010Prop47
 90
       50
102
RTVSPost2010PropOp47
 70
     1
102
RTVSPost2010Prop48
 90
       50
102
RTVSPost2010PropOp48
 70
     1
102
RTVSPost2010Prop49
280
     0
102
RTVSPost2010PropOp49
 70
     1
102
RTVSPost2010Prop50
 90
       50
102
RTVSPost2010PropOp50
 70
     1
102
RTVSPost2010Prop51ColorIndex
 90
      256
102
RTVSPost2010Prop51ColorRGB
 90
-16777216
102
RTVSPost2010PropOp51
 70
     0
102
RTVSPost2010Prop52
140
1.0
102
RTVSPost2010PropOp52
 70
     0
102
RTVSPost2010Prop53
 90
        2
102
RTVSPost2010PropOp53
 70
     1
102
RTVSPost2010Prop54
  1
strokes_ogs.tif
102
RTVSPost2010PropOp54
 70
     1
102
RTVSPost2010Prop55
280
     0
102
RTVSPost2010PropOp55
 70
     1
102
RTVSPost2010Prop56
140
1.0
102
RTVSPost2010PropOp56
 70
     1
102
RTVSPost2010Prop57
140
1.0
102
RTVSPost2010PropOp57
 70
     1
  0
XRECORD
  5
A0
102
{ACAD_REACTORS
330
9F
102
}
330
9F
100
AcDbXrecord
280
     1
102
RTVSPropertyOp0
 70
     1
102
RTVSPropertyOp1
 70
     1
102
RTVSPropertyOp2
 70
     1
102
RTVSPropertyOp3
 70
     1
102
RTVSPropertyOp4
 70
     1
102
RTVSPropertyOp5
 70
     1
102
RTVSPropertyOp6
 70
     1
102
RTVSPropertyOp7
 70
     1
102
RTVSPropertyOp8
 70
     1
102
RTVSPropertyOp9
 70
     1
102
RTVSPropertyOp10
 70
     1
102
RTVSPropertyOp11
 70
     1
102
RTVSPropertyOp12
 70
     1
102
RTVSPropertyOp13
 70
     1
102
RTVSPropertyOp14
 70
     1
102
RTVSPropertyOp15
 70
     1
102
RTVSPropertyOp16
 70
     1
102
RTVSPropertyOp17
 70
     1
102
RTVSPropertyOp18
 70
     1
102
RTVSPropertyOp19
 70
     1
102
RTVSPropertyOp20
 70
     1
102
RTVSPropertyOp21
 70
     1
102
RTVSPropertyOp22
 70
     1
102
RTVSPropertyOp23
 70
     1
102
RTVSPropertyOp24
 70
     1
102
RTVSPropertyOp25
 70
     1
102
RTVSPropertyOp26
 70
     1
102
RTVSPropertyOp27
 70
     1
102
RTVSPropertyOp28
 70
     1
102
RTVSPropertyOp29
 70
     1
102
RTVSPropertyOp30
 70
     1
102
RTVSPropertyOp31
 70
     1
102
RTVSPropertyOp32
 70
     1
102
RTVSPropertyOp33
 70
     1
102
RTVSPropertyOp34
 70
     1
102
RTVSPropertyOp35
 70
     1
102
RTVSPropertyOp36
 70
     1
102
RTVSPropertyOp37
 70
     1
102
RTVSPropertyOp38
 70
     1
102
RTVSPropertyOp39
 70
     1
102
RTVSPropertyOp40
 70
     1
102
RTVSPropertyOp41
 70
     1
102
RTVSPropertyOp42
 70
     1
102
RTVSPropertyOp43
 70
     1
102
RTVSPropertyOp44
 70
     1
102
RTVSPropertyOp45
 70
     1
102
RTVSPropertyOp46
 70
     1
102
RTVSPropertyOp47
 70
     1
102
RTVSPropertyOp48
 70
     1
102
RTVSPropertyOp49
 70
     1
102
RTVSPropertyOp50
 70
     1
102
RTVSPropertyOp51
 70
     0
102
RTVSPropertyOp52
 70
     0
102
RTVSPropertyOp53
 70
     1
102
RTVSPropertyOp54
 70
     1
102
RTVSPropertyOp55
 70
     1
102
RTVSPropertyOp56
 70
     1
102
RTVSPropertyOp57
 70
     1
102
RTVSPost2010Prop28
280
     0
102
RTVSPost2010PropOp28
 70
     1
102
RTVSPost2010Prop29
280
     1
102
RTVSPost2010PropOp29
 70
     1
102
RTVSPost2010Prop30
280
     1
102
RTVSPost2010PropOp30
 70
     1
102
RTVSPost2010Prop31
280
     0
102
RTVSPost2010PropOp31
 70
     1
102
RTVSPost2010Prop32
280
     0
102
RTVSPost2010PropOp32
 70
     1
102
RTVSPost2010Prop33
280
     0
102
RTVSPost2010PropOp33
 70
     1
102
RTVSPost2010Prop34
280
     0
102
RTVSPost2010PropOp34
 70
     1
102
RTVSPost2010Prop35
280
     0
102
RTVSPost2010PropOp35
 70
     1
102
RTVSPost2010Prop36
280
     0
102
RTVSPost2010PropOp36
 70
     1
102
RTVSPost2010Prop37
 90
       50
102
RTVSPost2010PropOp37
 70
     1
102
RTVSPost2010Prop38
140
0.0
102
RTVSPost2010PropOp38
 70
     1
102
RTVSPost2010Prop39
140
1.0
102
RTVSPost2010PropOp39
 70
     1
102
RTVSPost2010Prop40
 90
        0
102
RTVSPost2010PropOp40
 70
     1
102
RTVSPost2010Prop41ColorIndex
 90
       18
102
RTVSPost2010Prop41ColorRGB
 90
        0
102
RTVSPost2010PropOp41
 70
     1
102
RTVSPost2010Prop42
 90
       50
102
RTVSPost2010PropOp42
 70
     1
102
RTVSPost2010Prop43
 90
        3
102
RTVSPost2010PropOp43
 70
     1
102
RTVSPost2010Prop44ColorIndex
 90
        5
102
RTVSPost2010Prop44ColorRGB
 90
      255
102
RTVSPost2010PropOp44
 70
     1
102
RTVSPost2010Prop45
280
     0
102
RTVSPost2010PropOp45
 70
     1
102
RTVSPost2010Prop46
 90
       50
102
RTVSPost2010PropOp46
 70
     1
102
RTVSPost2010Prop47
 90
       50
102
RTVSPost2010PropOp47
 70
     1
102
RTVSPost2010Prop48
 90
       50
102
RTVSPost2010PropOp48
 70
     1
102
RTVSPost2010Prop49
280
     0
102
RTVSPost2010PropOp49
 70
     1
102
RTVSPost2010Prop50
 90
       50
102
RTVSPost2010PropOp50
 70
     1
102
RTVSPost2010Prop51ColorIndex
 90
      256
102
RTVSPost2010Prop51ColorRGB
 90
-16777216
102
RTVSPost2010PropOp51
 70
     0
102
RTVSPost2010Prop52
140
1.0
102
RTVSPost2010PropOp52
 70
     0
102
RTVSPost2010Prop53
 90
        2
102
RTVSPost2010PropOp53
 70
     1
102
RTVSPost2010Prop54
  1
strokes_ogs.tif
102
RTVSPost2010PropOp54
 70
     1
102
RTVSPost2010Prop55
280
     0
102
RTVSPost2010PropOp55
 70
     1
102
RTVSPost2010Prop56
140
1.0
102
RTVSPost2010PropOp56
 70
     1
102
RTVSPost2010Prop57
140
1.0
102
RTVSPost2010PropOp57
 70
     1
  0
XRECORD
  5
A8
102
{ACAD_REACTORS
330
A7
102
}
330
A7
100
AcDbXrecord
280
     1
102
RTVSPropertyOp0
 70
     1
102
RTVSPropertyOp1
 70
     1
102
RTVSPropertyOp2
 70
     1
102
RTVSPropertyOp3
 70
     1
102
RTVSPropertyOp4
 70
     1
102
RTVSPropertyOp5
 70
     1
102
RTVSPropertyOp6
 70
     1
102
RTVSPropertyOp7
 70
     1
102
RTVSPropertyOp8
 70
     1
102
RTVSPropertyOp9
 70
     1
102
RTVSPropertyOp10
 70
     1
102
RTVSPropertyOp11
 70
     1
102
RTVSPropertyOp12
 70
     1
102
RTVSPropertyOp13
 70
     1
102
RTVSPropertyOp14
 70
     1
102
RTVSPropertyOp15
 70
     1
102
RTVSPropertyOp16
 70
     1
102
RTVSPropertyOp17
 70
     1
102
RTVSPropertyOp18
 70
     1
102
RTVSPropertyOp19
 70
     1
102
RTVSPropertyOp20
 70
     1
102
RTVSPropertyOp21
 70
     1
102
RTVSPropertyOp22
 70
     1
102
RTVSPropertyOp23
 70
     1
102
RTVSPropertyOp24
 70
     1
102
RTVSPropertyOp25
 70
     1
102
RTVSPropertyOp26
 70
     1
102
RTVSPropertyOp27
 70
     1
102
RTVSPropertyOp28
 70
     1
102
RTVSPropertyOp29
 70
     1
102
RTVSPropertyOp30
 70
     1
102
RTVSPropertyOp31
 70
     1
102
RTVSPropertyOp32
 70
     1
102
RTVSPropertyOp33
 70
     1
102
RTVSPropertyOp34
 70
     1
102
RTVSPropertyOp35
 70
     1
102
RTVSPropertyOp36
 70
     1
102
RTVSPropertyOp37
 70
     1
102
RTVSPropertyOp38
 70
     1
102
RTVSPropertyOp39
 70
     1
102
RTVSPropertyOp40
 70
     1
102
RTVSPropertyOp41
 70
     1
102
RTVSPropertyOp42
 70
     1
102
RTVSPropertyOp43
 70
     1
102
RTVSPropertyOp44
 70
     1
102
RTVSPropertyOp45
 70
     1
102
RTVSPropertyOp46
 70
     1
102
RTVSPropertyOp47
 70
     1
102
RTVSPropertyOp48
 70
     1
102
RTVSPropertyOp49
 70
     1
102
RTVSPropertyOp50
 70
     1
102
RTVSPropertyOp51
 70
     0
102
RTVSPropertyOp52
 70
     0
102
RTVSPropertyOp53
 70
     1
102
RTVSPropertyOp54
 70
     1
102
RTVSPropertyOp55
 70
     1
102
RTVSPropertyOp56
 70
     1
102
RTVSPropertyOp57
 70
     1
102
RTVSPost2010Prop28
280
     0
102
RTVSPost2010PropOp28
 70
     1
102
RTVSPost2010Prop29
280
     1
102
RTVSPost2010PropOp29
 70
     1
102
RTVSPost2010Prop30
280
     1
102
RTVSPost2010PropOp30
 70
     1
102
RTVSPost2010Prop31
280
     0
102
RTVSPost2010PropOp31
 70
     1
102
RTVSPost2010Prop32
280
     0
102
RTVSPost2010PropOp32
 70
     1
102
RTVSPost2010Prop33
280
     0
102
RTVSPost2010PropOp33
 70
     1
102
RTVSPost2010Prop34
280
     0
102
RTVSPost2010PropOp34
 70
     1
102
RTVSPost2010Prop35
280
     0
102
RTVSPost2010PropOp35
 70
     1
102
RTVSPost2010Prop36
280
     0
102
RTVSPost2010PropOp36
 70
     1
102
RTVSPost2010Prop37
 90
       50
102
RTVSPost2010PropOp37
 70
     1
102
RTVSPost2010Prop38
140
0.0
102
RTVSPost2010PropOp38
 70
     1
102
RTVSPost2010Prop39
140
1.0
102
RTVSPost2010PropOp39
 70
     1
102
RTVSPost2010Prop40
 90
        0
102
RTVSPost2010PropOp40
 70
     1
102
RTVSPost2010Prop41ColorIndex
 90
       18
102
RTVSPost2010Prop41ColorRGB
 90
        0
102
RTVSPost2010PropOp41
 70
     1
102
RTVSPost2010Prop42
 90
       50
102
RTVSPost2010PropOp42
 70
     1
102
RTVSPost2010Prop43
 90
        3
102
RTVSPost2010PropOp43
 70
     1
102
RTVSPost2010Prop44ColorIndex
 90
        5
102
RTVSPost2010Prop44ColorRGB
 90
      255
102
RTVSPost2010PropOp44
 70
     1
102
RTVSPost2010Prop45
280
     0
102
RTVSPost2010PropOp45
 70
     1
102
RTVSPost2010Prop46
 90
       50
102
RTVSPost2010PropOp46
 70
     1
102
RTVSPost2010Prop47
 90
       50
102
RTVSPost2010PropOp47
 70
     1
102
RTVSPost2010Prop48
 90
       50
102
RTVSPost2010PropOp48
 70
     1
102
RTVSPost2010Prop49
280
     0
102
RTVSPost2010PropOp49
 70
     1
102
RTVSPost2010Prop50
 90
       50
102
RTVSPost2010PropOp50
 70
     1
102
RTVSPost2010Prop51ColorIndex
 90
      256
102
RTVSPost2010Prop51ColorRGB
 90
-16777216
102
RTVSPost2010PropOp51
 70
     0
102
RTVSPost2010Prop52
140
1.0
102
RTVSPost2010PropOp52
 70
     0
102
RTVSPost2010Prop53
 90
        2
102
RTVSPost2010PropOp53
 70
     1
102
RTVSPost2010Prop54
  1
strokes_ogs.tif
102
RTVSPost2010PropOp54
 70
     1
102
RTVSPost2010Prop55
280
     0
102
RTVSPost2010PropOp55
 70
     1
102
RTVSPost2010Prop56
140
1.0
102
RTVSPost2010PropOp56
 70
     1
102
RTVSPost2010Prop57
140
1.0
102
RTVSPost2010PropOp57
 70
     1
  0
XRECORD
  5
B0
102
{ACAD_REACTORS
330
AF
102
}
330
AF
100
AcDbXrecord
280
     1
102
RTVSPropertyOp0
 70
     1
102
RTVSPropertyOp1
 70
     1
102
RTVSPropertyOp2
 70
     1
102
RTVSPropertyOp3
 70
     1
102
RTVSPropertyOp4
 70
     1
102
RTVSPropertyOp5
 70
     1
102
RTVSPropertyOp6
 70
     1
102
RTVSPropertyOp7
 70
     1
102
RTVSPropertyOp8
 70
     1
102
RTVSPropertyOp9
 70
     1
102
RTVSPropertyOp10
 70
     1
102
RTVSPropertyOp11
 70
     1
102
RTVSPropertyOp12
 70
     1
102
RTVSPropertyOp13
 70
     1
102
RTVSPropertyOp14
 70
     1
102
RTVSPropertyOp15
 70
     1
102
RTVSPropertyOp16
 70
     1
102
RTVSPropertyOp17
 70
     1
102
RTVSPropertyOp18
 70
     1
102
RTVSPropertyOp19
 70
     1
102
RTVSPropertyOp20
 70
     1
102
RTVSPropertyOp21
 70
     1
102
RTVSPropertyOp22
 70
     1
102
RTVSPropertyOp23
 70
     1
102
RTVSPropertyOp24
 70
     1
102
RTVSPropertyOp25
 70
     1
102
RTVSPropertyOp26
 70
     1
102
RTVSPropertyOp27
 70
     1
102
RTVSPropertyOp28
 70
     1
102
RTVSPropertyOp29
 70
     1
102
RTVSPropertyOp30
 70
     1
102
RTVSPropertyOp31
 70
     1
102
RTVSPropertyOp32
 70
     1
102
RTVSPropertyOp33
 70
     1
102
RTVSPropertyOp34
 70
     1
102
RTVSPropertyOp35
 70
     1
102
RTVSPropertyOp36
 70
     1
102
RTVSPropertyOp37
 70
     1
102
RTVSPropertyOp38
 70
     1
102
RTVSPropertyOp39
 70
     1
102
RTVSPropertyOp40
 70
     1
102
RTVSPropertyOp41
 70
     1
102
RTVSPropertyOp42
 70
     1
102
RTVSPropertyOp43
 70
     1
102
RTVSPropertyOp44
 70
     1
102
RTVSPropertyOp45
 70
     1
102
RTVSPropertyOp46
 70
     1
102
RTVSPropertyOp47
 70
     1
102
RTVSPropertyOp48
 70
     1
102
RTVSPropertyOp49
 70
     1
102
RTVSPropertyOp50
 70
     1
102
RTVSPropertyOp51
 70
     0
102
RTVSPropertyOp52
 70
     0
102
RTVSPropertyOp53
 70
     1
102
RTVSPropertyOp54
 70
     1
102
RTVSPropertyOp55
 70
     1
102
RTVSPropertyOp56
 70
     1
102
RTVSPropertyOp57
 70
     1
102
RTVSPost2010Prop28
280
     0
102
RTVSPost2010PropOp28
 70
     1
102
RTVSPost2010Prop29
280
     1
102
RTVSPost2010PropOp29
 70
     1
102
RTVSPost2010Prop30
280
     1
102
RTVSPost2010PropOp30
 70
     1
102
RTVSPost2010Prop31
280
     0
102
RTVSPost2010PropOp31
 70
     1
102
RTVSPost2010Prop32
280
     0
102
RTVSPost2010PropOp32
 70
     1
102
RTVSPost2010Prop33
280
     0
102
RTVSPost2010PropOp33
 70
     1
102
RTVSPost2010Prop34
280
     0
102
RTVSPost2010PropOp34
 70
     1
102
RTVSPost2010Prop35
280
     0
102
RTVSPost2010PropOp35
 70
     1
102
RTVSPost2010Prop36
280
     0
102
RTVSPost2010PropOp36
 70
     1
102
RTVSPost2010Prop37
 90
       50
102
RTVSPost2010PropOp37
 70
     1
102
RTVSPost2010Prop38
140
0.0
102
RTVSPost2010PropOp38
 70
     1
102
RTVSPost2010Prop39
140
1.0
102
RTVSPost2010PropOp39
 70
     1
102
RTVSPost2010Prop40
 90
        0
102
RTVSPost2010PropOp40
 70
     1
102
RTVSPost2010Prop41ColorIndex
 90
       18
102
RTVSPost2010Prop41ColorRGB
 90
        0
102
RTVSPost2010PropOp41
 70
     1
102
RTVSPost2010Prop42
 90
       50
102
RTVSPost2010PropOp42
 70
     1
102
RTVSPost2010Prop43
 90
        3
102
RTVSPost2010PropOp43
 70
     1
102
RTVSPost2010Prop44ColorIndex
 90
        5
102
RTVSPost2010Prop44ColorRGB
 90
      255
102
RTVSPost2010PropOp44
 70
     1
102
RTVSPost2010Prop45
280
     0
102
RTVSPost2010PropOp45
 70
     1
102
RTVSPost2010Prop46
 90
       50
102
RTVSPost2010PropOp46
 70
     1
102
RTVSPost2010Prop47
 90
       50
102
RTVSPost2010PropOp47
 70
     1
102
RTVSPost2010Prop48
 90
       50
102
RTVSPost2010PropOp48
 70
     1
102
RTVSPost2010Prop49
280
     0
102
RTVSPost2010PropOp49
 70
     1
102
RTVSPost2010Prop50
 90
       50
102
RTVSPost2010PropOp50
 70
     1
102
RTVSPost2010Prop51ColorIndex
 90
      256
102
RTVSPost2010Prop51ColorRGB
 90
-16777216
102
RTVSPost2010PropOp51
 70
     0
102
RTVSPost2010Prop52
140
1.0
102
RTVSPost2010PropOp52
 70
     0
102
RTVSPost2010Prop53
 90
        2
102
RTVSPost2010PropOp53
 70
     1
102
RTVSPost2010Prop54
  1
strokes_ogs.tif
102
RTVSPost2010PropOp54
 70
     1
102
RTVSPost2010Prop55
280
     0
102
RTVSPost2010PropOp55
 70
     1
102
RTVSPost2010Prop56
140
1.0
102
RTVSPost2010PropOp56
 70
     1
102
RTVSPost2010Prop57
140
1.0
102
RTVSPost2010PropOp57
 70
     1
  0
XRECORD
  5
A4
102
{ACAD_REACTORS
330
A3
102
}
330
A3
100
AcDbXrecord
280
     1
102
RTVSPropertyOp0
 70
     1
102
RTVSPropertyOp1
 70
     1
102
RTVSPropertyOp2
 70
     1
102
RTVSPropertyOp3
 70
     1
102
RTVSPropertyOp4
 70
     1
102
RTVSPropertyOp5
 70
     1
102
RTVSPropertyOp6
 70
     1
102
RTVSPropertyOp7
 70
     1
102
RTVSPropertyOp8
 70
     1
102
RTVSPropertyOp9
 70
     1
102
RTVSPropertyOp10
 70
     1
102
RTVSPropertyOp11
 70
     1
102
RTVSPropertyOp12
 70
     1
102
RTVSPropertyOp13
 70
     1
102
RTVSPropertyOp14
 70
     1
102
RTVSPropertyOp15
 70
     1
102
RTVSPropertyOp16
 70
     1
102
RTVSPropertyOp17
 70
     1
102
RTVSPropertyOp18
 70
     1
102
RTVSPropertyOp19
 70
     1
102
RTVSPropertyOp20
 70
     1
102
RTVSPropertyOp21
 70
     1
102
RTVSPropertyOp22
 70
     1
102
RTVSPropertyOp23
 70
     1
102
RTVSPropertyOp24
 70
     1
102
RTVSPropertyOp25
 70
     1
102
RTVSPropertyOp26
 70
     1
102
RTVSPropertyOp27
 70
     1
102
RTVSPropertyOp28
 70
     1
102
RTVSPropertyOp29
 70
     1
102
RTVSPropertyOp30
 70
     1
102
RTVSPropertyOp31
 70
     1
102
RTVSPropertyOp32
 70
     1
102
RTVSPropertyOp33
 70
     1
102
RTVSPropertyOp34
 70
     1
102
RTVSPropertyOp35
 70
     1
102
RTVSPropertyOp36
 70
     1
102
RTVSPropertyOp37
 70
     1
102
RTVSPropertyOp38
 70
     1
102
RTVSPropertyOp39
 70
     1
102
RTVSPropertyOp40
 70
     1
102
RTVSPropertyOp41
 70
     1
102
RTVSPropertyOp42
 70
     1
102
RTVSPropertyOp43
 70
     1
102
RTVSPropertyOp44
 70
     1
102
RTVSPropertyOp45
 70
     1
102
RTVSPropertyOp46
 70
     1
102
RTVSPropertyOp47
 70
     1
102
RTVSPropertyOp48
 70
     1
102
RTVSPropertyOp49
 70
     1
102
RTVSPropertyOp50
 70
     1
102
RTVSPropertyOp51
 70
     0
102
RTVSPropertyOp52
 70
     0
102
RTVSPropertyOp53
 70
     1
102
RTVSPropertyOp54
 70
     1
102
RTVSPropertyOp55
 70
     1
102
RTVSPropertyOp56
 70
     1
102
RTVSPropertyOp57
 70
     1
102
RTVSPost2010Prop28
280
     0
102
RTVSPost2010PropOp28
 70
     1
102
RTVSPost2010Prop29
280
     1
102
RTVSPost2010PropOp29
 70
     1
102
RTVSPost2010Prop30
280
     1
102
RTVSPost2010PropOp30
 70
     1
102
RTVSPost2010Prop31
280
     0
102
RTVSPost2010PropOp31
 70
     1
102
RTVSPost2010Prop32
280
     0
102
RTVSPost2010PropOp32
 70
     1
102
RTVSPost2010Prop33
280
     0
102
RTVSPost2010PropOp33
 70
     1
102
RTVSPost2010Prop34
280
     0
102
RTVSPost2010PropOp34
 70
     1
102
RTVSPost2010Prop35
280
     0
102
RTVSPost2010PropOp35
 70
     1
102
RTVSPost2010Prop36
280
     0
102
RTVSPost2010PropOp36
 70
     1
102
RTVSPost2010Prop37
 90
       50
102
RTVSPost2010PropOp37
 70
     1
102
RTVSPost2010Prop38
140
0.0
102
RTVSPost2010PropOp38
 70
     1
102
RTVSPost2010Prop39
140
1.0
102
RTVSPost2010PropOp39
 70
     1
102
RTVSPost2010Prop40
 90
        0
102
RTVSPost2010PropOp40
 70
     1
102
RTVSPost2010Prop41ColorIndex
 90
       18
102
RTVSPost2010Prop41ColorRGB
 90
        0
102
RTVSPost2010PropOp41
 70
     1
102
RTVSPost2010Prop42
 90
       50
102
RTVSPost2010PropOp42
 70
     1
102
RTVSPost2010Prop43
 90
        3
102
RTVSPost2010PropOp43
 70
     1
102
RTVSPost2010Prop44ColorIndex
 90
        5
102
RTVSPost2010Prop44ColorRGB
 90
      255
102
RTVSPost2010PropOp44
 70
     1
102
RTVSPost2010Prop45
280
     0
102
RTVSPost2010PropOp45
 70
     1
102
RTVSPost2010Prop46
 90
       50
102
RTVSPost2010PropOp46
 70
     1
102
RTVSPost2010Prop47
 90
       50
102
RTVSPost2010PropOp47
 70
     1
102
RTVSPost2010Prop48
 90
       50
102
RTVSPost2010PropOp48
 70
     1
102
RTVSPost2010Prop49
280
     0
102
RTVSPost2010PropOp49
 70
     1
102
RTVSPost2010Prop50
 90
       50
102
RTVSPost2010PropOp50
 70
     1
102
RTVSPost2010Prop51ColorIndex
 90
      256
102
RTVSPost2010Prop51ColorRGB
 90
-16777216
102
RTVSPost2010PropOp51
 70
     0
102
RTVSPost2010Prop52
140
1.0
102
RTVSPost2010PropOp52
 70
     0
102
RTVSPost2010Prop53
 90
        2
102
RTVSPost2010PropOp53
 70
     1
102
RTVSPost2010Prop54
  1
strokes_ogs.tif
102
RTVSPost2010PropOp54
 70
     1
102
RTVSPost2010Prop55
280
     0
102
RTVSPost2010PropOp55
 70
     1
102
RTVSPost2010Prop56
140
1.0
102
RTVSPost2010PropOp56
 70
     1
102
RTVSPost2010Prop57
140
1.0
102
RTVSPost2010PropOp57
 70
     1
  0
XRECORD
  5
A6
102
{ACAD_REACTORS
330
A5
102
}
330
A5
100
AcDbXrecord
280
     1
102
RTVSPropertyOp0
 70
     1
102
RTVSPropertyOp1
 70
     1
102
RTVSPropertyOp2
 70
     1
102
RTVSPropertyOp3
 70
     1
102
RTVSPropertyOp4
 70
     1
102
RTVSPropertyOp5
 70
     1
102
RTVSPropertyOp6
 70
     1
102
RTVSPropertyOp7
 70
     1
102
RTVSPropertyOp8
 70
     1
102
RTVSPropertyOp9
 70
     1
102
RTVSPropertyOp10
 70
     1
102
RTVSPropertyOp11
 70
     1
102
RTVSPropertyOp12
 70
     1
102
RTVSPropertyOp13
 70
     1
102
RTVSPropertyOp14
 70
     1
102
RTVSPropertyOp15
 70
     1
102
RTVSPropertyOp16
 70
     1
102
RTVSPropertyOp17
 70
     1
102
RTVSPropertyOp18
 70
     1
102
RTVSPropertyOp19
 70
     1
102
RTVSPropertyOp20
 70
     1
102
RTVSPropertyOp21
 70
     1
102
RTVSPropertyOp22
 70
     1
102
RTVSPropertyOp23
 70
     1
102
RTVSPropertyOp24
 70
     1
102
RTVSPropertyOp25
 70
     1
102
RTVSPropertyOp26
 70
     1
102
RTVSPropertyOp27
 70
     1
102
RTVSPropertyOp28
 70
     1
102
RTVSPropertyOp29
 70
     1
102
RTVSPropertyOp30
 70
     1
102
RTVSPropertyOp31
 70
     1
102
RTVSPropertyOp32
 70
     1
102
RTVSPropertyOp33
 70
     1
102
RTVSPropertyOp34
 70
     1
102
RTVSPropertyOp35
 70
     1
102
RTVSPropertyOp36
 70
     1
102
RTVSPropertyOp37
 70
     1
102
RTVSPropertyOp38
 70
     1
102
RTVSPropertyOp39
 70
     1
102
RTVSPropertyOp40
 70
     1
102
RTVSPropertyOp41
 70
     1
102
RTVSPropertyOp42
 70
     1
102
RTVSPropertyOp43
 70
     1
102
RTVSPropertyOp44
 70
     1
102
RTVSPropertyOp45
 70
     1
102
RTVSPropertyOp46
 70
     1
102
RTVSPropertyOp47
 70
     1
102
RTVSPropertyOp48
 70
     1
102
RTVSPropertyOp49
 70
     1
102
RTVSPropertyOp50
 70
     1
102
RTVSPropertyOp51
 70
     0
102
RTVSPropertyOp52
 70
     0
102
RTVSPropertyOp53
 70
     1
102
RTVSPropertyOp54
 70
     1
102
RTVSPropertyOp55
 70
     1
102
RTVSPropertyOp56
 70
     1
102
RTVSPropertyOp57
 70
     1
102
RTVSPost2010Prop28
280
     0
102
RTVSPost2010PropOp28
 70
     1
102
RTVSPost2010Prop29
280
     1
102
RTVSPost2010PropOp29
 70
     1
102
RTVSPost2010Prop30
280
     1
102
RTVSPost2010PropOp30
 70
     1
102
RTVSPost2010Prop31
280
     0
102
RTVSPost2010PropOp31
 70
     1
102
RTVSPost2010Prop32
280
     0
102
RTVSPost2010PropOp32
 70
     1
102
RTVSPost2010Prop33
280
     0
102
RTVSPost2010PropOp33
 70
     1
102
RTVSPost2010Prop34
280
     0
102
RTVSPost2010PropOp34
 70
     1
102
RTVSPost2010Prop35
280
     0
102
RTVSPost2010PropOp35
 70
     1
102
RTVSPost2010Prop36
280
     0
102
RTVSPost2010PropOp36
 70
     1
102
RTVSPost2010Prop37
 90
       50
102
RTVSPost2010PropOp37
 70
     1
102
RTVSPost2010Prop38
140
0.0
102
RTVSPost2010PropOp38
 70
     1
102
RTVSPost2010Prop39
140
1.0
102
RTVSPost2010PropOp39
 70
     1
102
RTVSPost2010Prop40
 90
        0
102
RTVSPost2010PropOp40
 70
     1
102
RTVSPost2010Prop41ColorIndex
 90
       18
102
RTVSPost2010Prop41ColorRGB
 90
        0
102
RTVSPost2010PropOp41
 70
     1
102
RTVSPost2010Prop42
 90
       50
102
RTVSPost2010PropOp42
 70
     1
102
RTVSPost2010Prop43
 90
        3
102
RTVSPost2010PropOp43
 70
     1
102
RTVSPost2010Prop44ColorIndex
 90
        5
102
RTVSPost2010Prop44ColorRGB
 90
      255
102
RTVSPost2010PropOp44
 70
     1
102
RTVSPost2010Prop45
280
     0
102
RTVSPost2010PropOp45
 70
     1
102
RTVSPost2010Prop46
 90
       50
102
RTVSPost2010PropOp46
 70
     1
102
RTVSPost2010Prop47
 90
       50
102
RTVSPost2010PropOp47
 70
     1
102
RTVSPost2010Prop48
 90
       50
102
RTVSPost2010PropOp48
 70
     1
102
RTVSPost2010Prop49
280
     0
102
RTVSPost2010PropOp49
 70
     1
102
RTVSPost2010Prop50
 90
       50
102
RTVSPost2010PropOp50
 70
     1
102
RTVSPost2010Prop51ColorIndex
 90
      256
102
RTVSPost2010Prop51ColorRGB
 90
-16777216
102
RTVSPost2010PropOp51
 70
     0
102
RTVSPost2010Prop52
140
1.0
102
RTVSPost2010PropOp52
 70
     0
102
RTVSPost2010Prop53
 90
        2
102
RTVSPost2010PropOp53
 70
     1
102
RTVSPost2010Prop54
  1
strokes_ogs.tif
102
RTVSPost2010PropOp54
 70
     1
102
RTVSPost2010Prop55
280
     0
102
RTVSPost2010PropOp55
 70
     1
102
RTVSPost2010Prop56
140
1.0
102
RTVSPost2010PropOp56
 70
     1
102
RTVSPost2010Prop57
140
1.0
102
RTVSPost2010PropOp57
 70
     1
  0
XRECORD
  5
B6
102
{ACAD_REACTORS
330
B5
102
}
330
B5
100
AcDbXrecord
280
     1
102
RTVSPropertyOp0
 70
     0
102
RTVSPropertyOp1
 70
     0
102
RTVSPropertyOp2
 70
     0
102
RTVSPropertyOp3
 70
     0
102
RTVSPropertyOp4
 70
     0
102
RTVSPropertyOp5
 70
     0
102
RTVSPropertyOp6
 70
     0
102
RTVSPropertyOp7
 70
     0
102
RTVSPropertyOp8
 70
     0
102
RTVSPropertyOp9
 70
     0
102
RTVSPropertyOp10
 70
     0
102
RTVSPropertyOp11
 70
     0
102
RTVSPropertyOp12
 70
     0
102
RTVSPropertyOp13
 70
     0
102
RTVSPropertyOp14
 70
     2
102
RTVSPropertyOp15
 70
     0
102
RTVSPropertyOp16
 70
     0
102
RTVSPropertyOp17
 70
     0
102
RTVSPropertyOp18
 70
     0
102
RTVSPropertyOp19
 70
     0
102
RTVSPropertyOp20
 70
     0
102
RTVSPropertyOp21
 70
     0
102
RTVSPropertyOp22
 70
     0
102
RTVSPropertyOp23
 70
     0
102
RTVSPropertyOp24
 70
     0
102
RTVSPropertyOp25
 70
     0
102
RTVSPropertyOp26
 70
     0
102
RTVSPropertyOp27
 70
     0
102
RTVSPropertyOp28
 70
     0
102
RTVSPropertyOp29
 70
     0
102
RTVSPropertyOp30
 70
     0
102
RTVSPropertyOp31
 70
     0
102
RTVSPropertyOp32
 70
     0
102
RTVSPropertyOp33
 70
     0
102
RTVSPropertyOp34
 70
     0
102
RTVSPropertyOp35
 70
     0
102
RTVSPropertyOp36
 70
     0
102
RTVSPropertyOp37
 70
     0
102
RTVSPropertyOp38
 70
     0
102
RTVSPropertyOp39
 70
     0
102
RTVSPropertyOp40
 70
     0
102
RTVSPropertyOp41
 70
     0
102
RTVSPropertyOp42
 70
     0
102
RTVSPropertyOp43
 70
     0
102
RTVSPropertyOp44
 70
     0
102
RTVSPropertyOp45
 70
     0
102
RTVSPropertyOp46
 70
     0
102
RTVSPropertyOp47
 70
     0
102
RTVSPropertyOp48
 70
     0
102
RTVSPropertyOp49
 70
     0
102
RTVSPropertyOp50
 70
     0
102
RTVSPropertyOp51
 70
     0
102
RTVSPropertyOp52
 70
     0
102
RTVSPropertyOp53
 70
     0
102
RTVSPropertyOp54
 70
     0
102
RTVSPropertyOp55
 70
     0
102
RTVSPropertyOp56
 70
     0
102
RTVSPropertyOp57
 70
     0
102
RTVSPost2010Prop28
280
     0
102
RTVSPost2010PropOp28
 70
     0
102
RTVSPost2010Prop29
280
     1
102
RTVSPost2010PropOp29
 70
     0
102
RTVSPost2010Prop30
280
     1
102
RTVSPost2010PropOp30
 70
     0
102
RTVSPost2010Prop31
280
     0
102
RTVSPost2010PropOp31
 70
     0
102
RTVSPost2010Prop32
280
     0
102
RTVSPost2010PropOp32
 70
     0
102
RTVSPost2010Prop33
280
     0
102
RTVSPost2010PropOp33
 70
     0
102
RTVSPost2010Prop34
280
     0
102
RTVSPost2010PropOp34
 70
     0
102
RTVSPost2010Prop35
280
     0
102
RTVSPost2010PropOp35
 70
     0
102
RTVSPost2010Prop36
280
     0
102
RTVSPost2010PropOp36
 70
     0
102
RTVSPost2010Prop37
 90
       50
102
RTVSPost2010PropOp37
 70
     0
102
RTVSPost2010Prop38
140
0.0
102
RTVSPost2010PropOp38
 70
     0
102
RTVSPost2010Prop39
140
1.0
102
RTVSPost2010PropOp39
 70
     0
102
RTVSPost2010Prop40
 90
        0
102
RTVSPost2010PropOp40
 70
     0
102
RTVSPost2010Prop41ColorIndex
 90
       18
102
RTVSPost2010Prop41ColorRGB
 90
        0
102
RTVSPost2010PropOp41
 70
     0
102
RTVSPost2010Prop42
 90
       50
102
RTVSPost2010PropOp42
 70
     0
102
RTVSPost2010Prop43
 90
        3
102
RTVSPost2010PropOp43
 70
     0
102
RTVSPost2010Prop44ColorIndex
 90
        5
102
RTVSPost2010Prop44ColorRGB
 90
      255
102
RTVSPost2010PropOp44
 70
     0
102
RTVSPost2010Prop45
280
     0
102
RTVSPost2010PropOp45
 70
     0
102
RTVSPost2010Prop46
 90
       50
102
RTVSPost2010PropOp46
 70
     0
102
RTVSPost2010Prop47
 90
       50
102
RTVSPost2010PropOp47
 70
     0
102
RTVSPost2010Prop48
 90
       50
102
RTVSPost2010PropOp48
 70
     0
102
RTVSPost2010Prop49
280
     0
102
RTVSPost2010PropOp49
 70
     0
102
RTVSPost2010Prop50
 90
       50
102
RTVSPost2010PropOp50
 70
     0
102
RTVSPost2010Prop51ColorIndex
 90
      256
102
RTVSPost2010Prop51ColorRGB
 90
-16777216
102
RTVSPost2010PropOp51
 70
     0
102
RTVSPost2010Prop52
140
1.0
102
RTVSPost2010PropOp52
 70
     0
102
RTVSPost2010Prop53
 90
        2
102
RTVSPost2010PropOp53
 70
     0
102
RTVSPost2010Prop54
  1
strokes_ogs.tif
102
RTVSPost2010PropOp54
 70
     0
102
RTVSPost2010Prop55
280
     0
102
RTVSPost2010PropOp55
 70
     0
102
RTVSPost2010Prop56
140
1.0
102
RTVSPost2010PropOp56
 70
     0
102
RTVSPost2010Prop57
140
1.0
102
RTVSPost2010PropOp57
 70
     0
  0
XRECORD
  5
AE
102
{ACAD_REACTORS
330
AD
102
}
330
AD
100
AcDbXrecord
280
     1
102
RTVSPropertyOp0
 70
     1
102
RTVSPropertyOp1
 70
     1
102
RTVSPropertyOp2
 70
     1
102
RTVSPropertyOp3
 70
     1
102
RTVSPropertyOp4
 70
     1
102
RTVSPropertyOp5
 70
     1
102
RTVSPropertyOp6
 70
     1
102
RTVSPropertyOp7
 70
     1
102
RTVSPropertyOp8
 70
     1
102
RTVSPropertyOp9
 70
     1
102
RTVSPropertyOp10
 70
     1
102
RTVSPropertyOp11
 70
     1
102
RTVSPropertyOp12
 70
     1
102
RTVSPropertyOp13
 70
     1
102
RTVSPropertyOp14
 70
     1
102
RTVSPropertyOp15
 70
     1
102
RTVSPropertyOp16
 70
     1
102
RTVSPropertyOp17
 70
     1
102
RTVSPropertyOp18
 70
     1
102
RTVSPropertyOp19
 70
     1
102
RTVSPropertyOp20
 70
     1
102
RTVSPropertyOp21
 70
     1
102
RTVSPropertyOp22
 70
     1
102
RTVSPropertyOp23
 70
     1
102
RTVSPropertyOp24
 70
     1
102
RTVSPropertyOp25
 70
     1
102
RTVSPropertyOp26
 70
     1
102
RTVSPropertyOp27
 70
     1
102
RTVSPropertyOp28
 70
     1
102
RTVSPropertyOp29
 70
     1
102
RTVSPropertyOp30
 70
     1
102
RTVSPropertyOp31
 70
     1
102
RTVSPropertyOp32
 70
     1
102
RTVSPropertyOp33
 70
     1
102
RTVSPropertyOp34
 70
     1
102
RTVSPropertyOp35
 70
     1
102
RTVSPropertyOp36
 70
     1
102
RTVSPropertyOp37
 70
     1
102
RTVSPropertyOp38
 70
     1
102
RTVSPropertyOp39
 70
     1
102
RTVSPropertyOp40
 70
     1
102
RTVSPropertyOp41
 70
     1
102
RTVSPropertyOp42
 70
     1
102
RTVSPropertyOp43
 70
     1
102
RTVSPropertyOp44
 70
     1
102
RTVSPropertyOp45
 70
     1
102
RTVSPropertyOp46
 70
     1
102
RTVSPropertyOp47
 70
     1
102
RTVSPropertyOp48
 70
     1
102
RTVSPropertyOp49
 70
     1
102
RTVSPropertyOp50
 70
     1
102
RTVSPropertyOp51
 70
     0
102
RTVSPropertyOp52
 70
     0
102
RTVSPropertyOp53
 70
     1
102
RTVSPropertyOp54
 70
     1
102
RTVSPropertyOp55
 70
     1
102
RTVSPropertyOp56
 70
     1
102
RTVSPropertyOp57
 70
     1
102
RTVSPost2010Prop28
280
     0
102
RTVSPost2010PropOp28
 70
     1
102
RTVSPost2010Prop29
280
     1
102
RTVSPost2010PropOp29
 70
     1
102
RTVSPost2010Prop30
280
     1
102
RTVSPost2010PropOp30
 70
     1
102
RTVSPost2010Prop31
280
     0
102
RTVSPost2010PropOp31
 70
     1
102
RTVSPost2010Prop32
280
     0
102
RTVSPost2010PropOp32
 70
     1
102
RTVSPost2010Prop33
280
     0
102
RTVSPost2010PropOp33
 70
     1
102
RTVSPost2010Prop34
280
     0
102
RTVSPost2010PropOp34
 70
     1
102
RTVSPost2010Prop35
280
     0
102
RTVSPost2010PropOp35
 70
     1
102
RTVSPost2010Prop36
280
     0
102
RTVSPost2010PropOp36
 70
     1
102
RTVSPost2010Prop37
 90
       50
102
RTVSPost2010PropOp37
 70
     1
102
RTVSPost2010Prop38
140
0.0
102
RTVSPost2010PropOp38
 70
     1
102
RTVSPost2010Prop39
140
1.0
102
RTVSPost2010PropOp39
 70
     1
102
RTVSPost2010Prop40
 90
        0
102
RTVSPost2010PropOp40
 70
     1
102
RTVSPost2010Prop41ColorIndex
 90
       18
102
RTVSPost2010Prop41ColorRGB
 90
        0
102
RTVSPost2010PropOp41
 70
     1
102
RTVSPost2010Prop42
 90
       50
102
RTVSPost2010PropOp42
 70
     1
102
RTVSPost2010Prop43
 90
        3
102
RTVSPost2010PropOp43
 70
     1
102
RTVSPost2010Prop44ColorIndex
 90
        5
102
RTVSPost2010Prop44ColorRGB
 90
      255
102
RTVSPost2010PropOp44
 70
     1
102
RTVSPost2010Prop45
280
     0
102
RTVSPost2010PropOp45
 70
     1
102
RTVSPost2010Prop46
 90
       50
102
RTVSPost2010PropOp46
 70
     1
102
RTVSPost2010Prop47
 90
       50
102
RTVSPost2010PropOp47
 70
     1
102
RTVSPost2010Prop48
 90
       50
102
RTVSPost2010PropOp48
 70
     1
102
RTVSPost2010Prop49
280
     0
102
RTVSPost2010PropOp49
 70
     1
102
RTVSPost2010Prop50
 90
       50
102
RTVSPost2010PropOp50
 70
     1
102
RTVSPost2010Prop51ColorIndex
 90
      256
102
RTVSPost2010Prop51ColorRGB
 90
-16777216
102
RTVSPost2010PropOp51
 70
     0
102
RTVSPost2010Prop52
140
1.0
102
RTVSPost2010PropOp52
 70
     0
102
RTVSPost2010Prop53
 90
        2
102
RTVSPost2010PropOp53
 70
     1
102
RTVSPost2010Prop54
  1
strokes_ogs.tif
102
RTVSPost2010PropOp54
 70
     1
102
RTVSPost2010Prop55
280
     0
102
RTVSPost2010PropOp55
 70
     1
102
RTVSPost2010Prop56
140
1.0
102
RTVSPost2010PropOp56
 70
     1
102
RTVSPost2010Prop57
140
1.0
102
RTVSPost2010PropOp57
 70
     1
  0
XRECORD
  5
92
102
{ACAD_REACTORS
330
91
102
}
330
91
100
AcDbXrecord
280
     1
102
RTVSPropertyOp0
 70
     1
102
RTVSPropertyOp1
 70
     1
102
RTVSPropertyOp2
 70
     1
102
RTVSPropertyOp3
 70
     1
102
RTVSPropertyOp4
 70
     1
102
RTVSPropertyOp5
 70
     1
102
RTVSPropertyOp6
 70
     1
102
RTVSPropertyOp7
 70
     1
102
RTVSPropertyOp8
 70
     1
102
RTVSPropertyOp9
 70
     1
102
RTVSPropertyOp10
 70
     1
102
RTVSPropertyOp11
 70
     1
102
RTVSPropertyOp12
 70
     1
102
RTVSPropertyOp13
 70
     1
102
RTVSPropertyOp14
 70
     1
102
RTVSPropertyOp15
 70
     1
102
RTVSPropertyOp16
 70
     1
102
RTVSPropertyOp17
 70
     1
102
RTVSPropertyOp18
 70
     1
102
RTVSPropertyOp19
 70
     1
102
RTVSPropertyOp20
 70
     1
102
RTVSPropertyOp21
 70
     1
102
RTVSPropertyOp22
 70
     1
102
RTVSPropertyOp23
 70
     1
102
RTVSPropertyOp24
 70
     1
102
RTVSPropertyOp25
 70
     1
102
RTVSPropertyOp26
 70
     1
102
RTVSPropertyOp27
 70
     1
102
RTVSPropertyOp28
 70
     1
102
RTVSPropertyOp29
 70
     1
102
RTVSPropertyOp30
 70
     1
102
RTVSPropertyOp31
 70
     1
102
RTVSPropertyOp32
 70
     1
102
RTVSPropertyOp33
 70
     1
102
RTVSPropertyOp34
 70
     1
102
RTVSPropertyOp35
 70
     1
102
RTVSPropertyOp36
 70
     1
102
RTVSPropertyOp37
 70
     1
102
RTVSPropertyOp38
 70
     1
102
RTVSPropertyOp39
 70
     1
102
RTVSPropertyOp40
 70
     1
102
RTVSPropertyOp41
 70
     1
102
RTVSPropertyOp42
 70
     1
102
RTVSPropertyOp43
 70
     1
102
RTVSPropertyOp44
 70
     1
102
RTVSPropertyOp45
 70
     1
102
RTVSPropertyOp46
 70
     1
102
RTVSPropertyOp47
 70
     1
102
RTVSPropertyOp48
 70
     1
102
RTVSPropertyOp49
 70
     1
102
RTVSPropertyOp50
 70
     1
102
RTVSPropertyOp51
 70
     0
102
RTVSPropertyOp52
 70
     0
102
RTVSPropertyOp53
 70
     1
102
RTVSPropertyOp54
 70
     1
102
RTVSPropertyOp55
 70
     1
102
RTVSPropertyOp56
 70
     1
102
RTVSPropertyOp57
 70
     1
102
RTVSPost2010Prop28
280
     0
102
RTVSPost2010PropOp28
 70
     1
102
RTVSPost2010Prop29
280
     1
102
RTVSPost2010PropOp29
 70
     1
102
RTVSPost2010Prop30
280
     1
102
RTVSPost2010PropOp30
 70
     1
102
RTVSPost2010Prop31
280
     0
102
RTVSPost2010PropOp31
 70
     1
102
RTVSPost2010Prop32
280
     0
102
RTVSPost2010PropOp32
 70
     1
102
RTVSPost2010Prop33
280
     0
102
RTVSPost2010PropOp33
 70
     1
102
RTVSPost2010Prop34
280
     0
102
RTVSPost2010PropOp34
 70
     1
102
RTVSPost2010Prop35
280
     0
102
RTVSPost2010PropOp35
 70
     1
102
RTVSPost2010Prop36
280
     0
102
RTVSPost2010PropOp36
 70
     1
102
RTVSPost2010Prop37
 90
       50
102
RTVSPost2010PropOp37
 70
     1
102
RTVSPost2010Prop38
140
0.0
102
RTVSPost2010PropOp38
 70
     1
102
RTVSPost2010Prop39
140
1.0
102
RTVSPost2010PropOp39
 70
     1
102
RTVSPost2010Prop40
 90
        0
102
RTVSPost2010PropOp40
 70
     1
102
RTVSPost2010Prop41ColorIndex
 90
       18
102
RTVSPost2010Prop41ColorRGB
 90
        0
102
RTVSPost2010PropOp41
 70
     1
102
RTVSPost2010Prop42
 90
       50
102
RTVSPost2010PropOp42
 70
     1
102
RTVSPost2010Prop43
 90
        3
102
RTVSPost2010PropOp43
 70
     1
102
RTVSPost2010Prop44ColorIndex
 90
        5
102
RTVSPost2010Prop44ColorRGB
 90
      255
102
RTVSPost2010PropOp44
 70
     1
102
RTVSPost2010Prop45
280
     0
102
RTVSPost2010PropOp45
 70
     1
102
RTVSPost2010Prop46
 90
       50
102
RTVSPost2010PropOp46
 70
     1
102
RTVSPost2010Prop47
 90
       50
102
RTVSPost2010PropOp47
 70
     1
102
RTVSPost2010Prop48
 90
       50
102
RTVSPost2010PropOp48
 70
     1
102
RTVSPost2010Prop49
280
     0
102
RTVSPost2010PropOp49
 70
     1
102
RTVSPost2010Prop50
 90
       50
102
RTVSPost2010PropOp50
 70
     1
102
RTVSPost2010Prop51ColorIndex
 90
      256
102
RTVSPost2010Prop51ColorRGB
 90
-16777216
102
RTVSPost2010PropOp51
 70
     0
102
RTVSPost2010Prop52
140
1.0
102
RTVSPost2010PropOp52
 70
     0
102
RTVSPost2010Prop53
 90
        2
102
RTVSPost2010PropOp53
 70
     1
102
RTVSPost2010Prop54
  1
strokes_ogs.tif
102
RTVSPost2010PropOp54
 70
     1
102
RTVSPost2010Prop55
280
     0
102
RTVSPost2010PropOp55
 70
     1
102
RTVSPost2010Prop56
140
1.0
102
RTVSPost2010PropOp56
 70
     1
102
RTVSPost2010Prop57
140
1.0
102
RTVSPost2010PropOp57
 70
     1
  0
XRECORD
  5
94
102
{ACAD_REACTORS
330
93
102
}
330
93
100
AcDbXrecord
280
     1
102
RTVSPropertyOp0
 70
     1
102
RTVSPropertyOp1
 70
     1
102
RTVSPropertyOp2
 70
     1
102
RTVSPropertyOp3
 70
     1
102
RTVSPropertyOp4
 70
     1
102
RTVSPropertyOp5
 70
     1
102
RTVSPropertyOp6
 70
     1
102
RTVSPropertyOp7
 70
     1
102
RTVSPropertyOp8
 70
     1
102
RTVSPropertyOp9
 70
     1
102
RTVSPropertyOp10
 70
     1
102
RTVSPropertyOp11
 70
     1
102
RTVSPropertyOp12
 70
     1
102
RTVSPropertyOp13
 70
     1
102
RTVSPropertyOp14
 70
     1
102
RTVSPropertyOp15
 70
     1
102
RTVSPropertyOp16
 70
     1
102
RTVSPropertyOp17
 70
     1
102
RTVSPropertyOp18
 70
     1
102
RTVSPropertyOp19
 70
     1
102
RTVSPropertyOp20
 70
     1
102
RTVSPropertyOp21
 70
     1
102
RTVSPropertyOp22
 70
     1
102
RTVSPropertyOp23
 70
     1
102
RTVSPropertyOp24
 70
     1
102
RTVSPropertyOp25
 70
     1
102
RTVSPropertyOp26
 70
     1
102
RTVSPropertyOp27
 70
     1
102
RTVSPropertyOp28
 70
     1
102
RTVSPropertyOp29
 70
     1
102
RTVSPropertyOp30
 70
     1
102
RTVSPropertyOp31
 70
     1
102
RTVSPropertyOp32
 70
     1
102
RTVSPropertyOp33
 70
     1
102
RTVSPropertyOp34
 70
     1
102
RTVSPropertyOp35
 70
     1
102
RTVSPropertyOp36
 70
     1
102
RTVSPropertyOp37
 70
     1
102
RTVSPropertyOp38
 70
     1
102
RTVSPropertyOp39
 70
     1
102
RTVSPropertyOp40
 70
     1
102
RTVSPropertyOp41
 70
     1
102
RTVSPropertyOp42
 70
     1
102
RTVSPropertyOp43
 70
     1
102
RTVSPropertyOp44
 70
     1
102
RTVSPropertyOp45
 70
     1
102
RTVSPropertyOp46
 70
     1
102
RTVSPropertyOp47
 70
     1
102
RTVSPropertyOp48
 70
     1
102
RTVSPropertyOp49
 70
     1
102
RTVSPropertyOp50
 70
     1
102
RTVSPropertyOp51
 70
     0
102
RTVSPropertyOp52
 70
     0
102
RTVSPropertyOp53
 70
     1
102
RTVSPropertyOp54
 70
     1
102
RTVSPropertyOp55
 70
     1
102
RTVSPropertyOp56
 70
     1
102
RTVSPropertyOp57
 70
     1
102
RTVSPost2010Prop28
280
     0
102
RTVSPost2010PropOp28
 70
     1
102
RTVSPost2010Prop29
280
     1
102
RTVSPost2010PropOp29
 70
     1
102
RTVSPost2010Prop30
280
     1
102
RTVSPost2010PropOp30
 70
     1
102
RTVSPost2010Prop31
280
     0
102
RTVSPost2010PropOp31
 70
     1
102
RTVSPost2010Prop32
280
     0
102
RTVSPost2010PropOp32
 70
     1
102
RTVSPost2010Prop33
280
     0
102
RTVSPost2010PropOp33
 70
     1
102
RTVSPost2010Prop34
280
     0
102
RTVSPost2010PropOp34
 70
     1
102
RTVSPost2010Prop35
280
     0
102
RTVSPost2010PropOp35
 70
     1
102
RTVSPost2010Prop36
280
     0
102
RTVSPost2010PropOp36
 70
     1
102
RTVSPost2010Prop37
 90
       50
102
RTVSPost2010PropOp37
 70
     1
102
RTVSPost2010Prop38
140
0.0
102
RTVSPost2010PropOp38
 70
     1
102
RTVSPost2010Prop39
140
1.0
102
RTVSPost2010PropOp39
 70
     1
102
RTVSPost2010Prop40
 90
        0
102
RTVSPost2010PropOp40
 70
     1
102
RTVSPost2010Prop41ColorIndex
 90
       18
102
RTVSPost2010Prop41ColorRGB
 90
        0
102
RTVSPost2010PropOp41
 70
     1
102
RTVSPost2010Prop42
 90
       50
102
RTVSPost2010PropOp42
 70
     1
102
RTVSPost2010Prop43
 90
        3
102
RTVSPost2010PropOp43
 70
     1
102
RTVSPost2010Prop44ColorIndex
 90
        5
102
RTVSPost2010Prop44ColorRGB
 90
      255
102
RTVSPost2010PropOp44
 70
     1
102
RTVSPost2010Prop45
280
     0
102
RTVSPost2010PropOp45
 70
     1
102
RTVSPost2010Prop46
 90
       50
102
RTVSPost2010PropOp46
 70
     1
102
RTVSPost2010Prop47
 90
       50
102
RTVSPost2010PropOp47
 70
     1
102
RTVSPost2010Prop48
 90
       50
102
RTVSPost2010PropOp48
 70
     1
102
RTVSPost2010Prop49
280
     0
102
RTVSPost2010PropOp49
 70
     1
102
RTVSPost2010Prop50
 90
       50
102
RTVSPost2010PropOp50
 70
     1
102
RTVSPost2010Prop51ColorIndex
 90
      256
102
RTVSPost2010Prop51ColorRGB
 90
-16777216
102
RTVSPost2010PropOp51
 70
     0
102
RTVSPost2010Prop52
140
1.0
102
RTVSPost2010PropOp52
 70
     0
102
RTVSPost2010Prop53
 90
        2
102
RTVSPost2010PropOp53
 70
     1
102
RTVSPost2010Prop54
  1
strokes_ogs.tif
102
RTVSPost2010PropOp54
 70
     1
102
RTVSPost2010Prop55
280
     0
102
RTVSPost2010PropOp55
 70
     1
102
RTVSPost2010Prop56
140
1.0
102
RTVSPost2010PropOp56
 70
     1
102
RTVSPost2010Prop57
140
1.0
102
RTVSPost2010PropOp57
 70
     1
  0
XRECORD
  5
96
102
{ACAD_REACTORS
330
95
102
}
330
95
100
AcDbXrecord
280
     1
102
RTVSPropertyOp0
 70
     1
102
RTVSPropertyOp1
 70
     1
102
RTVSPropertyOp2
 70
     1
102
RTVSPropertyOp3
 70
     1
102
RTVSPropertyOp4
 70
     1
102
RTVSPropertyOp5
 70
     1
102
RTVSPropertyOp6
 70
     1
102
RTVSPropertyOp7
 70
     1
102
RTVSPropertyOp8
 70
     1
102
RTVSPropertyOp9
 70
     1
102
RTVSPropertyOp10
 70
     1
102
RTVSPropertyOp11
 70
     1
102
RTVSPropertyOp12
 70
     1
102
RTVSPropertyOp13
 70
     1
102
RTVSPropertyOp14
 70
     1
102
RTVSPropertyOp15
 70
     1
102
RTVSPropertyOp16
 70
     1
102
RTVSPropertyOp17
 70
     1
102
RTVSPropertyOp18
 70
     1
102
RTVSPropertyOp19
 70
     1
102
RTVSPropertyOp20
 70
     1
102
RTVSPropertyOp21
 70
     1
102
RTVSPropertyOp22
 70
     1
102
RTVSPropertyOp23
 70
     1
102
RTVSPropertyOp24
 70
     1
102
RTVSPropertyOp25
 70
     1
102
RTVSPropertyOp26
 70
     1
102
RTVSPropertyOp27
 70
     1
102
RTVSPropertyOp28
 70
     1
102
RTVSPropertyOp29
 70
     1
102
RTVSPropertyOp30
 70
     1
102
RTVSPropertyOp31
 70
     1
102
RTVSPropertyOp32
 70
     1
102
RTVSPropertyOp33
 70
     1
102
RTVSPropertyOp34
 70
     1
102
RTVSPropertyOp35
 70
     1
102
RTVSPropertyOp36
 70
     1
102
RTVSPropertyOp37
 70
     1
102
RTVSPropertyOp38
 70
     1
102
RTVSPropertyOp39
 70
     1
102
RTVSPropertyOp40
 70
     1
102
RTVSPropertyOp41
 70
     1
102
RTVSPropertyOp42
 70
     1
102
RTVSPropertyOp43
 70
     1
102
RTVSPropertyOp44
 70
     1
102
RTVSPropertyOp45
 70
     1
102
RTVSPropertyOp46
 70
     1
102
RTVSPropertyOp47
 70
     1
102
RTVSPropertyOp48
 70
     1
102
RTVSPropertyOp49
 70
     1
102
RTVSPropertyOp50
 70
     1
102
RTVSPropertyOp51
 70
     0
102
RTVSPropertyOp52
 70
     0
102
RTVSPropertyOp53
 70
     1
102
RTVSPropertyOp54
 70
     1
102
RTVSPropertyOp55
 70
     1
102
RTVSPropertyOp56
 70
     1
102
RTVSPropertyOp57
 70
     1
102
RTVSPost2010Prop28
280
     0
102
RTVSPost2010PropOp28
 70
     1
102
RTVSPost2010Prop29
280
     1
102
RTVSPost2010PropOp29
 70
     1
102
RTVSPost2010Prop30
280
     1
102
RTVSPost2010PropOp30
 70
     1
102
RTVSPost2010Prop31
280
     0
102
RTVSPost2010PropOp31
 70
     1
102
RTVSPost2010Prop32
280
     0
102
RTVSPost2010PropOp32
 70
     1
102
RTVSPost2010Prop33
280
     0
102
RTVSPost2010PropOp33
 70
     1
102
RTVSPost2010Prop34
280
     0
102
RTVSPost2010PropOp34
 70
     1
102
RTVSPost2010Prop35
280
     0
102
RTVSPost2010PropOp35
 70
     1
102
RTVSPost2010Prop36
280
     0
102
RTVSPost2010PropOp36
 70
     1
102
RTVSPost2010Prop37
 90
       50
102
RTVSPost2010PropOp37
 70
     1
102
RTVSPost2010Prop38
140
0.0
102
RTVSPost2010PropOp38
 70
     1
102
RTVSPost2010Prop39
140
1.0
102
RTVSPost2010PropOp39
 70
     1
102
RTVSPost2010Prop40
 90
        0
102
RTVSPost2010PropOp40
 70
     1
102
RTVSPost2010Prop41ColorIndex
 90
       18
102
RTVSPost2010Prop41ColorRGB
 90
        0
102
RTVSPost2010PropOp41
 70
     1
102
RTVSPost2010Prop42
 90
       50
102
RTVSPost2010PropOp42
 70
     1
102
RTVSPost2010Prop43
 90
        3
102
RTVSPost2010PropOp43
 70
     1
102
RTVSPost2010Prop44ColorIndex
 90
        5
102
RTVSPost2010Prop44ColorRGB
 90
      255
102
RTVSPost2010PropOp44
 70
     1
102
RTVSPost2010Prop45
280
     0
102
RTVSPost2010PropOp45
 70
     1
102
RTVSPost2010Prop46
 90
       50
102
RTVSPost2010PropOp46
 70
     1
102
RTVSPost2010Prop47
 90
       50
102
RTVSPost2010PropOp47
 70
     1
102
RTVSPost2010Prop48
 90
       50
102
RTVSPost2010PropOp48
 70
     1
102
RTVSPost2010Prop49
280
     0
102
RTVSPost2010PropOp49
 70
     1
102
RTVSPost2010Prop50
 90
       50
102
RTVSPost2010PropOp50
 70
     1
102
RTVSPost2010Prop51ColorIndex
 90
      256
102
RTVSPost2010Prop51ColorRGB
 90
-16777216
102
RTVSPost2010PropOp51
 70
     0
102
RTVSPost2010Prop52
140
1.0
102
RTVSPost2010PropOp52
 70
     0
102
RTVSPost2010Prop53
 90
        2
102
RTVSPost2010PropOp53
 70
     1
102
RTVSPost2010Prop54
  1
strokes_ogs.tif
102
RTVSPost2010PropOp54
 70
     1
102
RTVSPost2010Prop55
280
     0
102
RTVSPost2010PropOp55
 70
     1
102
RTVSPost2010Prop56
140
1.0
102
RTVSPost2010PropOp56
 70
     1
102
RTVSPost2010Prop57
140
1.0
102
RTVSPost2010PropOp57
 70
     1
  0
XRECORD
  5
98
102
{ACAD_REACTORS
330
97
102
}
330
97
100
AcDbXrecord
280
     1
102
RTVSPropertyOp0
 70
     1
102
RTVSPropertyOp1
 70
     1
102
RTVSPropertyOp2
 70
     1
102
RTVSPropertyOp3
 70
     1
102
RTVSPropertyOp4
 70
     1
102
RTVSPropertyOp5
 70
     1
102
RTVSPropertyOp6
 70
     1
102
RTVSPropertyOp7
 70
     1
102
RTVSPropertyOp8
 70
     1
102
RTVSPropertyOp9
 70
     1
102
RTVSPropertyOp10
 70
     1
102
RTVSPropertyOp11
 70
     1
102
RTVSPropertyOp12
 70
     1
102
RTVSPropertyOp13
 70
     1
102
RTVSPropertyOp14
 70
     1
102
RTVSPropertyOp15
 70
     1
102
RTVSPropertyOp16
 70
     1
102
RTVSPropertyOp17
 70
     1
102
RTVSPropertyOp18
 70
     1
102
RTVSPropertyOp19
 70
     1
102
RTVSPropertyOp20
 70
     1
102
RTVSPropertyOp21
 70
     1
102
RTVSPropertyOp22
 70
     1
102
RTVSPropertyOp23
 70
     1
102
RTVSPropertyOp24
 70
     1
102
RTVSPropertyOp25
 70
     1
102
RTVSPropertyOp26
 70
     1
102
RTVSPropertyOp27
 70
     1
102
RTVSPropertyOp28
 70
     1
102
RTVSPropertyOp29
 70
     1
102
RTVSPropertyOp30
 70
     1
102
RTVSPropertyOp31
 70
     1
102
RTVSPropertyOp32
 70
     1
102
RTVSPropertyOp33
 70
     1
102
RTVSPropertyOp34
 70
     1
102
RTVSPropertyOp35
 70
     1
102
RTVSPropertyOp36
 70
     1
102
RTVSPropertyOp37
 70
     1
102
RTVSPropertyOp38
 70
     1
102
RTVSPropertyOp39
 70
     1
102
RTVSPropertyOp40
 70
     1
102
RTVSPropertyOp41
 70
     1
102
RTVSPropertyOp42
 70
     1
102
RTVSPropertyOp43
 70
     1
102
RTVSPropertyOp44
 70
     1
102
RTVSPropertyOp45
 70
     1
102
RTVSPropertyOp46
 70
     1
102
RTVSPropertyOp47
 70
     1
102
RTVSPropertyOp48
 70
     1
102
RTVSPropertyOp49
 70
     1
102
RTVSPropertyOp50
 70
     1
102
RTVSPropertyOp51
 70
     0
102
RTVSPropertyOp52
 70
     0
102
RTVSPropertyOp53
 70
     1
102
RTVSPropertyOp54
 70
     1
102
RTVSPropertyOp55
 70
     1
102
RTVSPropertyOp56
 70
     1
102
RTVSPropertyOp57
 70
     1
102
RTVSPost2010Prop28
280
     0
102
RTVSPost2010PropOp28
 70
     1
102
RTVSPost2010Prop29
280
     1
102
RTVSPost2010PropOp29
 70
     1
102
RTVSPost2010Prop30
280
     1
102
RTVSPost2010PropOp30
 70
     1
102
RTVSPost2010Prop31
280
     0
102
RTVSPost2010PropOp31
 70
     1
102
RTVSPost2010Prop32
280
     0
102
RTVSPost2010PropOp32
 70
     1
102
RTVSPost2010Prop33
280
     0
102
RTVSPost2010PropOp33
 70
     1
102
RTVSPost2010Prop34
280
     0
102
RTVSPost2010PropOp34
 70
     1
102
RTVSPost2010Prop35
280
     0
102
RTVSPost2010PropOp35
 70
     1
102
RTVSPost2010Prop36
280
     0
102
RTVSPost2010PropOp36
 70
     1
102
RTVSPost2010Prop37
 90
       50
102
RTVSPost2010PropOp37
 70
     1
102
RTVSPost2010Prop38
140
0.0
102
RTVSPost2010PropOp38
 70
     1
102
RTVSPost2010Prop39
140
1.0
102
RTVSPost2010PropOp39
 70
     1
102
RTVSPost2010Prop40
 90
        0
102
RTVSPost2010PropOp40
 70
     1
102
RTVSPost2010Prop41ColorIndex
 90
       18
102
RTVSPost2010Prop41ColorRGB
 90
        0
102
RTVSPost2010PropOp41
 70
     1
102
RTVSPost2010Prop42
 90
       50
102
RTVSPost2010PropOp42
 70
     1
102
RTVSPost2010Prop43
 90
        3
102
RTVSPost2010PropOp43
 70
     1
102
RTVSPost2010Prop44ColorIndex
 90
        5
102
RTVSPost2010Prop44ColorRGB
 90
      255
102
RTVSPost2010PropOp44
 70
     1
102
RTVSPost2010Prop45
280
     0
102
RTVSPost2010PropOp45
 70
     1
102
RTVSPost2010Prop46
 90
       50
102
RTVSPost2010PropOp46
 70
     1
102
RTVSPost2010Prop47
 90
       50
102
RTVSPost2010PropOp47
 70
     1
102
RTVSPost2010Prop48
 90
       50
102
RTVSPost2010PropOp48
 70
     1
102
RTVSPost2010Prop49
280
     0
102
RTVSPost2010PropOp49
 70
     1
102
RTVSPost2010Prop50
 90
       50
102
RTVSPost2010PropOp50
 70
     1
102
RTVSPost2010Prop51ColorIndex
 90
      256
102
RTVSPost2010Prop51ColorRGB
 90
-16777216
102
RTVSPost2010PropOp51
 70
     0
102
RTVSPost2010Prop52
140
1.0
102
RTVSPost2010PropOp52
 70
     0
102
RTVSPost2010Prop53
 90
        2
102
RTVSPost2010PropOp53
 70
     1
102
RTVSPost2010Prop54
  1
strokes_ogs.tif
102
RTVSPost2010PropOp54
 70
     1
102
RTVSPost2010Prop55
280
     0
102
RTVSPost2010PropOp55
 70
     1
102
RTVSPost2010Prop56
140
1.0
102
RTVSPost2010PropOp56
 70
     1
102
RTVSPost2010Prop57
140
1.0
102
RTVSPost2010PropOp57
 70
     1
  0
XRECORD
  5
9E
102
{ACAD_REACTORS
330
9D
102
}
330
9D
100
AcDbXrecord
280
     1
102
RTVSPropertyOp0
 70
     1
102
RTVSPropertyOp1
 70
     1
102
RTVSPropertyOp2
 70
     1
102
RTVSPropertyOp3
 70
     1
102
RTVSPropertyOp4
 70
     1
102
RTVSPropertyOp5
 70
     1
102
RTVSPropertyOp6
 70
     1
102
RTVSPropertyOp7
 70
     1
102
RTVSPropertyOp8
 70
     1
102
RTVSPropertyOp9
 70
     1
102
RTVSPropertyOp10
 70
     1
102
RTVSPropertyOp11
 70
     1
102
RTVSPropertyOp12
 70
     1
102
RTVSPropertyOp13
 70
     1
102
RTVSPropertyOp14
 70
     1
102
RTVSPropertyOp15
 70
     1
102
RTVSPropertyOp16
 70
     1
102
RTVSPropertyOp17
 70
     1
102
RTVSPropertyOp18
 70
     1
102
RTVSPropertyOp19
 70
     1
102
RTVSPropertyOp20
 70
     1
102
RTVSPropertyOp21
 70
     1
102
RTVSPropertyOp22
 70
     1
102
RTVSPropertyOp23
 70
     1
102
RTVSPropertyOp24
 70
     1
102
RTVSPropertyOp25
 70
     1
102
RTVSPropertyOp26
 70
     1
102
RTVSPropertyOp27
 70
     1
102
RTVSPropertyOp28
 70
     1
102
RTVSPropertyOp29
 70
     1
102
RTVSPropertyOp30
 70
     1
102
RTVSPropertyOp31
 70
     1
102
RTVSPropertyOp32
 70
     1
102
RTVSPropertyOp33
 70
     1
102
RTVSPropertyOp34
 70
     1
102
RTVSPropertyOp35
 70
     1
102
RTVSPropertyOp36
 70
     1
102
RTVSPropertyOp37
 70
     1
102
RTVSPropertyOp38
 70
     1
102
RTVSPropertyOp39
 70
     1
102
RTVSPropertyOp40
 70
     1
102
RTVSPropertyOp41
 70
     1
102
RTVSPropertyOp42
 70
     1
102
RTVSPropertyOp43
 70
     1
102
RTVSPropertyOp44
 70
     1
102
RTVSPropertyOp45
 70
     1
102
RTVSPropertyOp46
 70
     1
102
RTVSPropertyOp47
 70
     1
102
RTVSPropertyOp48
 70
     1
102
RTVSPropertyOp49
 70
     1
102
RTVSPropertyOp50
 70
     1
102
RTVSPropertyOp51
 70
     0
102
RTVSPropertyOp52
 70
     0
102
RTVSPropertyOp53
 70
     1
102
RTVSPropertyOp54
 70
     1
102
RTVSPropertyOp55
 70
     1
102
RTVSPropertyOp56
 70
     1
102
RTVSPropertyOp57
 70
     1
102
RTVSPost2010Prop28
280
     0
102
RTVSPost2010PropOp28
 70
     1
102
RTVSPost2010Prop29
280
     1
102
RTVSPost2010PropOp29
 70
     1
102
RTVSPost2010Prop30
280
     1
102
RTVSPost2010PropOp30
 70
     1
102
RTVSPost2010Prop31
280
     0
102
RTVSPost2010PropOp31
 70
     1
102
RTVSPost2010Prop32
280
     0
102
RTVSPost2010PropOp32
 70
     1
102
RTVSPost2010Prop33
280
     0
102
RTVSPost2010PropOp33
 70
     1
102
RTVSPost2010Prop34
280
     0
102
RTVSPost2010PropOp34
 70
     1
102
RTVSPost2010Prop35
280
     0
102
RTVSPost2010PropOp35
 70
     1
102
RTVSPost2010Prop36
280
     0
102
RTVSPost2010PropOp36
 70
     1
102
RTVSPost2010Prop37
 90
       50
102
RTVSPost2010PropOp37
 70
     1
102
RTVSPost2010Prop38
140
0.0
102
RTVSPost2010PropOp38
 70
     1
102
RTVSPost2010Prop39
140
1.0
102
RTVSPost2010PropOp39
 70
     1
102
RTVSPost2010Prop40
 90
        0
102
RTVSPost2010PropOp40
 70
     1
102
RTVSPost2010Prop41ColorIndex
 90
       18
102
RTVSPost2010Prop41ColorRGB
 90
        0
102
RTVSPost2010PropOp41
 70
     1
102
RTVSPost2010Prop42
 90
       50
102
RTVSPost2010PropOp42
 70
     1
102
RTVSPost2010Prop43
 90
        3
102
RTVSPost2010PropOp43
 70
     1
102
RTVSPost2010Prop44ColorIndex
 90
        5
102
RTVSPost2010Prop44ColorRGB
 90
      255
102
RTVSPost2010PropOp44
 70
     1
102
RTVSPost2010Prop45
280
     0
102
RTVSPost2010PropOp45
 70
     1
102
RTVSPost2010Prop46
 90
       50
102
RTVSPost2010PropOp46
 70
     1
102
RTVSPost2010Prop47
 90
       50
102
RTVSPost2010PropOp47
 70
     1
102
RTVSPost2010Prop48
 90
       50
102
RTVSPost2010PropOp48
 70
     1
102
RTVSPost2010Prop49
280
     0
102
RTVSPost2010PropOp49
 70
     1
102
RTVSPost2010Prop50
 90
       50
102
RTVSPost2010PropOp50
 70
     1
102
RTVSPost2010Prop51ColorIndex
 90
      256
102
RTVSPost2010Prop51ColorRGB
 90
-16777216
102
RTVSPost2010PropOp51
 70
     0
102
RTVSPost2010Prop52
140
1.0
102
RTVSPost2010PropOp52
 70
     0
102
RTVSPost2010Prop53
 90
        2
102
RTVSPost2010PropOp53
 70
     1
102
RTVSPost2010Prop54
  1
strokes_ogs.tif
102
RTVSPost2010PropOp54
 70
     1
102
RTVSPost2010Prop55
280
     0
102
RTVSPost2010PropOp55
 70
     1
102
RTVSPost2010Prop56
140
1.0
102
RTVSPost2010PropOp56
 70
     1
102
RTVSPost2010Prop57
140
1.0
102
RTVSPost2010PropOp57
 70
     1
  0
XRECORD
  5
B2
102
{ACAD_REACTORS
330
B1
102
}
330
B1
100
AcDbXrecord
280
     1
102
RTVSPropertyOp0
 70
     0
102
RTVSPropertyOp1
 70
     0
102
RTVSPropertyOp2
 70
     0
102
RTVSPropertyOp3
 70
     0
102
RTVSPropertyOp4
 70
     0
102
RTVSPropertyOp5
 70
     0
102
RTVSPropertyOp6
 70
     0
102
RTVSPropertyOp7
 70
     0
102
RTVSPropertyOp8
 70
     0
102
RTVSPropertyOp9
 70
     0
102
RTVSPropertyOp10
 70
     0
102
RTVSPropertyOp11
 70
     0
102
RTVSPropertyOp12
 70
     0
102
RTVSPropertyOp13
 70
     0
102
RTVSPropertyOp14
 70
     2
102
RTVSPropertyOp15
 70
     0
102
RTVSPropertyOp16
 70
     0
102
RTVSPropertyOp17
 70
     0
102
RTVSPropertyOp18
 70
     0
102
RTVSPropertyOp19
 70
     0
102
RTVSPropertyOp20
 70
     0
102
RTVSPropertyOp21
 70
     0
102
RTVSPropertyOp22
 70
     0
102
RTVSPropertyOp23
 70
     0
102
RTVSPropertyOp24
 70
     0
102
RTVSPropertyOp25
 70
     0
102
RTVSPropertyOp26
 70
     0
102
RTVSPropertyOp27
 70
     0
102
RTVSPropertyOp28
 70
     0
102
RTVSPropertyOp29
 70
     0
102
RTVSPropertyOp30
 70
     0
102
RTVSPropertyOp31
 70
     0
102
RTVSPropertyOp32
 70
     0
102
RTVSPropertyOp33
 70
     0
102
RTVSPropertyOp34
 70
     0
102
RTVSPropertyOp35
 70
     0
102
RTVSPropertyOp36
 70
     0
102
RTVSPropertyOp37
 70
     0
102
RTVSPropertyOp38
 70
     0
102
RTVSPropertyOp39
 70
     0
102
RTVSPropertyOp40
 70
     0
102
RTVSPropertyOp41
 70
     0
102
RTVSPropertyOp42
 70
     0
102
RTVSPropertyOp43
 70
     0
102
RTVSPropertyOp44
 70
     0
102
RTVSPropertyOp45
 70
     0
102
RTVSPropertyOp46
 70
     0
102
RTVSPropertyOp47
 70
     0
102
RTVSPropertyOp48
 70
     0
102
RTVSPropertyOp49
 70
     0
102
RTVSPropertyOp50
 70
     0
102
RTVSPropertyOp51
 70
     0
102
RTVSPropertyOp52
 70
     0
102
RTVSPropertyOp53
 70
     0
102
RTVSPropertyOp54
 70
     0
102
RTVSPropertyOp55
 70
     0
102
RTVSPropertyOp56
 70
     0
102
RTVSPropertyOp57
 70
     0
102
RTVSPost2010Prop28
280
     0
102
RTVSPost2010PropOp28
 70
     0
102
RTVSPost2010Prop29
280
     1
102
RTVSPost2010PropOp29
 70
     0
102
RTVSPost2010Prop30
280
     1
102
RTVSPost2010PropOp30
 70
     0
102
RTVSPost2010Prop31
280
     0
102
RTVSPost2010PropOp31
 70
     0
102
RTVSPost2010Prop32
280
     0
102
RTVSPost2010PropOp32
 70
     0
102
RTVSPost2010Prop33
280
     0
102
RTVSPost2010PropOp33
 70
     0
102
RTVSPost2010Prop34
280
     0
102
RTVSPost2010PropOp34
 70
     0
102
RTVSPost2010Prop35
280
     0
102
RTVSPost2010PropOp35
 70
     0
102
RTVSPost2010Prop36
280
     0
102
RTVSPost2010PropOp36
 70
     0
102
RTVSPost2010Prop37
 90
       50
102
RTVSPost2010PropOp37
 70
     0
102
RTVSPost2010Prop38
140
0.0
102
RTVSPost2010PropOp38
 70
     0
102
RTVSPost2010Prop39
140
1.0
102
RTVSPost2010PropOp39
 70
     0
102
RTVSPost2010Prop40
 90
        0
102
RTVSPost2010PropOp40
 70
     0
102
RTVSPost2010Prop41ColorIndex
 90
       18
102
RTVSPost2010Prop41ColorRGB
 90
        0
102
RTVSPost2010PropOp41
 70
     0
102
RTVSPost2010Prop42
 90
       50
102
RTVSPost2010PropOp42
 70
     0
102
RTVSPost2010Prop43
 90
        3
102
RTVSPost2010PropOp43
 70
     0
102
RTVSPost2010Prop44ColorIndex
 90
        5
102
RTVSPost2010Prop44ColorRGB
 90
      255
102
RTVSPost2010PropOp44
 70
     0
102
RTVSPost2010Prop45
280
     0
102
RTVSPost2010PropOp45
 70
     0
102
RTVSPost2010Prop46
 90
       50
102
RTVSPost2010PropOp46
 70
     0
102
RTVSPost2010Prop47
 90
       50
102
RTVSPost2010PropOp47
 70
     0
102
RTVSPost2010Prop48
 90
       50
102
RTVSPost2010PropOp48
 70
     0
102
RTVSPost2010Prop49
280
     0
102
RTVSPost2010PropOp49
 70
     0
102
RTVSPost2010Prop50
 90
       50
102
RTVSPost2010PropOp50
 70
     0
102
RTVSPost2010Prop51ColorIndex
 90
      256
102
RTVSPost2010Prop51ColorRGB
 90
-16777216
102
RTVSPost2010PropOp51
 70
     0
102
RTVSPost2010Prop52
140
1.0
102
RTVSPost2010PropOp52
 70
     0
102
RTVSPost2010Prop53
 90
        2
102
RTVSPost2010PropOp53
 70
     0
102
RTVSPost2010Prop54
  1
strokes_ogs.tif
102
RTVSPost2010PropOp54
 70
     0
102
RTVSPost2010Prop55
280
     0
102
RTVSPost2010PropOp55
 70
     0
102
RTVSPost2010Prop56
140
1.0
102
RTVSPost2010PropOp56
 70
     0
102
RTVSPost2010Prop57
140
1.0
102
RTVSPost2010PropOp57
 70
     0
  0
XRECORD
  5
AC
102
{ACAD_REACTORS
330
AB
102
}
330
AB
100
AcDbXrecord
280
     1
102
RTVSPropertyOp0
 70
     1
102
RTVSPropertyOp1
 70
     1
102
RTVSPropertyOp2
 70
     1
102
RTVSPropertyOp3
 70
     1
102
RTVSPropertyOp4
 70
     1
102
RTVSPropertyOp5
 70
     1
102
RTVSPropertyOp6
 70
     1
102
RTVSPropertyOp7
 70
     1
102
RTVSPropertyOp8
 70
     1
102
RTVSPropertyOp9
 70
     1
102
RTVSPropertyOp10
 70
     1
102
RTVSPropertyOp11
 70
     1
102
RTVSPropertyOp12
 70
     1
102
RTVSPropertyOp13
 70
     1
102
RTVSPropertyOp14
 70
     1
102
RTVSPropertyOp15
 70
     1
102
RTVSPropertyOp16
 70
     1
102
RTVSPropertyOp17
 70
     1
102
RTVSPropertyOp18
 70
     1
102
RTVSPropertyOp19
 70
     1
102
RTVSPropertyOp20
 70
     1
102
RTVSPropertyOp21
 70
     1
102
RTVSPropertyOp22
 70
     1
102
RTVSPropertyOp23
 70
     1
102
RTVSPropertyOp24
 70
     1
102
RTVSPropertyOp25
 70
     1
102
RTVSPropertyOp26
 70
     1
102
RTVSPropertyOp27
 70
     1
102
RTVSPropertyOp28
 70
     1
102
RTVSPropertyOp29
 70
     1
102
RTVSPropertyOp30
 70
     1
102
RTVSPropertyOp31
 70
     1
102
RTVSPropertyOp32
 70
     1
102
RTVSPropertyOp33
 70
     1
102
RTVSPropertyOp34
 70
     1
102
RTVSPropertyOp35
 70
     1
102
RTVSPropertyOp36
 70
     1
102
RTVSPropertyOp37
 70
     1
102
RTVSPropertyOp38
 70
     1
102
RTVSPropertyOp39
 70
     1
102
RTVSPropertyOp40
 70
     1
102
RTVSPropertyOp41
 70
     1
102
RTVSPropertyOp42
 70
     1
102
RTVSPropertyOp43
 70
     1
102
RTVSPropertyOp44
 70
     1
102
RTVSPropertyOp45
 70
     1
102
RTVSPropertyOp46
 70
     1
102
RTVSPropertyOp47
 70
     1
102
RTVSPropertyOp48
 70
     1
102
RTVSPropertyOp49
 70
     1
102
RTVSPropertyOp50
 70
     1
102
RTVSPropertyOp51
 70
     0
102
RTVSPropertyOp52
 70
     0
102
RTVSPropertyOp53
 70
     1
102
RTVSPropertyOp54
 70
     1
102
RTVSPropertyOp55
 70
     1
102
RTVSPropertyOp56
 70
     1
102
RTVSPropertyOp57
 70
     1
102
RTVSPost2010Prop28
280
     0
102
RTVSPost2010PropOp28
 70
     1
102
RTVSPost2010Prop29
280
     1
102
RTVSPost2010PropOp29
 70
     1
102
RTVSPost2010Prop30
280
     1
102
RTVSPost2010PropOp30
 70
     1
102
RTVSPost2010Prop31
280
     0
102
RTVSPost2010PropOp31
 70
     1
102
RTVSPost2010Prop32
280
     0
102
RTVSPost2010PropOp32
 70
     1
102
RTVSPost2010Prop33
280
     0
102
RTVSPost2010PropOp33
 70
     1
102
RTVSPost2010Prop34
280
     0
102
RTVSPost2010PropOp34
 70
     1
102
RTVSPost2010Prop35
280
     0
102
RTVSPost2010PropOp35
 70
     1
102
RTVSPost2010Prop36
280
     0
102
RTVSPost2010PropOp36
 70
     1
102
RTVSPost2010Prop37
 90
       50
102
RTVSPost2010PropOp37
 70
     1
102
RTVSPost2010Prop38
140
0.0
102
RTVSPost2010PropOp38
 70
     1
102
RTVSPost2010Prop39
140
1.0
102
RTVSPost2010PropOp39
 70
     1
102
RTVSPost2010Prop40
 90
        0
102
RTVSPost2010PropOp40
 70
     1
102
RTVSPost2010Prop41ColorIndex
 90
       18
102
RTVSPost2010Prop41ColorRGB
 90
        0
102
RTVSPost2010PropOp41
 70
     1
102
RTVSPost2010Prop42
 90
       50
102
RTVSPost2010PropOp42
 70
     1
102
RTVSPost2010Prop43
 90
        3
102
RTVSPost2010PropOp43
 70
     1
102
RTVSPost2010Prop44ColorIndex
 90
        5
102
RTVSPost2010Prop44ColorRGB
 90
      255
102
RTVSPost2010PropOp44
 70
     1
102
RTVSPost2010Prop45
280
     0
102
RTVSPost2010PropOp45
 70
     1
102
RTVSPost2010Prop46
 90
       50
102
RTVSPost2010PropOp46
 70
     1
102
RTVSPost2010Prop47
 90
       50
102
RTVSPost2010PropOp47
 70
     1
102
RTVSPost2010Prop48
 90
       50
102
RTVSPost2010PropOp48
 70
     1
102
RTVSPost2010Prop49
280
     0
102
RTVSPost2010PropOp49
 70
     1
102
RTVSPost2010Prop50
 90
       50
102
RTVSPost2010PropOp50
 70
     1
102
RTVSPost2010Prop51ColorIndex
 90
      256
102
RTVSPost2010Prop51ColorRGB
 90
-16777216
102
RTVSPost2010PropOp51
 70
     0
102
RTVSPost2010Prop52
140
1.0
102
RTVSPost2010PropOp52
 70
     0
102
RTVSPost2010Prop53
 90
        2
102
RTVSPost2010PropOp53
 70
     1
102
RTVSPost2010Prop54
  1
strokes_ogs.tif
102
RTVSPost2010PropOp54
 70
     1
102
RTVSPost2010Prop55
280
     0
102
RTVSPost2010PropOp55
 70
     1
102
RTVSPost2010Prop56
140
1.0
102
RTVSPost2010PropOp56
 70
     1
102
RTVSPost2010Prop57
140
1.0
102
RTVSPost2010PropOp57
 70
     1
  0
XRECORD
  5
B4
102
{ACAD_REACTORS
330
B3
102
}
330
B3
100
AcDbXrecord
280
     1
102
RTVSPropertyOp0
 70
     0
102
RTVSPropertyOp1
 70
     0
102
RTVSPropertyOp2
 70
     0
102
RTVSPropertyOp3
 70
     0
102
RTVSPropertyOp4
 70
     0
102
RTVSPropertyOp5
 70
     0
102
RTVSPropertyOp6
 70
     0
102
RTVSPropertyOp7
 70
     0
102
RTVSPropertyOp8
 70
     0
102
RTVSPropertyOp9
 70
     0
102
RTVSPropertyOp10
 70
     0
102
RTVSPropertyOp11
 70
     0
102
RTVSPropertyOp12
 70
     0
102
RTVSPropertyOp13
 70
     0
102
RTVSPropertyOp14
 70
     2
102
RTVSPropertyOp15
 70
     0
102
RTVSPropertyOp16
 70
     0
102
RTVSPropertyOp17
 70
     0
102
RTVSPropertyOp18
 70
     0
102
RTVSPropertyOp19
 70
     0
102
RTVSPropertyOp20
 70
     0
102
RTVSPropertyOp21
 70
     0
102
RTVSPropertyOp22
 70
     0
102
RTVSPropertyOp23
 70
     0
102
RTVSPropertyOp24
 70
     0
102
RTVSPropertyOp25
 70
     0
102
RTVSPropertyOp26
 70
     0
102
RTVSPropertyOp27
 70
     0
102
RTVSPropertyOp28
 70
     0
102
RTVSPropertyOp29
 70
     0
102
RTVSPropertyOp30
 70
     0
102
RTVSPropertyOp31
 70
     0
102
RTVSPropertyOp32
 70
     0
102
RTVSPropertyOp33
 70
     0
102
RTVSPropertyOp34
 70
     0
102
RTVSPropertyOp35
 70
     0
102
RTVSPropertyOp36
 70
     0
102
RTVSPropertyOp37
 70
     0
102
RTVSPropertyOp38
 70
     0
102
RTVSPropertyOp39
 70
     0
102
RTVSPropertyOp40
 70
     0
102
RTVSPropertyOp41
 70
     0
102
RTVSPropertyOp42
 70
     0
102
RTVSPropertyOp43
 70
     0
102
RTVSPropertyOp44
 70
     0
102
RTVSPropertyOp45
 70
     0
102
RTVSPropertyOp46
 70
     0
102
RTVSPropertyOp47
 70
     0
102
RTVSPropertyOp48
 70
     0
102
RTVSPropertyOp49
 70
     0
102
RTVSPropertyOp50
 70
     0
102
RTVSPropertyOp51
 70
     0
102
RTVSPropertyOp52
 70
     0
102
RTVSPropertyOp53
 70
     0
102
RTVSPropertyOp54
 70
     0
102
RTVSPropertyOp55
 70
     0
102
RTVSPropertyOp56
 70
     0
102
RTVSPropertyOp57
 70
     0
102
RTVSPost2010Prop28
280
     0
102
RTVSPost2010PropOp28
 70
     0
102
RTVSPost2010Prop29
280
     1
102
RTVSPost2010PropOp29
 70
     0
102
RTVSPost2010Prop30
280
     1
102
RTVSPost2010PropOp30
 70
     0
102
RTVSPost2010Prop31
280
     0
102
RTVSPost2010PropOp31
 70
     0
102
RTVSPost2010Prop32
280
     0
102
RTVSPost2010PropOp32
 70
     0
102
RTVSPost2010Prop33
280
     0
102
RTVSPost2010PropOp33
 70
     0
102
RTVSPost2010Prop34
280
     0
102
RTVSPost2010PropOp34
 70
     0
102
RTVSPost2010Prop35
280
     0
102
RTVSPost2010PropOp35
 70
     0
102
RTVSPost2010Prop36
280
     0
102
RTVSPost2010PropOp36
 70
     0
102
RTVSPost2010Prop37
 90
       50
102
RTVSPost2010PropOp37
 70
     0
102
RTVSPost2010Prop38
140
0.0
102
RTVSPost2010PropOp38
 70
     0
102
RTVSPost2010Prop39
140
1.0
102
RTVSPost2010PropOp39
 70
     0
102
RTVSPost2010Prop40
 90
        0
102
RTVSPost2010PropOp40
 70
     0
102
RTVSPost2010Prop41ColorIndex
 90
       18
102
RTVSPost2010Prop41ColorRGB
 90
        0
102
RTVSPost2010PropOp41
 70
     0
102
RTVSPost2010Prop42
 90
       50
102
RTVSPost2010PropOp42
 70
     0
102
RTVSPost2010Prop43
 90
        3
102
RTVSPost2010PropOp43
 70
     0
102
RTVSPost2010Prop44ColorIndex
 90
        5
102
RTVSPost2010Prop44ColorRGB
 90
      255
102
RTVSPost2010PropOp44
 70
     0
102
RTVSPost2010Prop45
280
     0
102
RTVSPost2010PropOp45
 70
     0
102
RTVSPost2010Prop46
 90
       50
102
RTVSPost2010PropOp46
 70
     0
102
RTVSPost2010Prop47
 90
       50
102
RTVSPost2010PropOp47
 70
     0
102
RTVSPost2010Prop48
 90
       50
102
RTVSPost2010PropOp48
 70
     0
102
RTVSPost2010Prop49
280
     0
102
RTVSPost2010PropOp49
 70
     0
102
RTVSPost2010Prop50
 90
       50
102
RTVSPost2010PropOp50
 70
     0
102
RTVSPost2010Prop51ColorIndex
 90
      256
102
RTVSPost2010Prop51ColorRGB
 90
-16777216
102
RTVSPost2010PropOp51
 70
     0
102
RTVSPost2010Prop52
140
1.0
102
RTVSPost2010PropOp52
 70
     0
102
RTVSPost2010Prop53
 90
        2
102
RTVSPost2010PropOp53
 70
     0
102
RTVSPost2010Prop54
  1
strokes_ogs.tif
102
RTVSPost2010PropOp54
 70
     0
102
RTVSPost2010Prop55
280
     0
102
RTVSPost2010PropOp55
 70
     0
102
RTVSPost2010Prop56
140
1.0
102
RTVSPost2010PropOp56
 70
     0
102
RTVSPost2010Prop57
140
1.0
102
RTVSPost2010PropOp57
 70
     0
  0
XRECORD
  5
A2
102
{ACAD_REACTORS
330
A1
102
}
330
A1
100
AcDbXrecord
280
     1
102
RTVSPropertyOp0
 70
     1
102
RTVSPropertyOp1
 70
     1
102
RTVSPropertyOp2
 70
     1
102
RTVSPropertyOp3
 70
     1
102
RTVSPropertyOp4
 70
     1
102
RTVSPropertyOp5
 70
     1
102
RTVSPropertyOp6
 70
     1
102
RTVSPropertyOp7
 70
     1
102
RTVSPropertyOp8
 70
     1
102
RTVSPropertyOp9
 70
     1
102
RTVSPropertyOp10
 70
     1
102
RTVSPropertyOp11
 70
     1
102
RTVSPropertyOp12
 70
     1
102
RTVSPropertyOp13
 70
     1
102
RTVSPropertyOp14
 70
     1
102
RTVSPropertyOp15
 70
     1
102
RTVSPropertyOp16
 70
     1
102
RTVSPropertyOp17
 70
     1
102
RTVSPropertyOp18
 70
     1
102
RTVSPropertyOp19
 70
     1
102
RTVSPropertyOp20
 70
     1
102
RTVSPropertyOp21
 70
     1
102
RTVSPropertyOp22
 70
     1
102
RTVSPropertyOp23
 70
     1
102
RTVSPropertyOp24
 70
     1
102
RTVSPropertyOp25
 70
     1
102
RTVSPropertyOp26
 70
     1
102
RTVSPropertyOp27
 70
     1
102
RTVSPropertyOp28
 70
     1
102
RTVSPropertyOp29
 70
     1
102
RTVSPropertyOp30
 70
     1
102
RTVSPropertyOp31
 70
     1
102
RTVSPropertyOp32
 70
     1
102
RTVSPropertyOp33
 70
     1
102
RTVSPropertyOp34
 70
     1
102
RTVSPropertyOp35
 70
     1
102
RTVSPropertyOp36
 70
     1
102
RTVSPropertyOp37
 70
     1
102
RTVSPropertyOp38
 70
     1
102
RTVSPropertyOp39
 70
     1
102
RTVSPropertyOp40
 70
     1
102
RTVSPropertyOp41
 70
     1
102
RTVSPropertyOp42
 70
     1
102
RTVSPropertyOp43
 70
     1
102
RTVSPropertyOp44
 70
     1
102
RTVSPropertyOp45
 70
     1
102
RTVSPropertyOp46
 70
     1
102
RTVSPropertyOp47
 70
     1
102
RTVSPropertyOp48
 70
     1
102
RTVSPropertyOp49
 70
     1
102
RTVSPropertyOp50
 70
     1
102
RTVSPropertyOp51
 70
     0
102
RTVSPropertyOp52
 70
     0
102
RTVSPropertyOp53
 70
     1
102
RTVSPropertyOp54
 70
     1
102
RTVSPropertyOp55
 70
     1
102
RTVSPropertyOp56
 70
     1
102
RTVSPropertyOp57
 70
     1
102
RTVSPost2010Prop28
280
     0
102
RTVSPost2010PropOp28
 70
     1
102
RTVSPost2010Prop29
280
     1
102
RTVSPost2010PropOp29
 70
     1
102
RTVSPost2010Prop30
280
     1
102
RTVSPost2010PropOp30
 70
     1
102
RTVSPost2010Prop31
280
     0
102
RTVSPost2010PropOp31
 70
     1
102
RTVSPost2010Prop32
280
     0
102
RTVSPost2010PropOp32
 70
     1
102
RTVSPost2010Prop33
280
     0
102
RTVSPost2010PropOp33
 70
     1
102
RTVSPost2010Prop34
280
     0
102
RTVSPost2010PropOp34
 70
     1
102
RTVSPost2010Prop35
280
     0
102
RTVSPost2010PropOp35
 70
     1
102
RTVSPost2010Prop36
280
     0
102
RTVSPost2010PropOp36
 70
     1
102
RTVSPost2010Prop37
 90
       50
102
RTVSPost2010PropOp37
 70
     1
102
RTVSPost2010Prop38
140
0.0
102
RTVSPost2010PropOp38
 70
     1
102
RTVSPost2010Prop39
140
1.0
102
RTVSPost2010PropOp39
 70
     1
102
RTVSPost2010Prop40
 90
        0
102
RTVSPost2010PropOp40
 70
     1
102
RTVSPost2010Prop41ColorIndex
 90
       18
102
RTVSPost2010Prop41ColorRGB
 90
        0
102
RTVSPost2010PropOp41
 70
     1
102
RTVSPost2010Prop42
 90
       50
102
RTVSPost2010PropOp42
 70
     1
102
RTVSPost2010Prop43
 90
        3
102
RTVSPost2010PropOp43
 70
     1
102
RTVSPost2010Prop44ColorIndex
 90
        5
102
RTVSPost2010Prop44ColorRGB
 90
      255
102
RTVSPost2010PropOp44
 70
     1
102
RTVSPost2010Prop45
280
     0
102
RTVSPost2010PropOp45
 70
     1
102
RTVSPost2010Prop46
 90
       50
102
RTVSPost2010PropOp46
 70
     1
102
RTVSPost2010Prop47
 90
       50
102
RTVSPost2010PropOp47
 70
     1
102
RTVSPost2010Prop48
 90
       50
102
RTVSPost2010PropOp48
 70
     1
102
RTVSPost2010Prop49
280
     0
102
RTVSPost2010PropOp49
 70
     1
102
RTVSPost2010Prop50
 90
       50
102
RTVSPost2010PropOp50
 70
     1
102
RTVSPost2010Prop51ColorIndex
 90
      256
102
RTVSPost2010Prop51ColorRGB
 90
-16777216
102
RTVSPost2010PropOp51
 70
     0
102
RTVSPost2010Prop52
140
1.0
102
RTVSPost2010PropOp52
 70
     0
102
RTVSPost2010Prop53
 90
        2
102
RTVSPost2010PropOp53
 70
     1
102
RTVSPost2010Prop54
  1
strokes_ogs.tif
102
RTVSPost2010PropOp54
 70
     1
102
RTVSPost2010Prop55
280
     0
102
RTVSPost2010PropOp55
 70
     1
102
RTVSPost2010Prop56
140
1.0
102
RTVSPost2010PropOp56
 70
     1
102
RTVSPost2010Prop57
140
1.0
102
RTVSPost2010PropOp57
 70
     1
  0
XRECORD
  5
C0
102
{ACAD_REACTORS
330
BF
102
}
330
BF
100
AcDbXrecord
280
     1
102
RTVSPropertyOp0
 70
     1
102
RTVSPropertyOp1
 70
     1
102
RTVSPropertyOp2
 70
     1
102
RTVSPropertyOp3
 70
     1
102
RTVSPropertyOp4
 70
     1
102
RTVSPropertyOp5
 70
     1
102
RTVSPropertyOp6
 70
     1
102
RTVSPropertyOp7
 70
     1
102
RTVSPropertyOp8
 70
     1
102
RTVSPropertyOp9
 70
     1
102
RTVSPropertyOp10
 70
     1
102
RTVSPropertyOp11
 70
     1
102
RTVSPropertyOp12
 70
     1
102
RTVSPropertyOp13
 70
     1
102
RTVSPropertyOp14
 70
     1
102
RTVSPropertyOp15
 70
     1
102
RTVSPropertyOp16
 70
     1
102
RTVSPropertyOp17
 70
     1
102
RTVSPropertyOp18
 70
     1
102
RTVSPropertyOp19
 70
     1
102
RTVSPropertyOp20
 70
     1
102
RTVSPropertyOp21
 70
     1
102
RTVSPropertyOp22
 70
     1
102
RTVSPropertyOp23
 70
     1
102
RTVSPropertyOp24
 70
     1
102
RTVSPropertyOp25
 70
     1
102
RTVSPropertyOp26
 70
     1
102
RTVSPropertyOp27
 70
     1
102
RTVSPropertyOp28
 70
     1
102
RTVSPropertyOp29
 70
     1
102
RTVSPropertyOp30
 70
     1
102
RTVSPropertyOp31
 70
     1
102
RTVSPropertyOp32
 70
     1
102
RTVSPropertyOp33
 70
     1
102
RTVSPropertyOp34
 70
     1
102
RTVSPropertyOp35
 70
     1
102
RTVSPropertyOp36
 70
     1
102
RTVSPropertyOp37
 70
     1
102
RTVSPropertyOp38
 70
     1
102
RTVSPropertyOp39
 70
     1
102
RTVSPropertyOp40
 70
     1
102
RTVSPropertyOp41
 70
     1
102
RTVSPropertyOp42
 70
     1
102
RTVSPropertyOp43
 70
     1
102
RTVSPropertyOp44
 70
     1
102
RTVSPropertyOp45
 70
     1
102
RTVSPropertyOp46
 70
     1
102
RTVSPropertyOp47
 70
     1
102
RTVSPropertyOp48
 70
     1
102
RTVSPropertyOp49
 70
     1
102
RTVSPropertyOp50
 70
     1
102
RTVSPropertyOp51
 70
     0
102
RTVSPropertyOp52
 70
     0
102
RTVSPropertyOp53
 70
     1
102
RTVSPropertyOp54
 70
     1
102
RTVSPropertyOp55
 70
     1
102
RTVSPropertyOp56
 70
     1
102
RTVSPropertyOp57
 70
     1
102
RTVSPost2010Prop28
280
     0
102
RTVSPost2010PropOp28
 70
     1
102
RTVSPost2010Prop29
280
     1
102
RTVSPost2010PropOp29
 70
     1
102
RTVSPost2010Prop30
280
     1
102
RTVSPost2010PropOp30
 70
     1
102
RTVSPost2010Prop31
280
     0
102
RTVSPost2010PropOp31
 70
     1
102
RTVSPost2010Prop32
280
     0
102
RTVSPost2010PropOp32
 70
     1
102
RTVSPost2010Prop33
280
     0
102
RTVSPost2010PropOp33
 70
     1
102
RTVSPost2010Prop34
280
     0
102
RTVSPost2010PropOp34
 70
     1
102
RTVSPost2010Prop35
280
     0
102
RTVSPost2010PropOp35
 70
     1
102
RTVSPost2010Prop36
280
     0
102
RTVSPost2010PropOp36
 70
     1
102
RTVSPost2010Prop37
 90
       50
102
RTVSPost2010PropOp37
 70
     1
102
RTVSPost2010Prop38
140
0.0
102
RTVSPost2010PropOp38
 70
     1
102
RTVSPost2010Prop39
140
1.0
102
RTVSPost2010PropOp39
 70
     1
102
RTVSPost2010Prop40
 90
        0
102
RTVSPost2010PropOp40
 70
     1
102
RTVSPost2010Prop41ColorIndex
 90
       18
102
RTVSPost2010Prop41ColorRGB
 90
        0
102
RTVSPost2010PropOp41
 70
     1
102
RTVSPost2010Prop42
 90
       50
102
RTVSPost2010PropOp42
 70
     1
102
RTVSPost2010Prop43
 90
        3
102
RTVSPost2010PropOp43
 70
     1
102
RTVSPost2010Prop44ColorIndex
 90
        5
102
RTVSPost2010Prop44ColorRGB
 90
      255
102
RTVSPost2010PropOp44
 70
     1
102
RTVSPost2010Prop45
280
     0
102
RTVSPost2010PropOp45
 70
     1
102
RTVSPost2010Prop46
 90
       50
102
RTVSPost2010PropOp46
 70
     1
102
RTVSPost2010Prop47
 90
       50
102
RTVSPost2010PropOp47
 70
     1
102
RTVSPost2010Prop48
 90
       50
102
RTVSPost2010PropOp48
 70
     1
102
RTVSPost2010Prop49
280
     0
102
RTVSPost2010PropOp49
 70
     1
102
RTVSPost2010Prop50
 90
       50
102
RTVSPost2010PropOp50
 70
     1
102
RTVSPost2010Prop51ColorIndex
 90
      256
102
RTVSPost2010Prop51ColorRGB
 90
-16777216
102
RTVSPost2010PropOp51
 70
     0
102
RTVSPost2010Prop52
140
1.0
102
RTVSPost2010PropOp52
 70
     0
102
RTVSPost2010Prop53
 90
        2
102
RTVSPost2010PropOp53
 70
     1
102
RTVSPost2010Prop54
  1
strokes_ogs.tif
102
RTVSPost2010PropOp54
 70
     1
102
RTVSPost2010Prop55
280
     0
102
RTVSPost2010PropOp55
 70
     1
102
RTVSPost2010Prop56
140
1.0
102
RTVSPost2010PropOp56
 70
     1
102
RTVSPost2010Prop57
140
1.0
102
RTVSPost2010PropOp57
 70
     1
  0
XRECORD
  5
BE
102
{ACAD_REACTORS
330
BD
102
}
330
BD
100
AcDbXrecord
280
     1
102
RTVSPropertyOp0
 70
     1
102
RTVSPropertyOp1
 70
     1
102
RTVSPropertyOp2
 70
     1
102
RTVSPropertyOp3
 70
     1
102
RTVSPropertyOp4
 70
     1
102
RTVSPropertyOp5
 70
     1
102
RTVSPropertyOp6
 70
     1
102
RTVSPropertyOp7
 70
     1
102
RTVSPropertyOp8
 70
     1
102
RTVSPropertyOp9
 70
     1
102
RTVSPropertyOp10
 70
     1
102
RTVSPropertyOp11
 70
     1
102
RTVSPropertyOp12
 70
     1
102
RTVSPropertyOp13
 70
     1
102
RTVSPropertyOp14
 70
     1
102
RTVSPropertyOp15
 70
     1
102
RTVSPropertyOp16
 70
     1
102
RTVSPropertyOp17
 70
     1
102
RTVSPropertyOp18
 70
     1
102
RTVSPropertyOp19
 70
     1
102
RTVSPropertyOp20
 70
     1
102
RTVSPropertyOp21
 70
     1
102
RTVSPropertyOp22
 70
     1
102
RTVSPropertyOp23
 70
     1
102
RTVSPropertyOp24
 70
     1
102
RTVSPropertyOp25
 70
     1
102
RTVSPropertyOp26
 70
     1
102
RTVSPropertyOp27
 70
     1
102
RTVSPropertyOp28
 70
     1
102
RTVSPropertyOp29
 70
     1
102
RTVSPropertyOp30
 70
     1
102
RTVSPropertyOp31
 70
     1
102
RTVSPropertyOp32
 70
     1
102
RTVSPropertyOp33
 70
     1
102
RTVSPropertyOp34
 70
     1
102
RTVSPropertyOp35
 70
     1
102
RTVSPropertyOp36
 70
     1
102
RTVSPropertyOp37
 70
     1
102
RTVSPropertyOp38
 70
     1
102
RTVSPropertyOp39
 70
     1
102
RTVSPropertyOp40
 70
     1
102
RTVSPropertyOp41
 70
     1
102
RTVSPropertyOp42
 70
     1
102
RTVSPropertyOp43
 70
     1
102
RTVSPropertyOp44
 70
     1
102
RTVSPropertyOp45
 70
     1
102
RTVSPropertyOp46
 70
     1
102
RTVSPropertyOp47
 70
     1
102
RTVSPropertyOp48
 70
     1
102
RTVSPropertyOp49
 70
     1
102
RTVSPropertyOp50
 70
     1
102
RTVSPropertyOp51
 70
     0
102
RTVSPropertyOp52
 70
     0
102
RTVSPropertyOp53
 70
     1
102
RTVSPropertyOp54
 70
     1
102
RTVSPropertyOp55
 70
     1
102
RTVSPropertyOp56
 70
     1
102
RTVSPropertyOp57
 70
     1
102
RTVSPost2010Prop28
280
     0
102
RTVSPost2010PropOp28
 70
     1
102
RTVSPost2010Prop29
280
     1
102
RTVSPost2010PropOp29
 70
     1
102
RTVSPost2010Prop30
280
     1
102
RTVSPost2010PropOp30
 70
     1
102
RTVSPost2010Prop31
280
     0
102
RTVSPost2010PropOp31
 70
     1
102
RTVSPost2010Prop32
280
     0
102
RTVSPost2010PropOp32
 70
     1
102
RTVSPost2010Prop33
280
     0
102
RTVSPost2010PropOp33
 70
     1
102
RTVSPost2010Prop34
280
     0
102
RTVSPost2010PropOp34
 70
     1
102
RTVSPost2010Prop35
280
     0
102
RTVSPost2010PropOp35
 70
     1
102
RTVSPost2010Prop36
280
     0
102
RTVSPost2010PropOp36
 70
     1
102
RTVSPost2010Prop37
 90
       50
102
RTVSPost2010PropOp37
 70
     1
102
RTVSPost2010Prop38
140
0.0
102
RTVSPost2010PropOp38
 70
     1
102
RTVSPost2010Prop39
140
1.0
102
RTVSPost2010PropOp39
 70
     1
102
RTVSPost2010Prop40
 90
        0
102
RTVSPost2010PropOp40
 70
     1
102
RTVSPost2010Prop41ColorIndex
 90
       18
102
RTVSPost2010Prop41ColorRGB
 90
        0
102
RTVSPost2010PropOp41
 70
     1
102
RTVSPost2010Prop42
 90
       50
102
RTVSPost2010PropOp42
 70
     1
102
RTVSPost2010Prop43
 90
        3
102
RTVSPost2010PropOp43
 70
     1
102
RTVSPost2010Prop44ColorIndex
 90
        5
102
RTVSPost2010Prop44ColorRGB
 90
      255
102
RTVSPost2010PropOp44
 70
     1
102
RTVSPost2010Prop45
280
     0
102
RTVSPost2010PropOp45
 70
     1
102
RTVSPost2010Prop46
 90
       50
102
RTVSPost2010PropOp46
 70
     1
102
RTVSPost2010Prop47
 90
       50
102
RTVSPost2010PropOp47
 70
     1
102
RTVSPost2010Prop48
 90
       50
102
RTVSPost2010PropOp48
 70
     1
102
RTVSPost2010Prop49
280
     0
102
RTVSPost2010PropOp49
 70
     1
102
RTVSPost2010Prop50
 90
       50
102
RTVSPost2010PropOp50
 70
     1
102
RTVSPost2010Prop51ColorIndex
 90
      256
102
RTVSPost2010Prop51ColorRGB
 90
-16777216
102
RTVSPost2010PropOp51
 70
     0
102
RTVSPost2010Prop52
140
1.0
102
RTVSPost2010PropOp52
 70
     0
102
RTVSPost2010Prop53
 90
        2
102
RTVSPost2010PropOp53
 70
     1
102
RTVSPost2010Prop54
  1
strokes_ogs.tif
102
RTVSPost2010PropOp54
 70
     1
102
RTVSPost2010Prop55
280
     0
102
RTVSPost2010PropOp55
 70
     1
102
RTVSPost2010Prop56
140
1.0
102
RTVSPost2010PropOp56
 70
     1
102
RTVSPost2010Prop57
140
1.0
102
RTVSPost2010PropOp57
 70
     1
  0
XRECORD
  5
B8
102
{ACAD_REACTORS
330
B7
102
}
330
B7
100
AcDbXrecord
280
     1
102
RTVSPropertyOp0
 70
     1
102
RTVSPropertyOp1
 70
     1
102
RTVSPropertyOp2
 70
     1
102
RTVSPropertyOp3
 70
     1
102
RTVSPropertyOp4
 70
     1
102
RTVSPropertyOp5
 70
     1
102
RTVSPropertyOp6
 70
     1
102
RTVSPropertyOp7
 70
     1
102
RTVSPropertyOp8
 70
     1
102
RTVSPropertyOp9
 70
     1
102
RTVSPropertyOp10
 70
     1
102
RTVSPropertyOp11
 70
     1
102
RTVSPropertyOp12
 70
     1
102
RTVSPropertyOp13
 70
     1
102
RTVSPropertyOp14
 70
     1
102
RTVSPropertyOp15
 70
     1
102
RTVSPropertyOp16
 70
     1
102
RTVSPropertyOp17
 70
     1
102
RTVSPropertyOp18
 70
     1
102
RTVSPropertyOp19
 70
     1
102
RTVSPropertyOp20
 70
     1
102
RTVSPropertyOp21
 70
     1
102
RTVSPropertyOp22
 70
     1
102
RTVSPropertyOp23
 70
     1
102
RTVSPropertyOp24
 70
     1
102
RTVSPropertyOp25
 70
     1
102
RTVSPropertyOp26
 70
     1
102
RTVSPropertyOp27
 70
     1
102
RTVSPropertyOp28
 70
     1
102
RTVSPropertyOp29
 70
     1
102
RTVSPropertyOp30
 70
     1
102
RTVSPropertyOp31
 70
     1
102
RTVSPropertyOp32
 70
     1
102
RTVSPropertyOp33
 70
     1
102
RTVSPropertyOp34
 70
     1
102
RTVSPropertyOp35
 70
     1
102
RTVSPropertyOp36
 70
     1
102
RTVSPropertyOp37
 70
     1
102
RTVSPropertyOp38
 70
     1
102
RTVSPropertyOp39
 70
     1
102
RTVSPropertyOp40
 70
     1
102
RTVSPropertyOp41
 70
     1
102
RTVSPropertyOp42
 70
     1
102
RTVSPropertyOp43
 70
     1
102
RTVSPropertyOp44
 70
     1
102
RTVSPropertyOp45
 70
     1
102
RTVSPropertyOp46
 70
     1
102
RTVSPropertyOp47
 70
     1
102
RTVSPropertyOp48
 70
     1
102
RTVSPropertyOp49
 70
     1
102
RTVSPropertyOp50
 70
     1
102
RTVSPropertyOp51
 70
     0
102
RTVSPropertyOp52
 70
     0
102
RTVSPropertyOp53
 70
     1
102
RTVSPropertyOp54
 70
     1
102
RTVSPropertyOp55
 70
     1
102
RTVSPropertyOp56
 70
     1
102
RTVSPropertyOp57
 70
     1
102
RTVSPost2010Prop28
280
     0
102
RTVSPost2010PropOp28
 70
     1
102
RTVSPost2010Prop29
280
     1
102
RTVSPost2010PropOp29
 70
     1
102
RTVSPost2010Prop30
280
     1
102
RTVSPost2010PropOp30
 70
     1
102
RTVSPost2010Prop31
280
     0
102
RTVSPost2010PropOp31
 70
     1
102
RTVSPost2010Prop32
280
     0
102
RTVSPost2010PropOp32
 70
     1
102
RTVSPost2010Prop33
280
     0
102
RTVSPost2010PropOp33
 70
     1
102
RTVSPost2010Prop34
280
     0
102
RTVSPost2010PropOp34
 70
     1
102
RTVSPost2010Prop35
280
     0
102
RTVSPost2010PropOp35
 70
     1
102
RTVSPost2010Prop36
280
     0
102
RTVSPost2010PropOp36
 70
     1
102
RTVSPost2010Prop37
 90
       50
102
RTVSPost2010PropOp37
 70
     1
102
RTVSPost2010Prop38
140
0.0
102
RTVSPost2010PropOp38
 70
     1
102
RTVSPost2010Prop39
140
1.0
102
RTVSPost2010PropOp39
 70
     1
102
RTVSPost2010Prop40
 90
        0
102
RTVSPost2010PropOp40
 70
     1
102
RTVSPost2010Prop41ColorIndex
 90
       18
102
RTVSPost2010Prop41ColorRGB
 90
        0
102
RTVSPost2010PropOp41
 70
     1
102
RTVSPost2010Prop42
 90
       50
102
RTVSPost2010PropOp42
 70
     1
102
RTVSPost2010Prop43
 90
        3
102
RTVSPost2010PropOp43
 70
     1
102
RTVSPost2010Prop44ColorIndex
 90
        5
102
RTVSPost2010Prop44ColorRGB
 90
      255
102
RTVSPost2010PropOp44
 70
     1
102
RTVSPost2010Prop45
280
     0
102
RTVSPost2010PropOp45
 70
     1
102
RTVSPost2010Prop46
 90
       50
102
RTVSPost2010PropOp46
 70
     1
102
RTVSPost2010Prop47
 90
       50
102
RTVSPost2010PropOp47
 70
     1
102
RTVSPost2010Prop48
 90
       50
102
RTVSPost2010PropOp48
 70
     1
102
RTVSPost2010Prop49
280
     0
102
RTVSPost2010PropOp49
 70
     1
102
RTVSPost2010Prop50
 90
       50
102
RTVSPost2010PropOp50
 70
     1
102
RTVSPost2010Prop51ColorIndex
 90
      256
102
RTVSPost2010Prop51ColorRGB
 90
-16777216
102
RTVSPost2010PropOp51
 70
     0
102
RTVSPost2010Prop52
140
1.0
102
RTVSPost2010PropOp52
 70
     0
102
RTVSPost2010Prop53
 90
        2
102
RTVSPost2010PropOp53
 70
     1
102
RTVSPost2010Prop54
  1
strokes_ogs.tif
102
RTVSPost2010PropOp54
 70
     1
102
RTVSPost2010Prop55
280
     0
102
RTVSPost2010PropOp55
 70
     1
102
RTVSPost2010Prop56
140
1.0
102
RTVSPost2010PropOp56
 70
     1
102
RTVSPost2010Prop57
140
1.0
102
RTVSPost2010PropOp57
 70
     1
  0
XRECORD
  5
BA
102
{ACAD_REACTORS
330
B9
102
}
330
B9
100
AcDbXrecord
280
     1
102
RTVSPropertyOp0
 70
     1
102
RTVSPropertyOp1
 70
     1
102
RTVSPropertyOp2
 70
     1
102
RTVSPropertyOp3
 70
     1
102
RTVSPropertyOp4
 70
     1
102
RTVSPropertyOp5
 70
     1
102
RTVSPropertyOp6
 70
     1
102
RTVSPropertyOp7
 70
     1
102
RTVSPropertyOp8
 70
     1
102
RTVSPropertyOp9
 70
     1
102
RTVSPropertyOp10
 70
     1
102
RTVSPropertyOp11
 70
     1
102
RTVSPropertyOp12
 70
     1
102
RTVSPropertyOp13
 70
     1
102
RTVSPropertyOp14
 70
     1
102
RTVSPropertyOp15
 70
     1
102
RTVSPropertyOp16
 70
     1
102
RTVSPropertyOp17
 70
     1
102
RTVSPropertyOp18
 70
     1
102
RTVSPropertyOp19
 70
     1
102
RTVSPropertyOp20
 70
     1
102
RTVSPropertyOp21
 70
     1
102
RTVSPropertyOp22
 70
     1
102
RTVSPropertyOp23
 70
     1
102
RTVSPropertyOp24
 70
     1
102
RTVSPropertyOp25
 70
     1
102
RTVSPropertyOp26
 70
     1
102
RTVSPropertyOp27
 70
     1
102
RTVSPropertyOp28
 70
     1
102
RTVSPropertyOp29
 70
     1
102
RTVSPropertyOp30
 70
     1
102
RTVSPropertyOp31
 70
     1
102
RTVSPropertyOp32
 70
     1
102
RTVSPropertyOp33
 70
     1
102
RTVSPropertyOp34
 70
     1
102
RTVSPropertyOp35
 70
     1
102
RTVSPropertyOp36
 70
     1
102
RTVSPropertyOp37
 70
     1
102
RTVSPropertyOp38
 70
     1
102
RTVSPropertyOp39
 70
     1
102
RTVSPropertyOp40
 70
     1
102
RTVSPropertyOp41
 70
     1
102
RTVSPropertyOp42
 70
     1
102
RTVSPropertyOp43
 70
     1
102
RTVSPropertyOp44
 70
     1
102
RTVSPropertyOp45
 70
     1
102
RTVSPropertyOp46
 70
     1
102
RTVSPropertyOp47
 70
     1
102
RTVSPropertyOp48
 70
     1
102
RTVSPropertyOp49
 70
     1
102
RTVSPropertyOp50
 70
     1
102
RTVSPropertyOp51
 70
     0
102
RTVSPropertyOp52
 70
     0
102
RTVSPropertyOp53
 70
     1
102
RTVSPropertyOp54
 70
     1
102
RTVSPropertyOp55
 70
     1
102
RTVSPropertyOp56
 70
     1
102
RTVSPropertyOp57
 70
     1
102
RTVSPost2010Prop28
280
     0
102
RTVSPost2010PropOp28
 70
     1
102
RTVSPost2010Prop29
280
     1
102
RTVSPost2010PropOp29
 70
     1
102
RTVSPost2010Prop30
280
     1
102
RTVSPost2010PropOp30
 70
     1
102
RTVSPost2010Prop31
280
     0
102
RTVSPost2010PropOp31
 70
     1
102
RTVSPost2010Prop32
280
     0
102
RTVSPost2010PropOp32
 70
     1
102
RTVSPost2010Prop33
280
     0
102
RTVSPost2010PropOp33
 70
     1
102
RTVSPost2010Prop34
280
     0
102
RTVSPost2010PropOp34
 70
     1
102
RTVSPost2010Prop35
280
     0
102
RTVSPost2010PropOp35
 70
     1
102
RTVSPost2010Prop36
280
     0
102
RTVSPost2010PropOp36
 70
     1
102
RTVSPost2010Prop37
 90
       50
102
RTVSPost2010PropOp37
 70
     1
102
RTVSPost2010Prop38
140
0.0
102
RTVSPost2010PropOp38
 70
     1
102
RTVSPost2010Prop39
140
1.0
102
RTVSPost2010PropOp39
 70
     1
102
RTVSPost2010Prop40
 90
        0
102
RTVSPost2010PropOp40
 70
     1
102
RTVSPost2010Prop41ColorIndex
 90
       18
102
RTVSPost2010Prop41ColorRGB
 90
        0
102
RTVSPost2010PropOp41
 70
     1
102
RTVSPost2010Prop42
 90
       50
102
RTVSPost2010PropOp42
 70
     1
102
RTVSPost2010Prop43
 90
        3
102
RTVSPost2010PropOp43
 70
     1
102
RTVSPost2010Prop44ColorIndex
 90
        5
102
RTVSPost2010Prop44ColorRGB
 90
      255
102
RTVSPost2010PropOp44
 70
     1
102
RTVSPost2010Prop45
280
     0
102
RTVSPost2010PropOp45
 70
     1
102
RTVSPost2010Prop46
 90
       50
102
RTVSPost2010PropOp46
 70
     1
102
RTVSPost2010Prop47
 90
       50
102
RTVSPost2010PropOp47
 70
     1
102
RTVSPost2010Prop48
 90
       50
102
RTVSPost2010PropOp48
 70
     1
102
RTVSPost2010Prop49
280
     0
102
RTVSPost2010PropOp49
 70
     1
102
RTVSPost2010Prop50
 90
       50
102
RTVSPost2010PropOp50
 70
     1
102
RTVSPost2010Prop51ColorIndex
 90
      256
102
RTVSPost2010Prop51ColorRGB
 90
-16777216
102
RTVSPost2010PropOp51
 70
     0
102
RTVSPost2010Prop52
140
1.0
102
RTVSPost2010PropOp52
 70
     0
102
RTVSPost2010Prop53
 90
        2
102
RTVSPost2010PropOp53
 70
     1
102
RTVSPost2010Prop54
  1
strokes_ogs.tif
102
RTVSPost2010PropOp54
 70
     1
102
RTVSPost2010Prop55
280
     0
102
RTVSPost2010PropOp55
 70
     1
102
RTVSPost2010Prop56
140
1.0
102
RTVSPost2010PropOp56
 70
     1
102
RTVSPost2010Prop57
140
1.0
102
RTVSPost2010PropOp57
 70
     1
  0
XRECORD
  5
AA
102
{ACAD_REACTORS
330
A9
102
}
330
A9
100
AcDbXrecord
280
     1
102
RTVSPropertyOp0
 70
     1
102
RTVSPropertyOp1
 70
     1
102
RTVSPropertyOp2
 70
     1
102
RTVSPropertyOp3
 70
     1
102
RTVSPropertyOp4
 70
     1
102
RTVSPropertyOp5
 70
     1
102
RTVSPropertyOp6
 70
     1
102
RTVSPropertyOp7
 70
     1
102
RTVSPropertyOp8
 70
     1
102
RTVSPropertyOp9
 70
     1
102
RTVSPropertyOp10
 70
     1
102
RTVSPropertyOp11
 70
     1
102
RTVSPropertyOp12
 70
     1
102
RTVSPropertyOp13
 70
     1
102
RTVSPropertyOp14
 70
     1
102
RTVSPropertyOp15
 70
     1
102
RTVSPropertyOp16
 70
     1
102
RTVSPropertyOp17
 70
     1
102
RTVSPropertyOp18
 70
     1
102
RTVSPropertyOp19
 70
     1
102
RTVSPropertyOp20
 70
     1
102
RTVSPropertyOp21
 70
     1
102
RTVSPropertyOp22
 70
     1
102
RTVSPropertyOp23
 70
     1
102
RTVSPropertyOp24
 70
     1
102
RTVSPropertyOp25
 70
     1
102
RTVSPropertyOp26
 70
     1
102
RTVSPropertyOp27
 70
     1
102
RTVSPropertyOp28
 70
     1
102
RTVSPropertyOp29
 70
     1
102
RTVSPropertyOp30
 70
     1
102
RTVSPropertyOp31
 70
     1
102
RTVSPropertyOp32
 70
     1
102
RTVSPropertyOp33
 70
     1
102
RTVSPropertyOp34
 70
     1
102
RTVSPropertyOp35
 70
     1
102
RTVSPropertyOp36
 70
     1
102
RTVSPropertyOp37
 70
     1
102
RTVSPropertyOp38
 70
     1
102
RTVSPropertyOp39
 70
     1
102
RTVSPropertyOp40
 70
     1
102
RTVSPropertyOp41
 70
     1
102
RTVSPropertyOp42
 70
     1
102
RTVSPropertyOp43
 70
     1
102
RTVSPropertyOp44
 70
     1
102
RTVSPropertyOp45
 70
     1
102
RTVSPropertyOp46
 70
     1
102
RTVSPropertyOp47
 70
     1
102
RTVSPropertyOp48
 70
     1
102
RTVSPropertyOp49
 70
     1
102
RTVSPropertyOp50
 70
     1
102
RTVSPropertyOp51
 70
     0
102
RTVSPropertyOp52
 70
     0
102
RTVSPropertyOp53
 70
     1
102
RTVSPropertyOp54
 70
     1
102
RTVSPropertyOp55
 70
     1
102
RTVSPropertyOp56
 70
     1
102
RTVSPropertyOp57
 70
     1
102
RTVSPost2010Prop28
280
     0
102
RTVSPost2010PropOp28
 70
     1
102
RTVSPost2010Prop29
280
     1
102
RTVSPost2010PropOp29
 70
     1
102
RTVSPost2010Prop30
280
     1
102
RTVSPost2010PropOp30
 70
     1
102
RTVSPost2010Prop31
280
     0
102
RTVSPost2010PropOp31
 70
     1
102
RTVSPost2010Prop32
280
     0
102
RTVSPost2010PropOp32
 70
     1
102
RTVSPost2010Prop33
280
     0
102
RTVSPost2010PropOp33
 70
     1
102
RTVSPost2010Prop34
280
     0
102
RTVSPost2010PropOp34
 70
     1
102
RTVSPost2010Prop35
280
     0
102
RTVSPost2010PropOp35
 70
     1
102
RTVSPost2010Prop36
280
     0
102
RTVSPost2010PropOp36
 70
     1
102
RTVSPost2010Prop37
 90
       50
102
RTVSPost2010PropOp37
 70
     1
102
RTVSPost2010Prop38
140
0.0
102
RTVSPost2010PropOp38
 70
     1
102
RTVSPost2010Prop39
140
1.0
102
RTVSPost2010PropOp39
 70
     1
102
RTVSPost2010Prop40
 90
        0
102
RTVSPost2010PropOp40
 70
     1
102
RTVSPost2010Prop41ColorIndex
 90
       18
102
RTVSPost2010Prop41ColorRGB
 90
        0
102
RTVSPost2010PropOp41
 70
     1
102
RTVSPost2010Prop42
 90
       50
102
RTVSPost2010PropOp42
 70
     1
102
RTVSPost2010Prop43
 90
        3
102
RTVSPost2010PropOp43
 70
     1
102
RTVSPost2010Prop44ColorIndex
 90
        5
102
RTVSPost2010Prop44ColorRGB
 90
      255
102
RTVSPost2010PropOp44
 70
     1
102
RTVSPost2010Prop45
280
     0
102
RTVSPost2010PropOp45
 70
     1
102
RTVSPost2010Prop46
 90
       50
102
RTVSPost2010PropOp46
 70
     1
102
RTVSPost2010Prop47
 90
       50
102
RTVSPost2010PropOp47
 70
     1
102
RTVSPost2010Prop48
 90
       50
102
RTVSPost2010PropOp48
 70
     1
102
RTVSPost2010Prop49
280
     0
102
RTVSPost2010PropOp49
 70
     1
102
RTVSPost2010Prop50
 90
       50
102
RTVSPost2010PropOp50
 70
     1
102
RTVSPost2010Prop51ColorIndex
 90
      256
102
RTVSPost2010Prop51ColorRGB
 90
-16777216
102
RTVSPost2010PropOp51
 70
     0
102
RTVSPost2010Prop52
140
1.0
102
RTVSPost2010PropOp52
 70
     0
102
RTVSPost2010Prop53
 90
        2
102
RTVSPost2010PropOp53
 70
     1
102
RTVSPost2010Prop54
  1
strokes_ogs.tif
102
RTVSPost2010PropOp54
 70
     1
102
RTVSPost2010Prop55
280
     0
102
RTVSPost2010PropOp55
 70
     1
102
RTVSPost2010Prop56
140
1.0
102
RTVSPost2010PropOp56
 70
     1
102
RTVSPost2010Prop57
140
1.0
102
RTVSPost2010PropOp57
 70
     1
  0
XRECORD
  5
9C
102
{ACAD_REACTORS
330
9B
102
}
330
9B
100
AcDbXrecord
280
     1
102
RTVSPropertyOp0
 70
     1
102
RTVSPropertyOp1
 70
     1
102
RTVSPropertyOp2
 70
     1
102
RTVSPropertyOp3
 70
     1
102
RTVSPropertyOp4
 70
     1
102
RTVSPropertyOp5
 70
     1
102
RTVSPropertyOp6
 70
     1
102
RTVSPropertyOp7
 70
     1
102
RTVSPropertyOp8
 70
     1
102
RTVSPropertyOp9
 70
     1
102
RTVSPropertyOp10
 70
     1
102
RTVSPropertyOp11
 70
     1
102
RTVSPropertyOp12
 70
     1
102
RTVSPropertyOp13
 70
     1
102
RTVSPropertyOp14
 70
     1
102
RTVSPropertyOp15
 70
     1
102
RTVSPropertyOp16
 70
     1
102
RTVSPropertyOp17
 70
     1
102
RTVSPropertyOp18
 70
     1
102
RTVSPropertyOp19
 70
     1
102
RTVSPropertyOp20
 70
     1
102
RTVSPropertyOp21
 70
     1
102
RTVSPropertyOp22
 70
     1
102
RTVSPropertyOp23
 70
     1
102
RTVSPropertyOp24
 70
     1
102
RTVSPropertyOp25
 70
     1
102
RTVSPropertyOp26
 70
     1
102
RTVSPropertyOp27
 70
     1
102
RTVSPropertyOp28
 70
     1
102
RTVSPropertyOp29
 70
     1
102
RTVSPropertyOp30
 70
     1
102
RTVSPropertyOp31
 70
     1
102
RTVSPropertyOp32
 70
     1
102
RTVSPropertyOp33
 70
     1
102
RTVSPropertyOp34
 70
     1
102
RTVSPropertyOp35
 70
     1
102
RTVSPropertyOp36
 70
     1
102
RTVSPropertyOp37
 70
     1
102
RTVSPropertyOp38
 70
     1
102
RTVSPropertyOp39
 70
     1
102
RTVSPropertyOp40
 70
     1
102
RTVSPropertyOp41
 70
     1
102
RTVSPropertyOp42
 70
     1
102
RTVSPropertyOp43
 70
     1
102
RTVSPropertyOp44
 70
     1
102
RTVSPropertyOp45
 70
     1
102
RTVSPropertyOp46
 70
     1
102
RTVSPropertyOp47
 70
     1
102
RTVSPropertyOp48
 70
     1
102
RTVSPropertyOp49
 70
     1
102
RTVSPropertyOp50
 70
     1
102
RTVSPropertyOp51
 70
     0
102
RTVSPropertyOp52
 70
     0
102
RTVSPropertyOp53
 70
     1
102
RTVSPropertyOp54
 70
     1
102
RTVSPropertyOp55
 70
     1
102
RTVSPropertyOp56
 70
     1
102
RTVSPropertyOp57
 70
     1
102
RTVSPost2010Prop28
280
     0
102
RTVSPost2010PropOp28
 70
     1
102
RTVSPost2010Prop29
280
     1
102
RTVSPost2010PropOp29
 70
     1
102
RTVSPost2010Prop30
280
     1
102
RTVSPost2010PropOp30
 70
     1
102
RTVSPost2010Prop31
280
     0
102
RTVSPost2010PropOp31
 70
     1
102
RTVSPost2010Prop32
280
     0
102
RTVSPost2010PropOp32
 70
     1
102
RTVSPost2010Prop33
280
     0
102
RTVSPost2010PropOp33
 70
     1
102
RTVSPost2010Prop34
280
     0
102
RTVSPost2010PropOp34
 70
     1
102
RTVSPost2010Prop35
280
     0
102
RTVSPost2010PropOp35
 70
     1
102
RTVSPost2010Prop36
280
     0
102
RTVSPost2010PropOp36
 70
     1
102
RTVSPost2010Prop37
 90
       50
102
RTVSPost2010PropOp37
 70
     1
102
RTVSPost2010Prop38
140
0.0
102
RTVSPost2010PropOp38
 70
     1
102
RTVSPost2010Prop39
140
1.0
102
RTVSPost2010PropOp39
 70
     1
102
RTVSPost2010Prop40
 90
        0
102
RTVSPost2010PropOp40
 70
     1
102
RTVSPost2010Prop41ColorIndex
 90
       18
102
RTVSPost2010Prop41ColorRGB
 90
        0
102
RTVSPost2010PropOp41
 70
     1
102
RTVSPost2010Prop42
 90
       50
102
RTVSPost2010PropOp42
 70
     1
102
RTVSPost2010Prop43
 90
        3
102
RTVSPost2010PropOp43
 70
     1
102
RTVSPost2010Prop44ColorIndex
 90
        5
102
RTVSPost2010Prop44ColorRGB
 90
      255
102
RTVSPost2010PropOp44
 70
     1
102
RTVSPost2010Prop45
280
     0
102
RTVSPost2010PropOp45
 70
     1
102
RTVSPost2010Prop46
 90
       50
102
RTVSPost2010PropOp46
 70
     1
102
RTVSPost2010Prop47
 90
       50
102
RTVSPost2010PropOp47
 70
     1
102
RTVSPost2010Prop48
 90
       50
102
RTVSPost2010PropOp48
 70
     1
102
RTVSPost2010Prop49
280
     0
102
RTVSPost2010PropOp49
 70
     1
102
RTVSPost2010Prop50
 90
       50
102
RTVSPost2010PropOp50
 70
     1
102
RTVSPost2010Prop51ColorIndex
 90
      256
102
RTVSPost2010Prop51ColorRGB
 90
-16777216
102
RTVSPost2010PropOp51
 70
     0
102
RTVSPost2010Prop52
140
1.0
102
RTVSPost2010PropOp52
 70
     0
102
RTVSPost2010Prop53
 90
        2
102
RTVSPost2010PropOp53
 70
     1
102
RTVSPost2010Prop54
  1
strokes_ogs.tif
102
RTVSPost2010PropOp54
 70
     1
102
RTVSPost2010Prop55
280
     0
102
RTVSPost2010PropOp55
 70
     1
102
RTVSPost2010Prop56
140
1.0
102
RTVSPost2010PropOp56
 70
     1
102
RTVSPost2010Prop57
140
1.0
102
RTVSPost2010PropOp57
 70
     1
  0
XRECORD
  5
BC
102
{ACAD_REACTORS
330
BB
102
}
330
BB
100
AcDbXrecord
280
     1
102
RTVSPropertyOp0
 70
     1
102
RTVSPropertyOp1
 70
     1
102
RTVSPropertyOp2
 70
     1
102
RTVSPropertyOp3
 70
     1
102
RTVSPropertyOp4
 70
     1
102
RTVSPropertyOp5
 70
     1
102
RTVSPropertyOp6
 70
     1
102
RTVSPropertyOp7
 70
     1
102
RTVSPropertyOp8
 70
     1
102
RTVSPropertyOp9
 70
     1
102
RTVSPropertyOp10
 70
     1
102
RTVSPropertyOp11
 70
     1
102
RTVSPropertyOp12
 70
     1
102
RTVSPropertyOp13
 70
     1
102
RTVSPropertyOp14
 70
     1
102
RTVSPropertyOp15
 70
     1
102
RTVSPropertyOp16
 70
     1
102
RTVSPropertyOp17
 70
     1
102
RTVSPropertyOp18
 70
     1
102
RTVSPropertyOp19
 70
     1
102
RTVSPropertyOp20
 70
     1
102
RTVSPropertyOp21
 70
     1
102
RTVSPropertyOp22
 70
     1
102
RTVSPropertyOp23
 70
     1
102
RTVSPropertyOp24
 70
     1
102
RTVSPropertyOp25
 70
     1
102
RTVSPropertyOp26
 70
     1
102
RTVSPropertyOp27
 70
     1
102
RTVSPropertyOp28
 70
     1
102
RTVSPropertyOp29
 70
     1
102
RTVSPropertyOp30
 70
     1
102
RTVSPropertyOp31
 70
     1
102
RTVSPropertyOp32
 70
     1
102
RTVSPropertyOp33
 70
     1
102
RTVSPropertyOp34
 70
     1
102
RTVSPropertyOp35
 70
     1
102
RTVSPropertyOp36
 70
     1
102
RTVSPropertyOp37
 70
     1
102
RTVSPropertyOp38
 70
     1
102
RTVSPropertyOp39
 70
     1
102
RTVSPropertyOp40
 70
     1
102
RTVSPropertyOp41
 70
     1
102
RTVSPropertyOp42
 70
     1
102
RTVSPropertyOp43
 70
     1
102
RTVSPropertyOp44
 70
     1
102
RTVSPropertyOp45
 70
     1
102
RTVSPropertyOp46
 70
     1
102
RTVSPropertyOp47
 70
     1
102
RTVSPropertyOp48
 70
     1
102
RTVSPropertyOp49
 70
     1
102
RTVSPropertyOp50
 70
     1
102
RTVSPropertyOp51
 70
     0
102
RTVSPropertyOp52
 70
     0
102
RTVSPropertyOp53
 70
     1
102
RTVSPropertyOp54
 70
     1
102
RTVSPropertyOp55
 70
     1
102
RTVSPropertyOp56
 70
     1
102
RTVSPropertyOp57
 70
     1
102
RTVSPost2010Prop28
280
     0
102
RTVSPost2010PropOp28
 70
     1
102
RTVSPost2010Prop29
280
     1
102
RTVSPost2010PropOp29
 70
     1
102
RTVSPost2010Prop30
280
     1
102
RTVSPost2010PropOp30
 70
     1
102
RTVSPost2010Prop31
280
     0
102
RTVSPost2010PropOp31
 70
     1
102
RTVSPost2010Prop32
280
     0
102
RTVSPost2010PropOp32
 70
     1
102
RTVSPost2010Prop33
280
     0
102
RTVSPost2010PropOp33
 70
     1
102
RTVSPost2010Prop34
280
     0
102
RTVSPost2010PropOp34
 70
     1
102
RTVSPost2010Prop35
280
     0
102
RTVSPost2010PropOp35
 70
     1
102
RTVSPost2010Prop36
280
     0
102
RTVSPost2010PropOp36
 70
     1
102
RTVSPost2010Prop37
 90
       50
102
RTVSPost2010PropOp37
 70
     1
102
RTVSPost2010Prop38
140
0.0
102
RTVSPost2010PropOp38
 70
     1
102
RTVSPost2010Prop39
140
1.0
102
RTVSPost2010PropOp39
 70
     1
102
RTVSPost2010Prop40
 90
        0
102
RTVSPost2010PropOp40
 70
     1
102
RTVSPost2010Prop41ColorIndex
 90
       18
102
RTVSPost2010Prop41ColorRGB
 90
        0
102
RTVSPost2010PropOp41
 70
     1
102
RTVSPost2010Prop42
 90
       50
102
RTVSPost2010PropOp42
 70
     1
102
RTVSPost2010Prop43
 90
        3
102
RTVSPost2010PropOp43
 70
     1
102
RTVSPost2010Prop44ColorIndex
 90
        5
102
RTVSPost2010Prop44ColorRGB
 90
      255
102
RTVSPost2010PropOp44
 70
     1
102
RTVSPost2010Prop45
280
     0
102
RTVSPost2010PropOp45
 70
     1
102
RTVSPost2010Prop46
 90
       50
102
RTVSPost2010PropOp46
 70
     1
102
RTVSPost2010Prop47
 90
       50
102
RTVSPost2010PropOp47
 70
     1
102
RTVSPost2010Prop48
 90
       50
102
RTVSPost2010PropOp48
 70
     1
102
RTVSPost2010Prop49
280
     0
102
RTVSPost2010PropOp49
 70
     1
102
RTVSPost2010Prop50
 90
       50
102
RTVSPost2010PropOp50
 70
     1
102
RTVSPost2010Prop51ColorIndex
 90
      256
102
RTVSPost2010Prop51ColorRGB
 90
-16777216
102
RTVSPost2010PropOp51
 70
     0
102
RTVSPost2010Prop52
140
1.0
102
RTVSPost2010PropOp52
 70
     0
102
RTVSPost2010Prop53
 90
        2
102
RTVSPost2010PropOp53
 70
     1
102
RTVSPost2010Prop54
  1
strokes_ogs.tif
102
RTVSPost2010PropOp54
 70
     1
102
RTVSPost2010Prop55
280
     0
102
RTVSPost2010PropOp55
 70
     1
102
RTVSPost2010Prop56
140
1.0
102
RTVSPost2010PropOp56
 70
     1
102
RTVSPost2010Prop57
140
1.0
102
RTVSPost2010PropOp57
 70
     1
  0
ENDSEC
  0
EOF
