  0
SECTION
  2
HEADER
  9
$ACADVER
  1
AC1015
  9
$ACADMAINTVER
 70
    20
  9
$DWGCODEPAGE
  3
ANSI_1252
  9
$INSBASE
 10
0.0
 20
0.0
 30
0.0
  9
$EXTMIN
 10
1123.112720177381
 20
-1014.94224725722
 30
0.0
  9
$EXTMAX
 10
2599.403111260066
 20
429.6103258563347
 30
0.0
  9
$LIMMIN
 10
0.0
 20
0.0
  9
$LIMMAX
 10
12.0
 20
9.0
  9
$ORTHOMODE
 70
     0
  9
$REGENMODE
 70
     1
  9
$FILLMODE
 70
     1
  9
$QTEXTMODE
 70
     0
  9
$MIRRTEXT
 70
     1
  9
$LTSCALE
 40
1.0
  9
$ATTMODE
 70
     1
  9
$TEXTSIZE
 40
0.2
  9
$TRACEWID
 40
0.05
  9
$TEXTSTYLE
  7
STANDARD
  9
$CLAYER
  8
0
  9
$CELTYPE
  6
ByLayer
  9
$CECOLOR
 62
   256
  9
$CELTSCALE
 40
1.0
  9
$DISPSILH
 70
     0
  9
$DIMSCALE
 40
1.0
  9
$DIMASZ
 40
0.18
  9
$DIMEXO
 40
0.0625
  9
$DIMDLI
 40
0.38
  9
$DIMRND
 40
0.0
  9
$DIMDLE
 40
0.0
  9
$DIMEXE
 40
0.18
  9
$DIMTP
 40
0.0
  9
$DIMTM
 40
0.0
  9
$DIMTXT
 40
0.18
  9
$DIMCEN
 40
0.09
  9
$DIMTSZ
 40
0.0
  9
$DIMTOL
 70
     0
  9
$DIMLIM
 70
     0
  9
$DIMTIH
 70
     1
  9
$DIMTOH
 70
     1
  9
$DIMSE1
 70
     0
  9
$DIMSE2
 70
     0
  9
$DIMTAD
 70
     0
  9
$DIMZIN
 70
     0
  9
$DIMBLK
  1

  9
$DIMASO
 70
     1
  9
$DIMSHO
 70
     1
  9
$DIMPOST
  1

  9
$DIMAPOST
  1

  9
$DIMALT
 70
     0
  9
$DIMALTD
 70
     2
  9
$DIMALTF
 40
25.4
  9
$DIMLFAC
 40
1.0
  9
$DIMTOFL
 70
     0
  9
$DIMTVP
 40
0.0
  9
$DIMTIX
 70
     0
  9
$DIMSOXD
 70
     0
  9
$DIMSAH
 70
     0
  9
$DIMBLK1
  1

  9
$DIMBLK2
  1

  9
$DIMSTYLE
  2
STANDARD
  9
$DIMCLRD
 70
     0
  9
$DIMCLRE
 70
     0
  9
$DIMCLRT
 70
     0
  9
$DIMTFAC
 40
1.0
  9
$DIMGAP
 40
0.09
  9
$DIMJUST
 70
     0
  9
$DIMSD1
 70
     0
  9
$DIMSD2
 70
     0
  9
$DIMTOLJ
 70
     1
  9
$DIMTZIN
 70
     0
  9
$DIMALTZ
 70
     0
  9
$DIMALTTZ
 70
     0
  9
$DIMUPT
 70
     0
  9
$DIMDEC
 70
     4
  9
$DIMTDEC
 70
     4
  9
$DIMALTU
 70
     2
  9
$DIMALTTD
 70
     2
  9
$DIMTXSTY
  7
STANDARD
  9
$DIMAUNIT
 70
     0
  9
$DIMADEC
 70
     0
  9
$DIMALTRND
 40
0.0
  9
$DIMAZIN
 70
     0
  9
$DIMDSEP
 70
    46
  9
$DIMATFIT
 70
     3
  9
$DIMFRAC
 70
     0
  9
$DIMLDRBLK
  1

  9
$DIMLUNIT
 70
     2
  9
$DIMLWD
 70
    -2
  9
$DIMLWE
 70
    -2
  9
$DIMTMOVE
 70
     0
  9
$LUNITS
 70
     2
  9
$LUPREC
 70
     4
  9
$SKETCHINC
 40
0.1
  9
$FILLETRAD
 40
0.5
  9
$AUNITS
 70
     0
  9
$AUPREC
 70
     0
  9
$MENU
  1
.
  9
$ELEVATION
 40
0.0
  9
$PELEVATION
 40
0.0
  9
$THICKNESS
 40
0.0
  9
$LIMCHECK
 70
     0
  9
$CHAMFERA
 40
0.0
  9
$CHAMFERB
 40
0.0
  9
$CHAMFERC
 40
0.0
  9
$CHAMFERD
 40
0.0
  9
$SKPOLY
 70
     0
  9
$TDCREATE
 40
2454910.500000000
  9
$TDUCREATE
 40
2454910.666666667
  9
$TDUPDATE
 40
2457186.958211759
  9
$TDUUPDATE
 40
2457187.124878426
  9
$TDINDWG
 40
0.0019348032
  9
$TDUSRTIMER
 40
0.0019335417
  9
$USRTIMER
 70
     1
  9
$ANGBASE
 50
0.0
  9
$ANGDIR
 70
     0
  9
$PDMODE
 70
     0
  9
$PDSIZE
 40
0.0
  9
$PLINEWID
 40
0.0
  9
$SPLFRAME
 70
     0
  9
$SPLINETYPE
 70
     6
  9
$SPLINESEGS
 70
     8
  9
$HANDSEED
  5
A20
  9
$SURFTAB1
 70
     6
  9
$SURFTAB2
 70
     6
  9
$SURFTYPE
 70
     6
  9
$SURFU
 70
     6
  9
$SURFV
 70
     6
  9
$UCSBASE
  2

  9
$UCSNAME
  2

  9
$UCSORG
 10
0.0
 20
0.0
 30
0.0
  9
$UCSXDIR
 10
1.0
 20
0.0
 30
0.0
  9
$UCSYDIR
 10
0.0
 20
1.0
 30
0.0
  9
$UCSORTHOREF
  2

  9
$UCSORTHOVIEW
 70
     0
  9
$UCSORGTOP
 10
0.0
 20
0.0
 30
0.0
  9
$UCSORGBOTTOM
 10
0.0
 20
0.0
 30
0.0
  9
$UCSORGLEFT
 10
0.0
 20
0.0
 30
0.0
  9
$UCSORGRIGHT
 10
0.0
 20
0.0
 30
0.0
  9
$UCSORGFRONT
 10
0.0
 20
0.0
 30
0.0
  9
$UCSORGBACK
 10
0.0
 20
0.0
 30
0.0
  9
$PUCSBASE
  2

  9
$PUCSNAME
  2

  9
$PUCSORG
 10
0.0
 20
0.0
 30
0.0
  9
$PUCSXDIR
 10
1.0
 20
0.0
 30
0.0
  9
$PUCSYDIR
 10
0.0
 20
1.0
 30
0.0
  9
$PUCSORTHOREF
  2

  9
$PUCSORTHOVIEW
 70
     0
  9
$PUCSORGTOP
 10
0.0
 20
0.0
 30
0.0
  9
$PUCSORGBOTTOM
 10
0.0
 20
0.0
 30
0.0
  9
$PUCSORGLEFT
 10
0.0
 20
0.0
 30
0.0
  9
$PUCSORGRIGHT
 10
0.0
 20
0.0
 30
0.0
  9
$PUCSORGFRONT
 10
0.0
 20
0.0
 30
0.0
  9
$PUCSORGBACK
 10
0.0
 20
0.0
 30
0.0
  9
$USERI1
 70
     0
  9
$USERI2
 70
     0
  9
$USERI3
 70
     0
  9
$USERI4
 70
     0
  9
$USERI5
 70
     0
  9
$USERR1
 40
0.0
  9
$USERR2
 40
0.0
  9
$USERR3
 40
0.0
  9
$USERR4
 40
0.0
  9
$USERR5
 40
0.0
  9
$WORLDVIEW
 70
     1
  9
$SHADEDGE
 70
     3
  9
$SHADEDIF
 70
    70
  9
$TILEMODE
 70
     1
  9
$MAXACTVP
 70
    64
  9
$PINSBASE
 10
0.0
 20
0.0
 30
0.0
  9
$PLIMCHECK
 70
     0
  9
$PEXTMIN
 10
1.000000000000000E+20
 20
1.000000000000000E+20
 30
1.000000000000000E+20
  9
$PEXTMAX
 10
-1.000000000000000E+20
 20
-1.000000000000000E+20
 30
-1.000000000000000E+20
  9
$PLIMMIN
 10
0.0
 20
0.0
  9
$PLIMMAX
 10
12.0
 20
9.0
  9
$UNITMODE
 70
     0
  9
$VISRETAIN
 70
     1
  9
$PLINEGEN
 70
     0
  9
$PSLTSCALE
 70
     1
  9
$TREEDEPTH
 70
  3020
  9
$CMLSTYLE
  2
Standard
  9
$CMLJUST
 70
     0
  9
$CMLSCALE
 40
1.0
  9
$PROXYGRAPHICS
 70
     1
  9
$MEASUREMENT
 70
     0
  9
$CELWEIGHT
370
    -1
  9
$ENDCAPS
280
     0
  9
$JOINSTYLE
280
     0
  9
$LWDISPLAY
290
     0
  9
$INSUNITS
 70
     0
  9
$HYPERLINKBASE
  1

  9
$STYLESHEET
  1

  9
$XEDIT
290
     1
  9
$CEPSNTYPE
380
     0
  9
$PSTYLEMODE
290
     1
  9
$FINGERPRINTGUID
  2
{2909019E-29C1-4E64-A2F5-6D3F4A246E5F}
  9
$VERSIONGUID
  2
{7FFCCBDF-539B-4928-B4F7-9A2B02B1F239}
  9
$EXTNAMES
290
     1
  9
$PSVPSCALE
 40
0.0
  9
$OLESTARTUP
290
     0
  0
ENDSEC
  0
SECTION
  2
CLASSES
  0
CLASS
  1
ACDBDICTIONARYWDFLT
  2
AcDbDictionaryWithDefault
  3
ObjectDBX Classes
 90
        0
280
     0
281
     0
  0
CLASS
  1
MATERIAL
  2
AcDbMaterial
  3
ObjectDBX Classes
 90
     1153
280
     0
281
     0
  0
CLASS
  1
VISUALSTYLE
  2
AcDbVisualStyle
  3
ObjectDBX Classes
 90
     4095
280
     0
281
     0
  0
CLASS
  1
SCALE
  2
AcDbScale
  3
ObjectDBX Classes
 90
     1153
280
     0
281
     0
  0
CLASS
  1
TABLESTYLE
  2
AcDbTableStyle
  3
ObjectDBX Classes
 90
     4095
280
     0
281
     0
  0
CLASS
  1
MLEADERSTYLE
  2
AcDbMLeaderStyle
  3
ACDB_MLEADERSTYLE_CLASS
 90
     4095
280
     0
281
     0
  0
CLASS
  1
ACDBSECTIONVIEWSTYLE
  2
AcDbSectionViewStyle
  3
ObjectDBX Classes
 90
     1025
280
     0
281
     0
  0
CLASS
  1
ACDBDETAILVIEWSTYLE
  2
AcDbDetailViewStyle
  3
ObjectDBX Classes
 90
     1025
280
     0
281
     0
  0
CLASS
  1
SOLID_BACKGROUND
  2
AcDbSolidBackground
  3
SCENEOE
 90
     4095
280
     0
281
     0
  0
CLASS
  1
NPOCOLLECTION
  2
AcDbImpNonPersistentObjectsCollection
  3
ObjectDBX Classes
 90
     1153
280
     0
281
     0
  0
CLASS
  1
DICTIONARYVAR
  2
AcDbDictionaryVar
  3
ObjectDBX Classes
 90
        0
280
     0
281
     0
  0
CLASS
  1
CELLSTYLEMAP
  2
AcDbCellStyleMap
  3
ObjectDBX Classes
 90
     1152
280
     0
281
     0
  0
CLASS
  1
ACDBPLACEHOLDER
  2
AcDbPlaceHolder
  3
ObjectDBX Classes
 90
        0
280
     0
281
     0
  0
CLASS
  1
LAYOUT
  2
AcDbLayout
  3
ObjectDBX Classes
 90
        0
280
     0
281
     0
  0
ENDSEC
  0
SECTION
  2
TABLES
  0
TABLE
  2
VPORT
  5
89D
330
0
100
AcDbSymbolTable
 70
     1
  0
VPORT
  5
909
330
89D
100
AcDbSymbolTableRecord
100
AcDbViewportTableRecord
  2
*ACTIVE
 70
     0
 10
0.0
 20
0.0
 11
1.0
 21
1.0
 12
126.5271127362177
 22
149.0067882120056
 13
0.0
 23
0.0
 14
0.5
 24
0.5
 15
0.5
 25
0.5
 16
-0.0000000000013642
 26
0.0
 36
5648.843965451836
 17
1886.137929716709
 27
-321.0930810734163
 37
0.0
 40
4.140760278949528
 41
2.534450651769087
 42
50.0
 43
0.0
 44
0.0
 50
0.0
 51
0.0
 71
     0
 72
   100
 73
     1
 74
     3
 75
     0
 76
     0
 77
     0
 78
     0
281
     0
 65
     1
110
0.0
120
0.0
130
0.0
111
1.0
121
0.0
131
0.0
112
0.0
122
1.0
132
0.0
 79
     0
146
0.0
1001
ACAD_NAV_VCDISPLAY
1070
     3
  0
ENDTAB
  0
TABLE
  2
LTYPE
  5
89A
330
0
100
AcDbSymbolTable
 70
     4
  0
LTYPE
  5
8EF
330
89A
100
AcDbSymbolTableRecord
100
AcDbLinetypeTableRecord
  2
ByBlock
 70
     0
  3

 72
    65
 73
     0
 40
0.0
  0
LTYPE
  5
8F0
330
89A
100
AcDbSymbolTableRecord
100
AcDbLinetypeTableRecord
  2
ByLayer
 70
     0
  3

 72
    65
 73
     0
 40
0.0
  0
LTYPE
  5
8F1
330
89A
100
AcDbSymbolTableRecord
100
AcDbLinetypeTableRecord
  2
CONTINUOUS
 70
     0
  3
Solid line
 72
    65
 73
     0
 40
0.0
  0
LTYPE
  5
8FD
330
89A
100
AcDbSymbolTableRecord
100
AcDbLinetypeTableRecord
  2
PHANTOM2
 70
     0
  3
Phantom (.5x) ___ _ _ ___ _ _ ___ _ _ ___ _ _
 72
    65
 73
     6
 40
1.25
 49
0.625
 74
     0
 49
-0.125
 74
     0
 49
0.125
 74
     0
 49
-0.125
 74
     0
 49
0.125
 74
     0
 49
-0.125
 74
     0
  0
LTYPE
  5
90A
330
89A
100
AcDbSymbolTableRecord
100
AcDbLinetypeTableRecord
  2
CONTINUOUS2
 70
     0
  3
Solid Line
 72
    65
 73
     0
 40
0.0
  0
ENDTAB
  0
TABLE
  2
LAYER
  5
897
330
0
100
AcDbSymbolTable
 70
     2
  0
LAYER
  5
8E9
102
{ACAD_XDICTIONARY
360
916
102
}
330
897
100
AcDbSymbolTableRecord
100
AcDbLayerTableRecord
  2
0
 70
     0
 62
     7
  6
CONTINUOUS
370
    -3
390
8A4
  0
LAYER
  5
90B
102
{ACAD_XDICTIONARY
360
918
102
}
330
897
100
AcDbSymbolTableRecord
100
AcDbLayerTableRecord
  2
CUT
 70
     0
 62
    18
  6
CONTINUOUS
370
    -3
390
8A4
  0
ENDTAB
  0
TABLE
  2
STYLE
  5
898
330
0
100
AcDbSymbolTable
 70
     2
  0
STYLE
  5
8EA
330
898
100
AcDbSymbolTableRecord
100
AcDbTextStyleTableRecord
  2
STANDARD
 70
     0
 40
0.0
 41
1.0
 50
0.0
 71
     0
 42
0.2
  3
txt
  4

  0
STYLE
  5
8EE
330
898
100
AcDbSymbolTableRecord
100
AcDbTextStyleTableRecord
  2
Annotative
 70
     0
 40
0.0
 41
1.0
 50
0.0
 71
     0
 42
0.2
  3
txt
  4

1001
AcadAnnotative
1000
AnnotativeData
1002
{
1070
     1
1070
     1
1002
}
  0
ENDTAB
  0
TABLE
  2
VIEW
  5
89B
330
0
100
AcDbSymbolTable
 70
     0
  0
ENDTAB
  0
TABLE
  2
UCS
  5
89C
330
0
100
AcDbSymbolTable
 70
     0
  0
ENDTAB
  0
TABLE
  2
APPID
  5
89E
330
0
100
AcDbSymbolTable
 70
     5
  0
APPID
  5
8EB
330
89E
100
AcDbSymbolTableRecord
100
AcDbRegAppTableRecord
  2
ACAD
 70
     0
  0
APPID
  5
8F2
330
89E
100
AcDbSymbolTableRecord
100
AcDbRegAppTableRecord
  2
AcadAnnotative
 70
     0
  0
APPID
  5
924
330
89E
100
AcDbSymbolTableRecord
100
AcDbRegAppTableRecord
  2
ACAD_NAV_VCDISPLAY
 70
     0
  0
APPID
  5
962
330
89E
100
AcDbSymbolTableRecord
100
AcDbRegAppTableRecord
  2
ACAD_EXEMPT_FROM_CAD_STANDARDS
 70
     0
  0
APPID
  5
A1B
330
89E
100
AcDbSymbolTableRecord
100
AcDbRegAppTableRecord
  2
ACAD_MLEADERVER
 70
     0
  0
ENDTAB
  0
TABLE
  2
DIMSTYLE
  5
89F
330
0
100
AcDbSymbolTable
 70
     3
100
AcDbDimStyleTable
 71
     1
340
8EC
  0
DIMSTYLE
105
8EC
330
89F
100
AcDbSymbolTableRecord
100
AcDbDimStyleTableRecord
  2
STANDARD
 70
     0
279
     2
340
8EA
  0
DIMSTYLE
105
8ED
330
89F
100
AcDbSymbolTableRecord
100
AcDbDimStyleTableRecord
  2
Annotative
 70
     0
340
8EA
1001
AcadAnnotative
1000
AnnotativeData
1002
{
1070
     1
1070
     1
1002
}
  0
ENDTAB
  0
TABLE
  2
BLOCK_RECORD
  5
896
330
0
100
AcDbSymbolTable
 70
     3
  0
BLOCK_RECORD
  5
905
330
896
100
AcDbSymbolTableRecord
100
AcDbBlockTableRecord
  2
*Model_Space
340
908
  0
BLOCK_RECORD
  5
901
330
896
100
AcDbSymbolTableRecord
100
AcDbBlockTableRecord
  2
*Paper_Space
340
904
  0
BLOCK_RECORD
  5
90D
330
896
100
AcDbSymbolTableRecord
100
AcDbBlockTableRecord
  2
$MODEL_SPACE
340
0
  0
BLOCK_RECORD
  5
90F
330
896
100
AcDbSymbolTableRecord
100
AcDbBlockTableRecord
  2
$PAPER_SPACE
340
0
  0
ENDTAB
  0
ENDSEC
  0
SECTION
  2
BLOCKS
  0
BLOCK
  5
906
330
905
100
AcDbEntity
  8
0
100
AcDbBlockBegin
  2
*Model_Space
 70
     0
 10
0.0
 20
0.0
 30
0.0
  3
*Model_Space
  1

  0
ENDBLK
  5
907
330
905
100
AcDbEntity
  8
0
100
AcDbBlockEnd
  0
BLOCK
  5
902
330
901
100
AcDbEntity
 67
     1
  8
0
100
AcDbBlockBegin
  2
*Paper_Space
 70
     0
 10
0.0
 20
0.0
 30
0.0
  3
*Paper_Space
  1

  0
ENDBLK
  5
903
330
901
100
AcDbEntity
 67
     1
  8
0
100
AcDbBlockEnd
  0
BLOCK
  5
90E
330
90D
100
AcDbEntity
  8
0
100
AcDbBlockBegin
  2
$MODEL_SPACE
 70
     0
 10
0.0
 20
0.0
 30
0.0
  3
$MODEL_SPACE
  1

  0
ENDBLK
  5
21
330
90D
100
AcDbEntity
  8
0
100
AcDbBlockEnd
  0
BLOCK
  5
910
330
90F
100
AcDbEntity
  8
0
100
AcDbBlockBegin
  2
$PAPER_SPACE
 70
     0
 10
0.0
 20
0.0
 30
0.0
  3
$PAPER_SPACE
  1

  0
ENDBLK
  5
1D
330
90F
100
AcDbEntity
  8
0
100
AcDbBlockEnd
  0
ENDSEC
  0
SECTION
  2
ENTITIES
  0
LWPOLYLINE
  5
6C
330
905
100
AcDbEntity
  8
CUT
100
AcDbPolyline
 90
       17
 70
     1
 43
0.0
 10
1642.550464823242
 20
-160.0123880170324
 42
0.0658634989525554
 10
1599.582092711771
 20
-132.9076163874376
 42
0.0917491945332273
 10
1533.612341669777
 20
-118.2757361108972
 42
0.0296831031589747
 10
1228.487278201206
 20
-119.5163063997449
 42
0.0725409773433935
 10
1176.812741710713
 20
-130.5620044161317
 42
0.1675139964821564
 10
1126.74211609906
 20
-171.5721455426858
 10
1126.74211609906
 20
-179.3705993140695
 10
1280.769444008223
 20
-179.3705993141413
 10
1280.769444008223
 20
-149.4561540752941
 10
1286.769444008223
 20
-149.4561540752941
 10
1286.769444008223
 20
-179.3705993141859
 10
1518.024599608088
 20
-179.3705993141859
 10
1518.024599608088
 20
-149.4561540752941
 10
1524.024599608088
 20
-149.4561540752941
 10
1524.024599608088
 20
-179.3705993141859
 10
1660.392550953231
 20
-179.3705993141859
 42
0.1143116916450553
 10
1656.482718636249
 20
-172.6954079316667
 42
0.0459252084128432
  0
LWPOLYLINE
  5
6D
330
905
100
AcDbEntity
  8
CUT
100
AcDbPolyline
 90
       17
 70
     1
 43
0.0
 10
1642.550464823242
 20
-210.7288106112057
 42
-0.0658634989525554
 10
1599.582092711771
 20
-237.8335822408001
 42
-0.0917491945332273
 10
1533.612341669777
 20
-252.4654625173418
 42
-0.0296831031589747
 10
1228.487278201206
 20
-251.2248922284928
 42
-0.0725409773433935
 10
1176.812741710713
 20
-240.1791942121192
 42
-0.1675139964821564
 10
1126.74211609906
 20
-199.1690530855514
 10
1126.74211609906
 20
-191.3705993141696
 10
1280.769444008223
 20
-191.3705993141259
 10
1280.769444008223
 20
-221.2850445528859
 10
1286.769444008223
 20
-221.2850445528859
 10
1286.769444008223
 20
-191.370599314054
 10
1518.024599608088
 20
-191.370599314054
 10
1518.024599608088
 20
-221.2850445528859
 10
1524.024599608088
 20
-221.2850445528859
 10
1524.024599608088
 20
-191.370599314054
 10
1660.392550953231
 20
-191.370599314054
 42
-0.1143116916450553
 10
1656.482718636249
 20
-198.045790696616
 42
-0.0459252084128432
  0
LWPOLYLINE
  5
6E
330
905
100
AcDbEntity
  8
CUT
100
AcDbPolyline
 90
       15
 70
     1
 43
0.0
 10
1362.875549991706
 20
44.92821205774339
 42
0.0290577749712706
 10
1123.112720177381
 20
31.77594362805144
 10
1123.112720177381
 20
-23.95370394765018
 10
1285.661205358654
 20
-23.95370394765018
 10
1285.661205358654
 20
5.960741291139356
 10
1291.661205358654
 20
5.960741291139356
 10
1291.661205358654
 20
-23.95370394769384
 10
1522.916360958643
 20
-23.95370394769384
 10
1522.916360958643
 20
5.960741291139356
 10
1528.916360958643
 20
5.960741291139356
 10
1528.916360958643
 20
-23.95370394769384
 10
1673.743726212346
 20
-23.95370394769384
 10
1673.743726212346
 20
10.61278085687604
 10
1642.872763773233
 20
20.55553040608925
 42
0.0833988395316199
 10
1463.664762348013
 20
44.92821205774339
  0
LWPOLYLINE
  5
6F
330
905
100
AcDbEntity
  8
CUT
100
AcDbPolyline
 90
       15
 70
     1
 43
0.0
 10
1362.875549991706
 20
-104.8356199529837
 42
-0.0290577749712706
 10
1123.112720177381
 20
-91.68335152327813
 10
1123.112720177381
 20
-35.95370394757651
 10
1285.661205358654
 20
-35.95370394757651
 10
1285.661205358654
 20
-65.86814918634968
 10
1291.661205358654
 20
-65.86814918634968
 10
1291.661205358654
 20
-35.95370394753286
 10
1522.916360958643
 20
-35.95370394753286
 10
1522.916360958643
 20
-65.86814918634968
 10
1528.916360958643
 20
-65.86814918634968
 10
1528.916360958643
 20
-35.95370394753286
 10
1673.743726212346
 20
-35.95370394753286
 10
1673.743726212346
 20
-70.52018875210137
 10
1642.872763773233
 20
-80.46293830127229
 42
-0.0833988395316199
 10
1463.664762348013
 20
-104.8356199529837
  0
LWPOLYLINE
  5
70
330
905
100
AcDbEntity
  8
CUT
100
AcDbPolyline
 90
        4
 70
     1
 43
0.0
 10
1198.285610064482
 20
-605.766349785322
 10
1200.227502385682
 20
-590.7745619405671
 42
0.3867136583662223
 10
1194.277212102006
 20
-590.0038184421348
 10
1192.335319780864
 20
-604.9956062869625
 42
0.3867136583661953
  0
LWPOLYLINE
  5
71
330
905
100
AcDbEntity
  8
CUT
100
AcDbPolyline
 90
        4
 70
     1
 43
0.0
 10
1203.552116458519
 20
-565.1078922174449
 10
1201.610224137326
 20
-580.0996800622136
 42
-0.3867136583662223
 10
1195.659933853731
 20
-579.3289365638395
 10
1197.601826174894
 20
-564.3371487190272
 42
-0.3867136583661953
  0
LWPOLYLINE
  5
72
330
905
100
AcDbEntity
  8
CUT
100
AcDbPolyline
 90
        4
 70
     1
 43
0.0
 10
1206.876730531305
 20
-539.4412224943237
 10
1204.934838210156
 20
-554.4330103391359
 42
-0.3867136583662223
 10
1198.984547926517
 20
-553.6622668407174
 10
1200.926440247724
 20
-538.6704789959642
 42
-0.3867136583661953
  0
LWPOLYLINE
  5
73
330
905
100
AcDbEntity
  8
CUT
100
AcDbPolyline
 90
        4
 70
     1
 43
0.0
 10
1210.201344604178
 20
-513.7745527712151
 10
1208.259452283044
 20
-528.7663406160147
 42
-0.3867136583662223
 10
1202.309161999354
 20
-527.9955971176543
 10
1204.251054320604
 20
-513.0038092728421
 42
-0.3867136583661953
  0
LWPOLYLINE
  5
74
330
905
100
AcDbEntity
  8
CUT
100
AcDbPolyline
 90
        4
 70
     1
 43
0.0
 10
1232.39701551251
 20
-502.7639825719863
 10
1234.33890783376
 20
-487.7721947271595
 42
0.3867136583662223
 10
1228.38861755007
 20
-487.0014512287991
 10
1226.446725228914
 20
-501.9932390736133
 42
0.3867136583661953
  0
LWPOLYLINE
  5
75
330
905
100
AcDbEntity
  8
CUT
100
AcDbPolyline
 90
        4
 70
     1
 43
0.0
 10
1237.66352190659
 20
-462.1055250040965
 10
1235.721629585441
 20
-477.0973128489088
 42
-0.3867136583662223
 10
1229.771339301802
 20
-476.3265693504902
 10
1231.713231622965
 20
-461.3347815056925
 42
-0.3867136583661953
  0
LWPOLYLINE
  5
76
330
905
100
AcDbEntity
  8
CUT
100
AcDbPolyline
 90
        4
 70
     1
 43
0.0
 10
1240.988135979405
 20
-436.4388552809743
 10
1239.04624365822
 20
-451.4306431257867
 42
-0.3867136583662223
 10
1233.095953374588
 20
-450.6598996273689
 10
1235.03784569578
 20
-435.6681117826148
 42
-0.3867136583661953
  0
LWPOLYLINE
  5
77
330
905
100
AcDbEntity
  8
CUT
100
AcDbPolyline
 90
        4
 70
     1
 43
0.0
 10
1244.3127500523
 20
-410.7721855578513
 10
1242.370857731093
 20
-425.7639734026636
 42
-0.3867136583662223
 10
1236.420567447476
 20
-424.9932299043059
 10
1238.362459768654
 20
-410.0014420594918
 42
-0.3867136583661953
  0
LWPOLYLINE
  5
78
330
905
100
AcDbEntity
  8
CUT
100
AcDbPolyline
 90
        4
 70
     1
 43
0.0
 10
1165.013930223609
 20
-362.4980391050915
 10
1196.660180657771
 20
-362.4980391050915
 10
1196.660180657771
 20
-370.9776263524138
 10
1165.013930223609
 20
-370.9776263524138
  0
LWPOLYLINE
  5
79
330
905
100
AcDbEntity
  8
CUT
100
AcDbPolyline
 90
        8
 70
     1
 43
0.0
 10
1144.911463562031
 20
-909.5509252305586
 10
1178.878421461497
 20
-909.5509252305586
 10
1178.878421461497
 20
-921.078515260125
 10
1184.878421461446
 20
-921.078515260125
 10
1184.87842146154
 20
-909.5509252305586
 10
1219.217427011728
 20
-909.5509252305586
 42
-0.0454192388367274
 10
1239.660084389918
 20
-997.3998945172164
 10
1123.872899157137
 20
-997.3998945175074
 42
-0.0454884745857923
  0
LWPOLYLINE
  5
7A
330
905
100
AcDbEntity
  8
CUT
100
AcDbPolyline
 90
        4
 70
     1
 43
0.0
 10
1167.909776264929
 20
-936.5664763702691
 10
1195.84706665797
 20
-936.5664763702691
 10
1195.84706665797
 20
-942.5664763702309
 10
1167.909776264929
 20
-942.5664763702309
  0
LWPOLYLINE
  5
7B
330
905
100
AcDbEntity
  8
CUT
100
AcDbPolyline
 90
        4
 70
     1
 43
0.0
 10
1178.878421461497
 20
-974.195865804487
 10
1184.878421461446
 20
-974.195865804487
 10
1184.878421461446
 20
-949.8735301988046
 10
1178.878421461497
 20
-949.8735301988046
  0
LWPOLYLINE
  5
7C
330
905
100
AcDbEntity
  8
CUT
100
AcDbPolyline
 90
        4
 70
     1
 43
0.0
 10
1327.548492929807
 20
-983.2032676048832
 42
0.0189993313342957
 10
1443.833903340779
 20
-996.3832286544322
 10
1443.833903340823
 20
-873.8774408201255
 42
0.0189993313342918
 10
1327.548492929967
 20
-887.0574018696745
  0
LWPOLYLINE
  5
7D
330
905
100
AcDbEntity
  8
CUT
100
AcDbPolyline
 90
        4
 70
     1
 43
0.0
 10
1354.491350698194
 20
-932.1303347372825
 10
1374.733214022209
 20
-932.1303347373406
 10
1374.733214022209
 20
-938.1303347372734
 10
1354.491350698237
 20
-938.1303347372734
  0
LWPOLYLINE
  5
7E
330
905
100
AcDbEntity
  8
CUT
100
AcDbPolyline
 90
        4
 70
     1
 43
0.0
 10
1397.158576205762
 20
-932.1303347373698
 10
1417.400439529734
 20
-932.1303347373406
 10
1417.400439529734
 20
-938.1303347373325
 10
1397.158576205762
 20
-938.1303347373625
  0
LWPOLYLINE
  5
7F
330
905
100
AcDbEntity
  8
CUT
100
AcDbPolyline
 90
        4
 70
     1
 43
0.0
 10
1209.036566339728
 20
-823.4790267591517
 10
1209.036566339728
 20
-808.3619950209934
 42
0.3867136583662223
 10
1203.036566339728
 20
-808.3619950210525
 10
1203.036566339728
 20
-823.4790267591517
 42
0.3867136583661953
  0
LWPOLYLINE
  5
80
330
905
100
AcDbEntity
  8
CUT
100
AcDbPolyline
 90
        4
 70
     1
 43
0.0
 10
1209.036566339728
 20
-849.3814197146578
 10
1209.036566339728
 20
-834.2643879765594
 42
0.3867136583662223
 10
1203.036566339728
 20
-834.2643879765594
 10
1203.036566339728
 20
-849.3814197146578
 42
0.3867136583661953
  0
LWPOLYLINE
  5
81
330
905
100
AcDbEntity
  8
CUT
100
AcDbPolyline
 90
        4
 70
     1
 43
0.0
 10
1209.036566339728
 20
-860.1667809320799
 10
1209.036566339728
 20
-875.2838126701783
 42
-0.3867136583662223
 10
1203.036566339728
 20
-875.2838126701783
 10
1203.036566339728
 20
-860.1667809320799
 42
-0.3867136583661953
  0
LWPOLYLINE
  5
82
330
905
100
AcDbEntity
  8
CUT
100
AcDbPolyline
 90
        4
 70
     1
 43
0.0
 10
1158.884924987182
 20
-849.0507537435217
 10
1164.884924987182
 20
-849.0507537435217
 10
1164.884924987182
 20
-878.8571788568727
 10
1158.884924987182
 20
-878.8571788568727
  0
LWPOLYLINE
  5
83
330
905
100
AcDbEntity
  8
CUT
100
AcDbPolyline
 90
        4
 70
     1
 43
0.0
 10
1139.222591706497
 20
-792.1154657134204
 10
1145.222591706497
 20
-792.1154657134204
 10
1145.222591706497
 20
-816.8191104839781
 10
1139.222591706497
 20
-816.8191104839781
  0
LWPOLYLINE
  5
84
330
905
100
AcDbEntity
  8
CUT
100
AcDbPolyline
 90
        4
 70
     1
 43
0.0
 10
1141.677990491047
 20
-565.493136810511
 10
1147.673755873878
 20
-565.7185197606398
 10
1146.74579248422
 20
-590.404729451365
 10
1140.750027101381
 20
-590.1793465012235
  0
LWPOLYLINE
  5
85
330
905
100
AcDbEntity
  8
CUT
100
AcDbPolyline
 90
        4
 70
     1
 43
0.0
 10
1250.481332486928
 20
-315.2732781629322
 42
0.4142135623730951
 10
1245.632293620041
 20
-320.1223170298156
 42
0.4142135623730951
 10
1250.481332486928
 20
-324.9713558967008
 42
0.4142135623730951
 10
1255.330371353808
 20
-320.1223170298156
 42
0.4142135623730951
  0
LWPOLYLINE
  5
86
330
905
100
AcDbEntity
  8
CUT
100
AcDbPolyline
 90
        4
 70
     1
 43
0.0
 10
1155.761081027671
 20
-443.5727186797405
 10
1161.756846410495
 20
-443.7981016299256
 10
1160.828883020829
 20
-468.4843113206509
 10
1154.833117638056
 20
-468.258928370494
  0
LWPOLYLINE
  5
87
330
905
100
AcDbEntity
  8
CUT
100
AcDbPolyline
 90
        4
 70
     1
 43
0.0
 10
1481.782241424353
 20
-605.766349785322
 10
1479.840349103051
 20
-590.7745619405671
 42
-0.3867136583662223
 10
1485.790639386683
 20
-590.0038184421348
 10
1487.73253170789
 20
-604.9956062869625
 42
-0.3867136583661953
  0
LWPOLYLINE
  5
88
330
905
100
AcDbEntity
  8
CUT
100
AcDbPolyline
 90
        4
 70
     1
 43
0.0
 10
1476.515735030265
 20
-565.1078922174449
 10
1478.457627351363
 20
-580.0996800622136
 42
0.3867136583662223
 10
1484.407917635002
 20
-579.3289365638395
 10
1482.466025313795
 20
-564.3371487190272
 42
0.3867136583661953
  0
LWPOLYLINE
  5
89
330
905
100
AcDbEntity
  8
CUT
100
AcDbPolyline
 90
        4
 70
     1
 43
0.0
 10
1473.191120957435
 20
-539.4412224943237
 10
1475.133013278533
 20
-554.4330103391359
 42
0.3867136583662223
 10
1481.083303562172
 20
-553.6622668407174
 10
1479.141411241009
 20
-538.6704789959642
 42
0.3867136583661953
  0
LWPOLYLINE
  5
8A
330
905
100
AcDbEntity
  8
CUT
100
AcDbPolyline
 90
        4
 70
     1
 43
0.0
 10
1469.866506884555
 20
-513.7745527712151
 10
1471.808399205645
 20
-528.7663406160147
 42
0.3867136583662223
 10
1477.758689489292
 20
-527.9955971176543
 10
1475.816797168194
 20
-513.0038092728421
 42
0.3867136583661953
  0
LWPOLYLINE
  5
8B
330
905
100
AcDbEntity
  8
CUT
100
AcDbPolyline
 90
        4
 70
     1
 43
0.0
 10
1447.670835976238
 20
-502.7639825719863
 10
1445.728943654929
 20
-487.7721947271595
 42
-0.3867136583662223
 10
1451.679233938532
 20
-487.0014512287991
 10
1453.621126259863
 20
-501.9932390736133
 42
-0.3867136583661953
  0
LWPOLYLINE
  5
8C
330
905
100
AcDbEntity
  8
CUT
100
AcDbPolyline
 90
        4
 70
     1
 43
0.0
 10
1442.404329582143
 20
-462.1055250040965
 10
1444.346221903306
 20
-477.0973128489088
 42
0.3867136583662223
 10
1450.296512186931
 20
-476.3265693504902
 10
1448.354619865789
 20
-461.3347815056925
 42
0.3867136583661953
  0
LWPOLYLINE
  5
8D
330
905
100
AcDbEntity
  8
CUT
100
AcDbPolyline
 90
        4
 70
     1
 43
0.0
 10
1439.079715509262
 20
-436.4388552809743
 10
1441.021607830476
 20
-451.4306431257867
 42
0.3867136583662223
 10
1446.971898114101
 20
-450.6598996273689
 10
1445.03000579296
 20
-435.6681117826148
 42
0.3867136583661953
  0
LWPOLYLINE
  5
8E
330
905
100
AcDbEntity
  8
CUT
100
AcDbPolyline
 90
        4
 70
     1
 43
0.0
 10
1435.755101436432
 20
-410.7721855578513
 10
1437.696993757639
 20
-425.7639734026636
 42
0.3867136583662223
 10
1443.647284041271
 20
-424.9932299043059
 10
1441.705391720079
 20
-410.0014420594918
 42
0.3867136583661953
  0
LWPOLYLINE
  5
8F
330
905
100
AcDbEntity
  8
CUT
100
AcDbPolyline
 90
        4
 70
     1
 43
0.0
 10
1515.05392126508
 20
-362.4980391050915
 10
1483.407670830918
 20
-362.4980391050915
 10
1483.407670830918
 20
-370.9776263524138
 10
1515.05392126508
 20
-370.9776263524138
  0
LWPOLYLINE
  5
90
330
905
100
AcDbEntity
  8
CUT
100
AcDbPolyline
 90
        4
 70
     1
 43
0.0
 10
1471.031285148969
 20
-823.4790267591517
 10
1471.031285148969
 20
-808.3619950209934
 42
-0.3867136583662223
 10
1477.031285149012
 20
-808.3619950210525
 10
1477.031285148969
 20
-823.4790267591517
 42
-0.3867136583661953
  0
LWPOLYLINE
  5
91
330
905
100
AcDbEntity
  8
CUT
100
AcDbPolyline
 90
        4
 70
     1
 43
0.0
 10
1471.031285148969
 20
-849.3814197146578
 10
1471.031285148969
 20
-834.2643879765594
 42
-0.3867136583662223
 10
1477.031285149012
 20
-834.2643879765594
 10
1477.031285148969
 20
-849.3814197146578
 42
-0.3867136583661953
  0
LWPOLYLINE
  5
92
330
905
100
AcDbEntity
  8
CUT
100
AcDbPolyline
 90
        4
 70
     1
 43
0.0
 10
1471.031285148969
 20
-860.1667809320799
 10
1471.031285148969
 20
-875.2838126701783
 42
0.3867136583662223
 10
1477.031285149012
 20
-875.2838126701783
 10
1477.031285148969
 20
-860.1667809320799
 42
0.3867136583661953
  0
LWPOLYLINE
  5
93
330
905
100
AcDbEntity
  8
CUT
100
AcDbPolyline
 90
        4
 70
     1
 43
0.0
 10
1521.182926501507
 20
-849.0507537435217
 10
1515.182926501507
 20
-849.0507537435217
 10
1515.182926501507
 20
-878.8571788568727
 10
1521.182926501507
 20
-878.8571788568727
  0
LWPOLYLINE
  5
94
330
905
100
AcDbEntity
  8
CUT
100
AcDbPolyline
 90
        4
 70
     1
 43
0.0
 10
1540.8452597822
 20
-792.1154657134204
 10
1534.8452597822
 20
-792.1154657134204
 10
1534.8452597822
 20
-816.8191104839781
 10
1540.8452597822
 20
-816.8191104839781
  0
LWPOLYLINE
  5
95
330
905
100
AcDbEntity
  8
CUT
100
AcDbPolyline
 90
        4
 70
     1
 43
0.0
 10
1538.389860997686
 20
-565.493136810511
 10
1532.394095614811
 20
-565.7185197606398
 10
1533.322059004513
 20
-590.404729451365
 10
1539.317824387308
 20
-590.1793465012235
  0
LWPOLYLINE
  5
96
330
905
100
AcDbEntity
  8
CUT
100
AcDbPolyline
 90
        4
 70
     1
 43
0.0
 10
1429.586519001805
 20
-315.2732781629322
 42
0.4142135623730951
 10
1424.737480134918
 20
-320.1223170298156
 42
0.4142135623730951
 10
1429.586519001805
 20
-324.9713558967008
 42
0.4142135623730951
 10
1434.435557868684
 20
-320.1223170298156
 42
0.4142135623730951
  0
LWPOLYLINE
  5
97
330
905
100
AcDbEntity
  8
CUT
100
AcDbPolyline
 90
        4
 70
     1
 43
0.0
 10
1218.179793363229
 20
-627.487469782419
 42
0.4142135623730951
 10
1189.956439514946
 20
-655.7108236307042
 42
0.4142135623730951
 10
1218.179793363229
 20
-683.9341774789875
 42
0.4142135623730951
 10
1246.403147211513
 20
-655.7108236307042
 42
0.4142135623730951
  0
LWPOLYLINE
  5
98
330
905
100
AcDbEntity
  8
CUT
100
AcDbPolyline
 90
        4
 70
     1
 43
0.0
 10
1524.306770461018
 20
-443.5727186797405
 10
1518.311005078194
 20
-443.7981016299256
 10
1519.238968467903
 20
-468.4843113206509
 10
1525.234733850633
 20
-468.258928370494
  0
LWPOLYLINE
  5
99
330
905
100
AcDbEntity
  8
CUT
100
AcDbPolyline
 90
        4
 70
     1
 43
0.0
 10
1409.920201671801
 20
-471.4452860100448
 10
1269.545963156499
 20
-471.4452860100448
 42
-0.0166273245679448
 10
1278.480188496917
 20
-280.7555530941093
 10
1400.985976331289
 20
-280.7555530941093
 42
-0.0166273245679522
  0
LWPOLYLINE
  5
9A
330
905
100
AcDbEntity
  8
CUT
100
AcDbPolyline
 90
        4
 70
     1
 43
0.0
 10
1325.405907163262
 20
-296.7581071814777
 10
1354.060257665002
 20
-296.7581071814777
 10
1354.060257665002
 20
-302.7581071814704
 10
1325.405907163262
 20
-302.7581071814704
  0
LWPOLYLINE
  5
9B
330
905
100
AcDbEntity
  8
CUT
100
AcDbPolyline
 90
        4
 70
     1
 43
0.0
 10
1336.733082414288
 20
-347.0798567567738
 10
1336.73308241415
 20
-317.5933304449147
 10
1342.733082414106
 20
-317.5933304449147
 10
1342.733082414288
 20
-347.0798567567738
  0
LWPOLYLINE
  5
9C
330
905
100
AcDbEntity
  8
CUT
100
AcDbPolyline
 90
        4
 70
     1
 43
0.0
 10
1336.733082414543
 20
-435.8806240478945
 10
1336.733082414543
 20
-406.3940977359172
 10
1342.733082414441
 20
-406.3940977359172
 10
1342.733082414586
 20
-435.8806240478509
  0
LWPOLYLINE
  5
9D
330
905
100
AcDbEntity
  8
CUT
100
AcDbPolyline
 90
        4
 70
     1
 43
0.0
 10
1325.610000781442
 20
-603.2778355396478
 10
1353.85616404685
 20
-603.2778355396478
 10
1353.85616404685
 20
-609.2778355396396
 10
1325.610000781398
 20
-609.2778355396396
  0
LWPOLYLINE
  5
9E
330
905
100
AcDbEntity
  8
CUT
100
AcDbPolyline
 90
        4
 70
     1
 43
0.0
 10
1228.992627253163
 20
-712.5028144201835
 42
0.4142135623730951
 10
1196.48319939477
 20
-745.0122422785709
 42
0.4142135623730951
 10
1228.992627253163
 20
-777.5216701369601
 42
0.4142135623730951
 10
1261.502055111556
 20
-745.0122422785709
 42
0.4142135623730951
  0
LWPOLYLINE
  5
9F
330
905
100
AcDbEntity
  8
CUT
100
AcDbPolyline
 90
        4
 70
     1
 43
0.0
 10
1319.352040324473
 20
-714.1971437137719
 10
1360.11412450379
 20
-714.1971437137719
 10
1360.11412450379
 20
-720.1971437137647
 10
1319.352040324473
 20
-720.1971437137647
  0
LWPOLYLINE
  5
A0
330
905
100
AcDbEntity
  8
CUT
100
AcDbPolyline
 90
        4
 70
     1
 43
0.0
 10
1221.080364951897
 20
-742.0122422785764
 10
1236.904889554429
 20
-742.0122422785764
 10
1236.904889554429
 20
-748.0122422785682
 10
1221.080364951897
 20
-748.0122422785682
  0
LWPOLYLINE
  5
A1
330
905
100
AcDbEntity
  8
CUT
100
AcDbPolyline
 90
        4
 70
     1
 43
0.0
 10
1461.769276875184
 20
-657.5982236390675
 42
0.4142135623730951
 10
1433.545923026886
 20
-685.8215774873508
 42
0.4142135623730951
 10
1461.769276875184
 20
-714.044931335635
 42
0.4142135623730951
 10
1489.992630723467
 20
-685.8215774873508
 42
0.4142135623730951
  0
LWPOLYLINE
  5
A2
330
905
100
AcDbEntity
  8
CUT
100
AcDbPolyline
 90
        4
 70
     1
 43
0.0
 10
1210.267531061956
 20
-652.710823630707
 10
1226.09205566454
 20
-652.710823630707
 10
1226.09205566454
 20
-658.7108236307005
 10
1210.267531061956
 20
-658.7108236307569
  0
LWPOLYLINE
  5
A3
330
905
100
AcDbEntity
  8
CUT
100
AcDbPolyline
 90
        4
 70
     1
 43
0.0
 10
1445.495837907791
 20
-730.9353728883463
 42
0.4142135623730951
 10
1417.272484059507
 20
-759.1587267366296
 42
0.4142135623730951
 10
1445.495837907791
 20
-787.3820805849147
 42
0.4142135623730951
 10
1473.719191756074
 20
-759.1587267366296
 42
0.4142135623730951
  0
LWPOLYLINE
  5
A4
330
905
100
AcDbEntity
  8
CUT
100
AcDbPolyline
 90
        4
 70
     1
 43
0.0
 10
1453.857014573809
 20
-682.8215774873545
 10
1469.681539176392
 20
-682.8215774873545
 10
1469.681539176392
 20
-688.8215774873462
 10
1453.857014573809
 20
-688.8215774873462
  0
LWPOLYLINE
  5
A5
330
905
100
AcDbEntity
  8
CUT
100
AcDbPolyline
 90
        4
 70
     1
 43
0.0
 10
1272.771051891464
 20
-895.465757625597
 42
0.4142135623730951
 10
1240.261624033079
 20
-927.9751854839853
 42
0.4142135623730951
 10
1272.771051891464
 20
-960.4846133423727
 42
0.4142135623730951
 10
1305.28047974985
 20
-927.9751854839853
 42
0.4142135623730951
  0
LWPOLYLINE
  5
A6
330
905
100
AcDbEntity
  8
CUT
100
AcDbPolyline
 90
        4
 70
     1
 43
0.0
 10
1437.583575606532
 20
-756.1587267366332
 10
1453.408100209108
 20
-756.1587267366332
 10
1453.408100209108
 20
-762.1587267366269
 10
1437.583575606532
 20
-762.1587267366269
  0
LWPOLYLINE
  5
A7
330
905
100
AcDbEntity
  8
CUT
100
AcDbPolyline
 90
        4
 70
     1
 43
0.0
 10
1517.359062717409
 20
-929.4521809914687
 42
0.4142135623730951
 10
1484.849634859023
 20
-961.9616088498581
 42
0.4142135623730951
 10
1517.359062717409
 20
-994.4710367082455
 42
0.4142135623730951
 10
1549.868490575794
 20
-961.9616088498581
 42
0.4142135623730951
  0
LWPOLYLINE
  5
A8
330
905
100
AcDbEntity
  8
CUT
100
AcDbPolyline
 90
        4
 70
     1
 43
0.0
 10
1264.858789590256
 20
-924.9751854839898
 10
1280.68331419268
 20
-924.9751854839898
 10
1280.68331419268
 20
-930.9751854840245
 10
1264.858789590256
 20
-930.9751854840245
  0
LWPOLYLINE
  5
A9
330
905
100
AcDbEntity
  8
CUT
100
AcDbPolyline
 90
        4
 70
     1
 43
0.0
 10
2440.742366645969
 20
-904.3301655762563
 42
0.4142135623730951
 10
2412.519012797686
 20
-932.5535194245397
 42
0.4142135623730951
 10
2440.742366645969
 20
-960.7768732728239
 42
0.4142135623730951
 10
2468.965720494253
 20
-932.5535194245397
 42
0.4142135623730951
  0
LWPOLYLINE
  5
AA
330
905
100
AcDbEntity
  8
CUT
100
AcDbPolyline
 90
        4
 70
     1
 43
0.0
 10
1509.446800416157
 20
-958.9616088499054
 10
1525.271325018631
 20
-958.9616088499054
 10
1525.271325018631
 20
-964.9616088498534
 10
1509.446800416157
 20
-964.9616088498971
  0
LWPOLYLINE
  5
AB
330
905
100
AcDbEntity
  8
CUT
100
AcDbPolyline
 90
        4
 70
     1
 43
0.0
 10
2357.505180800039
 20
-800.9947399971526
 42
0.4142135623730951
 10
2333.303636587018
 20
-825.1962842101669
 42
0.4142135623730951
 10
2357.505180800039
 20
-849.3978284231827
 42
0.4142135623730951
 10
2381.706725013046
 20
-825.1962842101669
 42
0.4142135623730951
  0
LWPOLYLINE
  5
AC
330
905
100
AcDbEntity
  8
CUT
100
AcDbPolyline
 90
        4
 70
     1
 43
0.0
 10
2432.830104344747
 20
-929.5535194245433
 10
2448.654628947228
 20
-929.5535194245433
 10
2448.654628947228
 20
-935.5535194245351
 10
2432.830104344747
 20
-935.5535194245351
  0
LWPOLYLINE
  5
AD
330
905
100
AcDbEntity
  8
CUT
100
AcDbPolyline
 90
        4
 70
     1
 43
0.0
 10
2349.592918498758
 20
-822.1962842101714
 10
2365.417443101232
 20
-822.1962842101714
 10
2365.417443101232
 20
-828.1962842101631
 10
2349.592918498758
 20
-828.1962842101931
  0
LWPOLYLINE
  5
AE
330
905
100
AcDbEntity
  8
CUT
100
AcDbPolyline
 90
        8
 70
     1
 43
0.0
 10
1759.112309646345
 20
-561.7744862013799
 42
-0.0180143768097368
 10
1771.392302833268
 20
-672.05989661225
 10
1713.139408916071
 20
-672.0598966122936
 10
1713.139408916071
 20
-628.7188340874556
 10
1707.139408916129
 20
-628.7188340874556
 10
1707.139408916129
 20
-672.0598966122936
 10
1648.886514998881
 20
-672.0598966122936
 42
-0.0180143768097326
 10
1661.166508185797
 20
-561.7744862014953
  0
LWPOLYLINE
  5
AF
330
905
100
AcDbEntity
  8
CUT
100
AcDbPolyline
 90
        8
 70
     1
 43
0.0
 10
1753.427258826439
 20
-320.8234102796225
 42
-0.0180143768097368
 10
1765.70725201326
 20
-431.1088206904798
 10
1707.454358096071
 20
-431.108820690538
 10
1707.454358096071
 20
-378.7231092962104
 10
1701.454358096121
 20
-378.7231092962104
 10
1701.454358096121
 20
-431.108820690538
 10
1643.201464178946
 20
-431.108820690538
 42
-0.0180143768097326
 10
1655.481457365789
 20
-320.8234102797098
  0
LWPOLYLINE
  5
B0
330
905
100
AcDbEntity
  8
CUT
100
AcDbPolyline
 90
       18
 70
     1
 43
0.0
 10
1659.914947735942
 20
-842.7342838677953
 42
0.0426244155384593
 10
1674.204029218807
 20
-833.6676342532811
 42
0.0397725639578903
 10
1691.707731225568
 20
-816.9098598539424
 42
-0.2384164260070884
 10
1700.343817177109
 20
-812.9180258760946
 10
1701.28108322588
 20
-812.9180258760946
 10
1701.28108322588
 20
-820.2604004434791
 10
1737.857156966503
 20
-820.2604004434208
 10
1737.857156966503
 20
-850.2349099369887
 10
1701.324731118049
 20
-850.2349099369887
 10
1701.324731118049
 20
-856.2349099369814
 10
1737.857156966503
 20
-856.2349099369814
 10
1737.857156966503
 20
-886.2094194304621
 10
1714.487776708756
 20
-886.2094194304621
 10
1713.81954910207
 20
-883.7155600514808
 42
0.3234301748893209
 10
1696.381983344367
 20
-869.5168949422697
 42
0.0728986349424774
 10
1647.172027091237
 20
-873.8480930721536
 42
-0.3887276311008383
 10
1645.472683861775
 20
-872.9016200380412
 42
-0.1281021323497871
 10
1644.78505550334
 20
-862.5458726636255
 42
-0.2360911561404911
  0
LWPOLYLINE
  5
B1
330
905
100
AcDbEntity
  8
CUT
100
AcDbPolyline
 90
       18
 70
     1
 43
0.0
 10
1827.799366197181
 20
-842.7342838677953
 42
-0.0426244155384593
 10
1813.510284714353
 20
-833.6676342532811
 42
-0.0397725639578903
 10
1796.006582707483
 20
-816.9098598539424
 42
0.2384164260070884
 10
1787.370496755855
 20
-812.9180258760946
 10
1786.433230707127
 20
-812.9180258760946
 10
1786.433230707127
 20
-820.2604004434791
 10
1749.857156966504
 20
-820.2604004434208
 10
1749.857156966504
 20
-850.2349099369887
 10
1786.389582815009
 20
-850.2349099369887
 10
1786.389582815009
 20
-856.2349099369814
 10
1749.857156966504
 20
-856.2349099369814
 10
1749.857156966504
 20
-886.2094194304621
 10
1773.226537224396
 20
-886.2094194304621
 10
1773.894764831009
 20
-883.7155600514808
 42
-0.3234301748893209
 10
1791.332330588684
 20
-869.5168949422697
 42
-0.0728986349424774
 10
1840.542286841821
 20
-873.8480930721536
 42
0.3887276311008383
 10
1842.241630071276
 20
-872.9016200380412
 42
0.1281021323497871
 10
1842.929258429674
 20
-862.5458726636255
 42
0.2360911561404911
  0
LWPOLYLINE
  5
B2
330
905
100
AcDbEntity
  8
CUT
100
AcDbPolyline
 90
       10
 70
     1
 43
0.0
 10
1653.414066196998
 20
-984.4311341827253
 10
1653.414066196998
 20
-933.2152104839108
 42
-0.4142135623730951
 10
1663.014066197003
 20
-923.6152104839186
 10
1677.408363981365
 20
-923.6152104839186
 10
1677.408363981365
 20
-946.4713499480614
 10
1689.959463962263
 20
-946.4713499480614
 10
1689.959463962263
 20
-971.1749947185756
 10
1677.408363981365
 20
-971.1749947185756
 10
1677.408363981365
 20
-994.0311341827047
 10
1663.014066197003
 20
-994.0311341827047
 42
-0.4142135623730951
  0
LWPOLYLINE
  5
B3
330
905
100
AcDbEntity
  8
CUT
100
AcDbPolyline
 90
        4
 70
     1
 43
0.0
 10
1665.850095928999
 20
-963.4764177959835
 42
0.4142135623730951
 10
1662.292575928539
 20
-967.0339377964475
 42
0.4142135623730951
 10
1665.850095928999
 20
-970.5914577969117
 42
0.4142135623730951
 10
1669.40761592946
 20
-967.0339377964475
 42
0.4142135623730951
  0
LWPOLYLINE
  5
B4
330
905
100
AcDbEntity
  8
CUT
100
AcDbPolyline
 90
        4
 70
     1
 43
0.0
 10
1665.850095928999
 20
-979.8979487222124
 42
0.4142135623730951
 10
1662.292575928539
 20
-983.4554687226766
 42
0.4142135623730951
 10
1665.850095928999
 20
-987.0129887231408
 42
0.4142135623730951
 10
1669.40761592946
 20
-983.4554687226766
 42
0.4142135623730951
  0
LWPOLYLINE
  5
B5
330
905
100
AcDbEntity
  8
CUT
100
AcDbPolyline
 90
        4
 70
     1
 43
0.0
 10
1665.850095928999
 20
-947.0548868697253
 42
0.4142135623730951
 10
1662.292575928539
 20
-950.6124068701895
 42
0.4142135623730951
 10
1665.850095928999
 20
-954.1699268706546
 42
0.4142135623730951
 10
1669.40761592946
 20
-950.6124068701895
 42
0.4142135623730951
  0
LWPOLYLINE
  5
B6
330
905
100
AcDbEntity
  8
CUT
100
AcDbPolyline
 90
        4
 70
     1
 43
0.0
 10
1665.850095928999
 20
-930.6333559434508
 42
0.4142135623730951
 10
1662.292575928539
 20
-934.1908759439149
 42
0.4142135623730951
 10
1665.850095928999
 20
-937.7483959443809
 42
0.4142135623730951
 10
1669.40761592946
 20
-934.1908759439149
 42
0.4142135623730951
  0
LWPOLYLINE
  5
B7
330
905
100
AcDbEntity
  8
CUT
100
AcDbPolyline
 90
       10
 70
     1
 43
0.0
 10
1738.504861727673
 20
-984.4311341827253
 10
1738.504861727673
 20
-933.2152104839108
 42
0.4142135623730951
 10
1728.90486172758
 20
-923.6152104839186
 10
1714.510563943262
 20
-923.6152104839186
 10
1714.510563943262
 20
-946.4713499480614
 10
1701.959463962263
 20
-946.4713499480614
 10
1701.959463962263
 20
-971.1749947185756
 10
1714.510563943262
 20
-971.1749947185756
 10
1714.510563943262
 20
-994.0311341827047
 10
1728.90486172758
 20
-994.0311341827047
 42
0.4142135623730951
  0
LWPOLYLINE
  5
B8
330
905
100
AcDbEntity
  8
CUT
100
AcDbPolyline
 90
        4
 70
     1
 43
0.0
 10
1726.068831995628
 20
-963.4764177959835
 42
0.4142135623730951
 10
1722.511311995167
 20
-967.0339377964475
 42
0.4142135623730951
 10
1726.068831995628
 20
-970.5914577969117
 42
0.4142135623730951
 10
1729.626351996088
 20
-967.0339377964475
 42
0.4142135623730951
  0
LWPOLYLINE
  5
B9
330
905
100
AcDbEntity
  8
CUT
100
AcDbPolyline
 90
        4
 70
     1
 43
0.0
 10
1726.068831995628
 20
-979.8979487222124
 42
0.4142135623730951
 10
1722.511311995167
 20
-983.4554687226766
 42
0.4142135623730951
 10
1726.068831995628
 20
-987.0129887231408
 42
0.4142135623730951
 10
1729.626351996088
 20
-983.4554687226766
 42
0.4142135623730951
  0
LWPOLYLINE
  5
BA
330
905
100
AcDbEntity
  8
CUT
100
AcDbPolyline
 90
        4
 70
     1
 43
0.0
 10
1726.068831995628
 20
-947.0548868697253
 42
0.4142135623730951
 10
1722.511311995167
 20
-950.6124068701895
 42
0.4142135623730951
 10
1726.068831995628
 20
-954.1699268706546
 42
0.4142135623730951
 10
1729.626351996088
 20
-950.6124068701895
 42
0.4142135623730951
  0
LWPOLYLINE
  5
BB
330
905
100
AcDbEntity
  8
CUT
100
AcDbPolyline
 90
        4
 70
     1
 43
0.0
 10
1726.068831995628
 20
-930.6333559434508
 42
0.4142135623730951
 10
1722.511311995167
 20
-934.1908759439149
 42
0.4142135623730951
 10
1726.068831995628
 20
-937.7483959443809
 42
0.4142135623730951
 10
1729.626351996088
 20
-934.1908759439149
 42
0.4142135623730951
  0
LWPOLYLINE
  5
BC
330
905
100
AcDbEntity
  8
CUT
100
AcDbPolyline
 90
       10
 70
     1
 43
0.0
 10
2155.608426844523
 20
-1005.342247257227
 10
2155.608426844523
 20
-954.1263235584439
 42
-0.4142135623730951
 10
2165.208426844522
 20
-944.5263235584491
 10
2179.602724628884
 20
-944.5263235584491
 10
2179.602724628884
 20
-967.3824630225347
 10
2192.153824609846
 20
-967.3824630225347
 10
2192.153824609846
 20
-992.0861077930924
 10
2179.602724628884
 20
-992.0861077930924
 10
2179.602724628884
 20
-1014.94224725722
 10
2165.208426844522
 20
-1014.94224725722
 42
-0.4142135623730951
  0
LWPOLYLINE
  5
BD
330
905
100
AcDbEntity
  8
CUT
100
AcDbPolyline
 90
        4
 70
     1
 43
0.0
 10
2168.044456576518
 20
-984.3875308704557
 42
0.4142135623730951
 10
2164.48693657605
 20
-987.9450508709208
 42
0.4142135623730951
 10
2168.044456576518
 20
-991.502570871385
 42
0.4142135623730951
 10
2171.601976576985
 20
-987.9450508709208
 42
0.4142135623730951
  0
LWPOLYLINE
  5
BE
330
905
100
AcDbEntity
  8
CUT
100
AcDbPolyline
 90
        4
 70
     1
 43
0.0
 10
2168.044456576518
 20
-1000.809061796729
 42
0.4142135623730951
 10
2164.48693657605
 20
-1004.366581797193
 42
0.4142135623730951
 10
2168.044456576518
 20
-1007.924101797657
 42
0.4142135623730951
 10
2171.601976576985
 20
-1004.366581797193
 42
0.4142135623730951
  0
LWPOLYLINE
  5
BF
330
905
100
AcDbEntity
  8
CUT
100
AcDbPolyline
 90
        4
 70
     1
 43
0.0
 10
2168.044456576518
 20
-967.9659999442403
 42
0.4142135623730951
 10
2164.48693657605
 20
-971.5235199447063
 42
0.4142135623730951
 10
2168.044456576518
 20
-975.0810399451705
 42
0.4142135623730951
 10
2171.601976576985
 20
-971.5235199447063
 42
0.4142135623730951
  0
LWPOLYLINE
  5
C0
330
905
100
AcDbEntity
  8
CUT
100
AcDbPolyline
 90
        4
 70
     1
 43
0.0
 10
2168.044456576518
 20
-951.5444690180258
 42
0.4142135623730951
 10
2164.48693657605
 20
-955.1019890184917
 42
0.4142135623730951
 10
2168.044456576518
 20
-958.6595090189559
 42
0.4142135623730951
 10
2171.601976576985
 20
-955.1019890184917
 42
0.4142135623730951
  0
LWPOLYLINE
  5
C1
330
905
100
AcDbEntity
  8
CUT
100
AcDbPolyline
 90
       10
 70
     1
 43
0.0
 10
2240.699222375046
 20
-1005.342247257227
 10
2240.699222375046
 20
-954.1263235584439
 42
0.4142135623730951
 10
2231.099222375105
 20
-944.5263235584491
 10
2216.704924590722
 20
-944.5263235584491
 10
2216.704924590722
 20
-967.3824630225347
 10
2204.153824609846
 20
-967.3824630225347
 10
2204.153824609846
 20
-992.0861077930924
 10
2216.704924590722
 20
-992.0861077930924
 10
2216.704924590722
 20
-1014.94224725722
 10
2231.099222375105
 20
-1014.94224725722
 42
0.4142135623730951
  0
LWPOLYLINE
  5
C2
330
905
100
AcDbEntity
  8
CUT
100
AcDbPolyline
 90
        4
 70
     1
 43
0.0
 10
2228.263192643088
 20
-984.3875308704557
 42
0.4142135623730951
 10
2224.705672642627
 20
-987.9450508709208
 42
0.4142135623730951
 10
2228.263192643088
 20
-991.502570871385
 42
0.4142135623730951
 10
2231.820712643556
 20
-987.9450508709208
 42
0.4142135623730951
  0
LWPOLYLINE
  5
C3
330
905
100
AcDbEntity
  8
CUT
100
AcDbPolyline
 90
        4
 70
     1
 43
0.0
 10
2228.263192643088
 20
-1000.809061796729
 42
0.4142135623730951
 10
2224.705672642627
 20
-1004.366581797193
 42
0.4142135623730951
 10
2228.263192643088
 20
-1007.924101797657
 42
0.4142135623730951
 10
2231.820712643556
 20
-1004.366581797193
 42
0.4142135623730951
  0
LWPOLYLINE
  5
C4
330
905
100
AcDbEntity
  8
CUT
100
AcDbPolyline
 90
        4
 70
     1
 43
0.0
 10
2228.263192643088
 20
-967.9659999442403
 42
0.4142135623730951
 10
2224.705672642627
 20
-971.5235199447063
 42
0.4142135623730951
 10
2228.263192643088
 20
-975.0810399451705
 42
0.4142135623730951
 10
2231.820712643556
 20
-971.5235199447063
 42
0.4142135623730951
  0
LWPOLYLINE
  5
C5
330
905
100
AcDbEntity
  8
CUT
100
AcDbPolyline
 90
        4
 70
     1
 43
0.0
 10
2228.263192643088
 20
-951.5444690180258
 42
0.4142135623730951
 10
2224.705672642627
 20
-955.1019890184917
 42
0.4142135623730951
 10
2228.263192643088
 20
-958.6595090189559
 42
0.4142135623730951
 10
2231.820712643556
 20
-955.1019890184917
 42
0.4142135623730951
  0
LWPOLYLINE
  5
C6
330
905
100
AcDbEntity
  8
CUT
100
AcDbPolyline
 90
        4
 70
     1
 43
0.0
 10
1818.654592594245
 20
-939.2626539408185
 42
0.4142135623730951
 10
1799.562520626375
 20
-958.3547259086801
 42
0.4142135623730951
 10
1818.654592594245
 20
-977.4467978765427
 42
0.4142135623730951
 10
1837.746664562098
 20
-958.3547259086801
 42
0.4142135623730951
  0
LWPOLYLINE
  5
C7
330
905
100
AcDbEntity
  8
CUT
100
AcDbPolyline
 90
        4
 70
     1
 43
0.0
 10
1818.654592594245
 20
-952.9257749925148
 42
0.4142135623730951
 10
1813.225641678076
 20
-958.3547259086801
 42
0.4142135623730951
 10
1818.654592594245
 20
-963.7836768248464
 42
0.4142135623730951
 10
1824.083543510406
 20
-958.3547259086801
 42
0.4142135623730951
  0
LWPOLYLINE
  5
C8
330
905
100
AcDbEntity
  8
CUT
100
AcDbPolyline
 90
       14
 70
     1
 43
0.0
 10
2053.760604457744
 20
-1000.609237753996
 42
-0.0590302187185171
 10
2039.793198631025
 20
-998.830004547149
 42
-0.1476743393650191
 10
2027.582168057586
 20
-988.4691422233375
 42
0.2167336511185117
 10
2012.675146448612
 20
-979.9918026338021
 10
2004.686243203392
 20
-979.9918026338021
 10
2004.686243203392
 20
-943.4157288931395
 10
2034.660752696891
 20
-943.4157288931395
 10
2034.660752696891
 20
-979.9481547416265
 10
2040.660752696934
 20
-979.9481547416265
 10
2040.660752696934
 20
-943.4157288931395
 10
2070.635262190375
 20
-943.4157288931395
 10
2070.635262190419
 20
-966.7851091509866
 10
2068.141402811434
 20
-967.4533367575989
 42
0.3234301748893209
 10
2053.942737702211
 20
-984.8909025153099
 42
0.0230863905461225
  0
LWPOLYLINE
  5
C9
330
905
100
AcDbEntity
  8
CUT
100
AcDbPolyline
 90
       14
 70
     1
 43
0.0
 10
2053.760604457744
 20
-874.2222200323279
 42
0.0590302187185171
 10
2039.793198631025
 20
-876.0014532391599
 42
0.1476743393650191
 10
2027.582168057586
 20
-886.3623155630296
 42
-0.2167336511185117
 10
2012.675146448612
 20
-894.839655152565
 10
2004.686243203392
 20
-894.839655152565
 10
2004.686243203392
 20
-931.4157288931994
 10
2034.660752696891
 20
-931.4157288931994
 10
2034.660752696891
 20
-894.8833030446978
 10
2040.660752696934
 20
-894.8833030446978
 10
2040.660752696934
 20
-931.4157288931994
 10
2070.635262190375
 20
-931.4157288931994
 10
2070.635262190419
 20
-908.0463486353231
 10
2068.141402811434
 20
-907.3781210287245
 42
-0.3234301748893209
 10
2053.942737702211
 20
-889.9405552709998
 42
-0.0230863905461225
  0
LWPOLYLINE
  5
CA
330
905
100
AcDbEntity
  8
CUT
100
AcDbPolyline
 90
       10
 70
     1
 43
0.0
 10
2056.067155035267
 20
-355.4039007863696
 10
2023.952418156285
 20
-355.4039007863696
 42
-0.4142135623730951
 10
2014.352418156199
 20
-345.8039007863774
 10
2014.352418156199
 20
-333.9404956707824
 10
2027.657964210532
 20
-333.9404956707824
 10
2027.657964210532
 20
-321.3893956898494
 10
2052.361608981021
 20
-321.3893956898494
 10
2052.361608981021
 20
-333.9404956707824
 10
2065.667155035229
 20
-333.9404956707824
 10
2065.667155035229
 20
-345.8039007863774
 42
-0.4142135623730951
  0
LWPOLYLINE
  5
CB
330
905
100
AcDbEntity
  8
CUT
100
AcDbPolyline
 90
        4
 70
     1
 43
0.0
 10
2039.832776146952
 20
-341.0430076723544
 42
0.4142135623730951
 10
2036.275256146484
 20
-344.6005276728204
 42
0.4142135623730951
 10
2039.832776146952
 20
-348.1580476732845
 42
0.4142135623730951
 10
2043.390296147419
 20
-344.6005276728204
 42
0.4142135623730951
  0
LWPOLYLINE
  5
CC
330
905
100
AcDbEntity
  8
CUT
100
AcDbPolyline
 90
        4
 70
     1
 43
0.0
 10
2025.739736320906
 20
-341.0430076723544
 42
0.4142135623730951
 10
2022.182216320445
 20
-344.6005276728204
 42
0.4142135623730951
 10
2025.739736320906
 20
-348.1580476732845
 42
0.4142135623730951
 10
2029.297256321366
 20
-344.6005276728204
 42
0.4142135623730951
  0
LWPOLYLINE
  5
CD
330
905
100
AcDbEntity
  8
CUT
100
AcDbPolyline
 90
        4
 70
     1
 43
0.0
 10
2054.279836870617
 20
-341.0430076723544
 42
0.4142135623730951
 10
2050.722316870157
 20
-344.6005276728204
 42
0.4142135623730951
 10
2054.279836870617
 20
-348.1580476732845
 42
0.4142135623730951
 10
2057.837356871078
 20
-344.6005276728204
 42
0.4142135623730951
  0
LWPOLYLINE
  5
CE
330
905
100
AcDbEntity
  8
CUT
100
AcDbPolyline
 90
       10
 70
     1
 43
0.0
 10
2056.067155035267
 20
-275.3748905933437
 10
2023.952418156285
 20
-275.3748905933437
 42
0.4142135623730951
 10
2014.352418156199
 20
-284.9748905933386
 10
2014.352418156199
 20
-296.8382957089336
 10
2027.657964210532
 20
-296.8382957089336
 10
2027.657964210532
 20
-309.3893956898658
 10
2052.361608981021
 20
-309.3893956898658
 10
2052.361608981021
 20
-296.8382957089336
 10
2065.667155035229
 20
-296.8382957089336
 10
2065.667155035229
 20
-284.9748905933386
 42
0.4142135623730951
  0
LWPOLYLINE
  5
CF
330
905
100
AcDbEntity
  8
CUT
100
AcDbPolyline
 90
        4
 70
     1
 43
0.0
 10
2039.832776146952
 20
-282.6207437064324
 42
0.4142135623730951
 10
2036.275256146484
 20
-286.1782637068966
 42
0.4142135623730951
 10
2039.832776146952
 20
-289.7357837073607
 42
0.4142135623730951
 10
2043.390296147419
 20
-286.1782637068966
 42
0.4142135623730951
  0
LWPOLYLINE
  5
D0
330
905
100
AcDbEntity
  8
CUT
100
AcDbPolyline
 90
        4
 70
     1
 43
0.0
 10
2025.739736320906
 20
-282.6207437064324
 42
0.4142135623730951
 10
2022.182216320445
 20
-286.1782637068966
 42
0.4142135623730951
 10
2025.739736320906
 20
-289.7357837073607
 42
0.4142135623730951
 10
2029.297256321366
 20
-286.1782637068966
 42
0.4142135623730951
  0
LWPOLYLINE
  5
D1
330
905
100
AcDbEntity
  8
CUT
100
AcDbPolyline
 90
        4
 70
     1
 43
0.0
 10
2054.279836870617
 20
-282.6207437064324
 42
0.4142135623730951
 10
2050.722316870157
 20
-286.1782637068966
 42
0.4142135623730951
 10
2054.279836870617
 20
-289.7357837073607
 42
0.4142135623730951
 10
2057.837356871078
 20
-286.1782637068966
 42
0.4142135623730951
  0
LWPOLYLINE
  5
D2
330
905
100
AcDbEntity
  8
CUT
100
AcDbPolyline
 90
        4
 70
     1
 43
0.0
 10
1990.642928788856
 20
-366.7831774343278
 42
0.4142135623730951
 10
1987.747334391588
 20
-369.6787718315956
 42
0.4142135623730951
 10
1990.642928788856
 20
-372.5743662288635
 42
0.4142135623730951
 10
1993.538523186126
 20
-369.6787718315956
 42
0.4142135623730951
  0
LWPOLYLINE
  5
D3
330
905
100
AcDbEntity
  8
CUT
100
AcDbPolyline
 90
        4
 70
     1
 43
0.0
 10
2050.09073178317
 20
-513.3442113163794
 42
0.4142135623730951
 10
2047.195137385901
 20
-516.2398057136472
 42
0.4142135623730951
 10
2050.09073178317
 20
-519.135400110915
 42
0.4142135623730951
 10
2052.986326180431
 20
-516.2398057136472
 42
0.4142135623730951
  0
LWPOLYLINE
  5
D4
330
905
100
AcDbEntity
  8
CUT
100
AcDbPolyline
 90
       15
 70
     1
 43
0.0
 10
1965.47854398793
 20
-626.6551616169047
 42
0.1757827936301821
 10
1982.575239904425
 20
-624.5448193810054
 42
0.1363017012246436
 10
1990.878664903354
 20
-616.0042177129537
 42
-0.0519166182028184
 10
2002.497518822897
 20
-599.0794046889743
 42
-0.0216610386136873
 10
2015.117479674922
 20
-585.7444228696233
 42
0.2030150635975273
 10
2017.405115962374
 20
-580.3424811280904
 10
2017.405115962418
 20
-543.7664073874568
 10
1987.430606468941
 20
-543.7664073874568
 10
1987.430606468941
 20
-580.2988332359011
 10
1981.430606468882
 20
-580.2988332359011
 10
1981.430606468882
 20
-543.7664073874568
 10
1951.456096975362
 20
-543.7664073874568
 10
1951.456096975362
 20
-567.1357876452759
 10
1953.949956354354
 20
-567.8040152519172
 42
-0.3234301748893209
 10
1968.148621463577
 20
-585.2415810095965
 42
-0.0611438945961496
  0
LWPOLYLINE
  5
D5
330
905
100
AcDbEntity
  8
CUT
100
AcDbPolyline
 90
       15
 70
     1
 43
0.0
 10
1965.47854398793
 20
-448.877653158039
 42
-0.1757827936301821
 10
1982.575239904425
 20
-450.9879953939382
 42
-0.1363017012246436
 10
1990.878664903354
 20
-459.5285970619327
 42
0.0519166182028184
 10
2002.497518822897
 20
-476.4534100859411
 42
0.0216610386136873
 10
2015.117479674922
 20
-489.7883919053058
 42
-0.2030150635975273
 10
2017.405115962374
 20
-495.1903336468096
 10
2017.405115962418
 20
-531.7664073874732
 10
1987.430606468941
 20
-531.7664073874732
 10
1987.430606468941
 20
-495.2339815389871
 10
1981.430606468882
 20
-495.2339815389871
 10
1981.430606468882
 20
-531.7664073874732
 10
1951.456096975362
 20
-531.7664073874732
 10
1951.456096975362
 20
-508.3970271296696
 10
1953.949956354354
 20
-507.7287995230137
 42
0.3234301748893209
 10
1968.148621463577
 20
-490.2912337652881
 42
0.0611438945961496
  0
LWPOLYLINE
  5
D6
330
905
100
AcDbEntity
  8
CUT
100
AcDbPolyline
 90
       20
 70
     1
 43
0.0
 10
2003.274148979665
 20
-797.4492317984215
 42
0.1020570737190816
 10
1990.918060376363
 20
-781.6666295141069
 42
-0.086221098075232
 10
1983.245713000328
 20
-772.4762184522689
 42
-0.1316524975874009
 10
1980.547174004034
 20
-762.4051338118144
 10
1980.547174004034
 20
-760.7763391407945
 10
1991.724310823872
 20
-760.7763391407945
 10
1991.724310823763
 20
-724.2002654001601
 10
2021.698820317364
 20
-724.2002654001601
 10
2021.698820317364
 20
-760.7326912486471
 10
2027.698820317263
 20
-760.7326912486471
 10
2027.698820317263
 20
-724.2002654001601
 10
2057.673329810841
 20
-724.2002654001601
 10
2057.673329810841
 20
-747.5696456580219
 10
2055.179470431806
 20
-748.2378732646341
 42
0.3234301748893696
 10
2040.980805322626
 20
-765.6754390223607
 42
0.0920367652210203
 10
2048.781996698792
 20
-827.358118557516
 42
-0.3546794712539152
 10
2048.341912639644
 20
-828.4850158985348
 42
-0.1595686863051462
 10
2038.763282901546
 20
-830.430074457265
 42
-0.1442621139933906
 10
2019.015748802555
 20
-822.0185349392789
 42
-0.1107363399531637
 10
2008.815546410839
 20
-808.9027303239237
 42
0.005097521952896
  0
LWPOLYLINE
  5
D7
330
905
100
AcDbEntity
  8
CUT
100
AcDbPolyline
 90
       20
 70
     1
 43
0.0
 10
2003.274148979665
 20
-638.9512990020314
 42
-0.1020570737190816
 10
1990.918060376363
 20
-654.7339012862878
 42
0.086221098075232
 10
1983.245713000328
 20
-663.9243123481394
 42
0.1316524975874009
 10
1980.547174004034
 20
-673.9953969885812
 10
1980.547174004034
 20
-675.6241916596147
 10
1991.724310823872
 20
-675.6241916596147
 10
1991.724310823763
 20
-712.2002654002201
 10
2021.698820317364
 20
-712.2002654002201
 10
2021.698820317364
 20
-675.667839551734
 10
2027.698820317263
 20
-675.667839551734
 10
2027.698820317263
 20
-712.2002654002201
 10
2057.673329810841
 20
-712.2002654002201
 10
2057.673329810841
 20
-688.8308851424165
 10
2055.179470431806
 20
-688.1626575357615
 42
-0.3234301748893696
 10
2040.980805322626
 20
-670.7250917780505
 42
-0.0920367652210203
 10
2048.781996698792
 20
-609.0424122428769
 42
0.3546794712539152
 10
2048.341912639644
 20
-607.9155149018609
 42
0.1595686863051462
 10
2038.763282901546
 20
-605.9704563431307
 42
0.1442621139933906
 10
2019.015748802555
 20
-614.3819958611032
 42
0.1107363399531637
 10
2008.815546410839
 20
-627.4978004764728
 42
-0.005097521952896
  0
LWPOLYLINE
  5
D8
330
905
100
AcDbEntity
  8
CUT
100
AcDbPolyline
 90
        4
 70
     1
 43
0.0
 10
2003.106426027557
 20
-838.3335291461238
 42
0.4142135623730951
 10
1984.014354059695
 20
-857.4256011139853
 42
0.4142135623730951
 10
2003.106426027557
 20
-876.5176730818469
 42
0.4142135623730951
 10
2022.198497995425
 20
-857.4256011139853
 42
0.4142135623730951
  0
LWPOLYLINE
  5
D9
330
905
100
AcDbEntity
  8
CUT
100
AcDbPolyline
 90
        4
 70
     1
 43
0.0
 10
2003.106426027557
 20
-851.996650197819
 42
0.4142135623730951
 10
1997.677475111395
 20
-857.4256011139853
 42
0.4142135623730951
 10
2003.106426027557
 20
-862.8545520301516
 42
0.4142135623730951
 10
2008.535376943731
 20
-857.4256011139853
 42
0.4142135623730951
  0
LWPOLYLINE
  5
DA
330
905
100
AcDbEntity
  8
CUT
100
AcDbPolyline
 90
       24
 70
     1
 43
0.0
 10
1898.177489831341
 20
-992.8879743726595
 10
1898.177489831341
 20
-924.3177404173813
 10
1931.075237150504
 20
-924.3177404173813
 10
1931.075237150504
 20
-918.3177404173887
 10
1898.177489831341
 20
-918.3177404173887
 10
1898.177489831341
 20
-849.7475064621406
 42
-0.1409331551031925
 10
1905.442615413562
 20
-845.0832550145198
 10
1922.622069699366
 20
-845.0832550145198
 42
-0.140933155103229
 10
1929.88719528155
 20
-849.7475064621406
 10
1929.88719528155
 20
-854.1470100179223
 10
1914.032342556438
 20
-854.1470100179223
 10
1914.032342556438
 20
-860.147010017916
 10
1929.88719528155
 20
-860.147010017916
 10
1929.88719528155
 20
-866.1470100179078
 10
1964.411602905271
 20
-866.1470100179078
 10
1964.411602905271
 20
-976.4884708168477
 10
1929.88719528155
 20
-976.4884708168477
 10
1929.88719528155
 20
-982.4884708168404
 10
1914.032342556438
 20
-982.4884708168404
 10
1914.032342556438
 20
-988.4884708168321
 10
1929.88719528155
 20
-988.4884708168321
 10
1929.88719528155
 20
-992.8879743726158
 42
-0.1409331551032388
 10
1922.622069699366
 20
-997.5522258202502
 10
1905.442615413562
 20
-997.5522258202502
 42
-0.1409331551032246
  0
LWPOLYLINE
  5
DB
330
905
100
AcDbEntity
  8
CUT
100
AcDbPolyline
 90
       18
 70
     1
 43
0.0
 10
2289.087628651392
 20
-648.5377912781871
 42
-0.1341457583551004
 10
2297.770600051776
 20
-640.3074359860468
 42
-0.1185356831527709
 10
2318.005622773588
 20
-635.4062051459816
 10
2318.005622773588
 20
-700.4474430985794
 10
2324.00562277369
 20
-700.4474430985794
 10
2324.00562277369
 20
-635.4062051459816
 42
-0.1185356831527709
 10
2344.240645495443
 20
-640.3074359860468
 42
-0.1341457583551004
 10
2352.92361689587
 20
-648.5377912781871
 10
2333.157670396667
 20
-648.5377912781871
 10
2354.351167346464
 20
-690.2463977028449
 10
2354.351167346464
 20
-702.8096554655832
 10
2388.176353173123
 20
-702.8096554655832
 10
2388.176353173036
 20
-765.9559223124026
 10
2253.834892374249
 20
-765.9559223124026
 10
2253.834892374249
 20
-702.8096554655832
 10
2287.660078200785
 20
-702.8096554655832
 10
2287.660078200785
 20
-690.2463977028449
 10
2308.85357515061
 20
-648.5377912781871
  0
LWPOLYLINE
  5
DC
330
905
100
AcDbEntity
  8
CUT
100
AcDbPolyline
 90
        4
 70
     1
 43
0.0
 10
2333.149895218721
 20
-572.1732679616373
 42
0.4142135623730951
 10
2314.057823250852
 20
-591.2653399294988
 42
0.4142135623730951
 10
2333.149895218721
 20
-610.3574118973622
 42
0.4142135623730951
 10
2352.241967186575
 20
-591.2653399294988
 42
0.4142135623730951
  0
LWPOLYLINE
  5
DD
330
905
100
AcDbEntity
  8
CUT
100
AcDbPolyline
 90
        4
 70
     1
 43
0.0
 10
2333.149895218721
 20
-585.8363890133325
 42
0.4142135623730951
 10
2327.720944302553
 20
-591.2653399294988
 42
0.4142135623730951
 10
2333.149895218721
 20
-596.694290845666
 42
0.4142135623730951
 10
2338.578846134882
 20
-591.2653399294988
 42
0.4142135623730951
  0
LWPOLYLINE
  5
DE
330
905
100
AcDbEntity
  8
CUT
100
AcDbPolyline
 90
        4
 70
     1
 43
0.0
 10
2338.018006270522
 20
-510.3044390605557
 42
0.4142135623730951
 10
2318.925934302661
 20
-529.3965110284182
 42
0.4142135623730951
 10
2338.018006270522
 20
-548.4885829962798
 42
0.4142135623730951
 10
2357.110078238384
 20
-529.3965110284182
 42
0.4142135623730951
  0
LWPOLYLINE
  5
DF
330
905
100
AcDbEntity
  8
CUT
100
AcDbPolyline
 90
        4
 70
     1
 43
0.0
 10
2338.018006270522
 20
-523.9675601122519
 42
0.4142135623730951
 10
2332.589055354354
 20
-529.3965110284182
 42
0.4142135623730951
 10
2338.018006270522
 20
-534.8254619445845
 42
0.4142135623730951
 10
2343.44695718669
 20
-529.3965110284182
 42
0.4142135623730951
  0
LWPOLYLINE
  5
E0
330
905
100
AcDbEntity
  8
CUT
100
AcDbPolyline
 90
       18
 70
     1
 43
0.0
 10
2416.774687736408
 20
-738.4233180237945
 10
2416.774687736408
 20
-640.414898618181
 10
2398.647427412299
 20
-640.414898618181
 10
2398.647427412299
 20
-634.4148986181892
 10
2416.774687736467
 20
-634.4148986181892
 10
2416.774687736467
 20
-403.1597430182348
 10
2398.647427412299
 20
-403.1597430182348
 10
2398.647427412299
 20
-397.1597430182858
 10
2416.774687736467
 20
-397.1597430182858
 10
2416.774687736467
 20
-284.4474535033526
 10
2411.794885800639
 20
-289.4272554392176
 42
0.0780766548017931
 10
2402.182198695035
 20
-302.6234736798708
 42
0.0846448691749464
 10
2384.28327076849
 20
-359.5098076436163
 42
0.0141472886674757
 10
2378.870330477043
 20
-409.5949942703848
 42
0.0348932749283131
 10
2376.967547830002
 20
-607.6739648210043
 42
0.0513200732248153
 10
2390.47478131267
 20
-689.9580780260223
 42
0.0508362622283093
 10
2404.443240039658
 20
-726.3125276291132
 42
0.105403702903367
 10
2413.182445233044
 20
-737.1560397200539
 42
0.1672246484275954
  0
LWPOLYLINE
  5
E1
330
905
100
AcDbEntity
  8
CUT
100
AcDbPolyline
 90
       18
 70
     1
 43
0.0
 10
2428.774687736393
 20
-738.4233180237945
 10
2428.774687736364
 20
-640.414898618181
 10
2446.901948060502
 20
-640.414898618181
 10
2446.901948060502
 20
-634.4148986181892
 10
2428.774687736364
 20
-634.4148986181892
 10
2428.774687736364
 20
-403.1597430182348
 10
2446.901948060502
 20
-403.1597430182348
 10
2446.901948060502
 20
-397.1597430182858
 10
2428.774687736364
 20
-397.1597430182858
 10
2428.774687736364
 20
-284.4474535033526
 10
2433.754489672236
 20
-289.4272554392176
 42
-0.0780766548017931
 10
2443.36717677768
 20
-302.6234736798708
 42
-0.0846448691749464
 10
2461.266104704326
 20
-359.5098076436163
 42
-0.0141472886674757
 10
2466.679044995817
 20
-409.5949942703848
 42
-0.0348932749283131
 10
2468.581827642785
 20
-607.6739648210043
 42
-0.0513200732248153
 10
2455.074594160189
 20
-689.9580780260223
 42
-0.0508362622283093
 10
2441.106135433165
 20
-726.3125276291132
 42
-0.105403702903367
 10
2432.366930239743
 20
-737.1560397200539
 42
-0.1672246484275954
  0
LWPOLYLINE
  5
E2
330
905
100
AcDbEntity
  8
CUT
100
AcDbPolyline
 90
       20
 70
     1
 43
0.0
 10
2537.977572435313
 20
-759.9526319288736
 10
2537.977572435313
 20
-652.1877438828062
 10
2516.263425207228
 20
-652.1877438828062
 10
2516.263425207228
 20
-646.1877438828153
 10
2537.977572435364
 20
-646.1877438828153
 10
2537.977572435364
 20
-414.93258828286
 10
2516.263425207228
 20
-414.93258828286
 10
2516.263425207228
 20
-408.9325882828681
 10
2537.977572435364
 20
-408.9325882828681
 10
2537.977572435364
 20
-285.579380391034
 10
2534.422638890839
 20
-287.9488587503977
 42
0.0990664520835879
 10
2524.865459620338
 20
-297.5060380209154
 42
0.05069472634027
 10
2510.522272700077
 20
-324.617887581807
 42
0.0639810006161457
 10
2496.253617181774
 20
-378.3193713668518
 42
-0.002069902673241
 10
2493.928978095031
 20
-404.0820436467804
 42
0.0148064202762119
 10
2489.818864585159
 20
-474.6347914805657
 42
0.0206485641616608
 10
2489.818864585159
 20
-597.3388172500101
 42
0.0222601231917417
 10
2494.862423011244
 20
-664.8725452470646
 42
0.0724294048791109
 10
2510.440219861161
 20
-723.0096745611438
 42
0.057364428424496
 10
2527.814550262094
 20
-753.4880402602677
 42
0.1737440785997919
  0
LWPOLYLINE
  5
E3
330
905
100
AcDbEntity
  8
CUT
100
AcDbPolyline
 90
       20
 70
     1
 43
0.0
 10
2549.977572435408
 20
-759.9526319288736
 10
2549.977572435408
 20
-652.1877438828062
 10
2571.691719663566
 20
-652.1877438828062
 10
2571.691719663566
 20
-646.1877438828153
 10
2549.977572435364
 20
-646.1877438828153
 10
2549.977572435364
 20
-414.93258828286
 10
2571.691719663566
 20
-414.93258828286
 10
2571.691719663566
 20
-408.9325882828681
 10
2549.977572435364
 20
-408.9325882828681
 10
2549.977572435364
 20
-285.579380391034
 10
2553.532505979998
 20
-287.9488587503977
 42
-0.0990664520835879
 10
2563.089685250413
 20
-297.5060380209154
 42
-0.05069472634027
 10
2577.432872170666
 20
-324.617887581807
 42
-0.0639810006161457
 10
2591.701527688991
 20
-378.3193713668518
 42
0.002069902673241
 10
2594.026166775653
 20
-404.0820436467804
 42
-0.0148064202762119
 10
2598.136280285569
 20
-474.6347914805657
 42
-0.0206485641616608
 10
2598.136280285569
 20
-597.3388172500101
 42
-0.0222601231917417
 10
2593.092721859586
 20
-664.8725452470646
 42
-0.0724294048791109
 10
2577.514925009582
 20
-723.0096745611438
 42
-0.057364428424496
 10
2560.1405946087
 20
-753.4880402602677
 42
-0.1737440785997919
  0
LWPOLYLINE
  5
E4
330
905
100
AcDbEntity
  8
CUT
100
AcDbPolyline
 90
       22
 70
     1
 43
0.0
 10
2582.693917319335
 20
-956.1240462528287
 10
2582.693917319335
 20
-1002.917615200061
 10
2552.824676529268
 20
-1002.917615200061
 10
2552.824676529268
 20
-969.09242937352
 10
2540.261418766514
 20
-969.09242937352
 10
2498.552812341852
 20
-947.8989324236637
 10
2498.552812341852
 20
-967.6648789228831
 42
-0.1341457583551499
 10
2490.322457049657
 20
-958.9819075224834
 42
-0.1185356831527709
 10
2485.421226209623
 20
-938.7468848006548
 10
2519.136327766046
 20
-938.7468848006548
 10
2519.136327766046
 20
-932.746884800604
 10
2485.421226209623
 20
-932.746884800604
 42
-0.1185356831527709
 10
2490.322457049657
 20
-912.5118620787755
 42
-0.1341457583551004
 10
2498.552812341852
 20
-903.8288906783156
 10
2498.552812341852
 20
-923.5948371776078
 10
2540.261418766514
 20
-902.4013402277372
 10
2552.824676529268
 20
-902.4013402277372
 10
2552.824676529268
 20
-868.5761544011523
 10
2582.693917319182
 20
-868.5761544011523
 10
2582.693917319182
 20
-915.3697233483265
 10
2588.693917319182
 20
-915.369723348372
 10
2588.693917319248
 20
-956.1240462528287
  0
LWPOLYLINE
  5
E5
330
905
100
AcDbEntity
  8
CUT
100
AcDbPolyline
 90
       96
 70
     1
 43
0.0
 10
2302.755658395345
 20
-479.0513862926375
 10
2296.791099509476
 20
-478.4002048304476
 10
2295.301415987484
 20
-492.0451035330382
 10
2228.753351942647
 20
-492.0451035330382
 10
2228.753351942647
 20
-498.0451035330291
 10
2294.646365237295
 20
-498.0451035330291
 10
2290.353710481515
 20
-537.364085345853
 10
2296.318269367486
 20
-538.0152668080438
 10
2293.118089481144
 20
-567.3276205626836
 10
2287.153530595311
 20
-566.6764391005211
 10
2283.236819981477
 20
-602.5519245877705
 10
2260.255270438047
 20
-602.5519245877705
 10
2260.255270438047
 20
-657.7887890482872
 10
2230.260386696802
 20
-657.7887890482872
 10
2230.260386696802
 20
-729.3215662868154
 10
2198.147852633378
 20
-729.3215662868154
 10
2198.147852633378
 20
-735.3215662868089
 10
2230.260386696802
 20
-735.3215662868089
 10
2230.260386696802
 20
-811.2835283345996
 10
2259.957133492568
 20
-811.2835283345996
 10
2259.957133492568
 20
-862.1673112614345
 10
2265.59385029256
 20
-862.1673112614345
 10
2287.260843462591
 20
-797.1615513005338
 42
-0.3228288963136734
 10
2294.091413438011
 20
-792.2382405215642
 10
2296.470756418766
 20
-792.2382405215642
 10
2296.470756418766
 20
-804.1189029152748
 10
2302.47075641881
 20
-804.1189029152748
 10
2302.47075641881
 20
-827.7710593539389
 10
2296.470756418766
 20
-827.7710593539389
 10
2296.470756418766
 20
-844.5626657810283
 42
0.2963733776831697
 10
2288.196178843395
 20
-850.9670007022352
 10
2284.55071507167
 20
-860.3260832959506
 10
2284.55071507167
 20
-874.7293325307365
 10
2283.587840107303
 20
-876.0842106584998
 42
0.1150981802330009
 10
2279.254799775223
 20
-886.6656243819701
 42
0.0654875985247645
 10
2278.72711875274
 20
-905.053798788824
 42
0.0257407004935767
 10
2284.684373322296
 20
-943.5402562738103
 42
0.0949488903090835
 10
2294.498148623807
 20
-967.121295218609
 42
0.1011923748928011
 10
2299.626717711839
 20
-972.2498643066067
 42
0.0473333685966134
 10
2307.852799021694
 20
-976.6280941627858
 42
0.1998526430510492
 10
2313.181646104426
 20
-976.6280941627858
 42
0.1285361601519965
 10
2314.048160534363
 20
-975.6574463657992
 42
-0.6620496379336026
 10
2316.66558827223
 20
-975.7011352841448
 42
0.279981637125372
 10
2318.437749330009
 20
-976.5730557052386
 42
-0.4258384115641796
 10
2322.750575577517
 20
-978.7648144958431
 42
0.1036458584982467
 10
2324.613584846211
 20
-982.509991484026
 42
-0.1474134549527989
 10
2325.344604796661
 20
-985.2381950804677
 42
0.0154609022296543
 10
2325.344604796661
 20
-987.4595345084619
 42
-0.0650486225617357
 10
2324.937469865381
 20
-991.5587779607351
 42
-0.3077083001593996
 10
2321.328001900674
 20
-994.8868574209766
 42
-0.2077291109034797
 10
2321.328001900674
 20
-994.8868574209766
 42
0.2080353500171488
 10
2319.746405101684
 20
-995.7281867070099
 42
-0.2835589385194042
 10
2317.823598643063
 20
-996.1513412311445
 42
0.0937192714291063
 10
2316.366035900417
 20
-996.1890459721738
 42
0.0686532986144588
 10
2314.249844919326
 20
-997.3283804290506
 42
-0.5320861723899654
 10
2310.625197110112
 20
-996.5293286263587
 42
-0.4290401622523131
 10
2311.803124336806
 20
-992.8186478440196
 42
0.0951711055647507
 10
2315.596719883015
 20
-990.3190748446988
 42
0.5805768065710624
 10
2312.258902652753
 20
-984.5378058155896
 42
0.2419634195084871
 10
2309.74208462665
 20
-985.9908913804805
 42
-0.3700523059973818
 10
2304.125162186738
 20
-987.1101338977407
 42
-0.1058744635421583
 10
2297.966602379773
 20
-984.8022163328689
 42
0.3622089322755774
 10
2293.899866383156
 20
-985.2639173248292
 42
0.1538014082533029
 10
2292.878567456701
 20
-987.7219697833872
 42
-0.4547336645202262
 10
2292.399353862736
 20
-988.0668402602251
 42
-0.2664008053292399
 10
2287.034724769746
 20
-983.9186764827893
 42
-0.1170164151154863
 10
2286.372777507659
 20
-979.0590147735841
 42
-0.1575690685513628
 10
2249.9845707085
 20
-949.6702431838496
 42
0.0000262170670175
 10
2232.44841226043
 20
-917.9410671382486
 42
0.0984051009695669
 10
2209.314843696728
 20
-891.2484897380538
 42
-0.1710952753199002
 10
2158.92928794384
 20
-803.9781472065108
 10
2158.92928794384
 20
-309.5142604176774
 10
2215.799650548583
 20
-315.0695959969055
 10
2231.505460549026
 20
-327.4459392923047
 10
2231.505460549026
 20
-369.7514661125799
 10
2266.809854569586
 20
-369.7514661125799
 10
2266.809854569586
 20
-302.9242730173185
 10
2342.891403098994
 20
-289.9732978143377
 10
2339.357168841754
 20
-317.2582762863478
 10
2345.307459125336
 20
-318.0290197847492
 10
2342.707245033318
 20
-338.1031802280797
 10
2336.756954749635
 20
-337.332436729663
 10
2335.388194675452
 20
-347.8995317323472
 10
2300.497966266394
 20
-347.8995317323472
 10
2300.497966266394
 20
-353.8995317323391
 10
2334.611012257472
 20
-353.8995317323391
 10
2333.87625439926
 20
-359.5720058476338
 10
2339.826544682928
 20
-360.3427493460515
 10
2337.226330590911
 20
-380.416909789323
 10
2331.276040307294
 20
-379.6461662909635
 10
2327.733121351837
 20
-406.9981923281159
 10
2284.915900001139
 20
-406.9981923281159
 10
2284.915900001139
 20
-412.9981923281077
 10
2303.931372402058
 20
-412.9981923281077
 10
2299.991279395686
 20
-449.0878510758077
 10
2305.955838281672
 20
-449.7390325379976
  0
LWPOLYLINE
  5
E6
330
905
100
AcDbEntity
  8
CUT
100
AcDbPolyline
 90
        8
 70
     1
 43
0.0
 10
1753.427258826439
 20
-553.3606175129509
 42
0.0180143768097368
 10
1765.70725201326
 20
-443.075207102109
 10
1707.454358096071
 20
-443.075207102109
 10
1707.454358096071
 20
-495.4609184964222
 10
1701.454358096121
 20
-495.4609184964222
 10
1701.454358096121
 20
-443.075207102109
 10
1643.201464178946
 20
-443.075207102109
 42
0.0180143768097326
 10
1655.481457365789
 20
-553.3606175129072
  0
LWPOLYLINE
  5
E7
330
905
100
AcDbEntity
  8
CUT
100
AcDbPolyline
 90
        8
 70
     1
 43
0.0
 10
1759.112309646345
 20
-794.3453070231046
 42
0.0180143768097368
 10
1771.392302833268
 20
-684.0598966122345
 10
1713.139408916071
 20
-684.0598966121908
 10
1713.139408916071
 20
-727.4009591370279
 10
1707.139408916129
 20
-727.4009591370279
 10
1707.139408916129
 20
-684.0598966122345
 10
1648.886514998881
 20
-684.0598966121908
 42
0.0180143768097326
 10
1661.166508185797
 20
-794.3453070230473
  0
LWPOLYLINE
  5
E8
330
905
100
AcDbEntity
  8
CUT
100
AcDbPolyline
 90
        8
 70
     1
 43
0.0
 10
2581.175640885424
 20
-27.59838743953537
 42
-0.025251134184784
 10
2590.31999426569
 20
-137.8837978502895
 10
2532.067100348501
 20
-137.8837978503332
 10
2532.067100348501
 20
-74.75876196364765
 10
2526.067100348544
 20
-74.75876196364765
 10
2526.067100348544
 20
-137.8837978503332
 10
2467.814206431361
 20
-137.8837978503332
 42
-0.025251134184682
 10
2476.958559811643
 20
-27.59838743953537
  0
LWPOLYLINE
  5
E9
330
905
100
AcDbEntity
  8
CUT
100
AcDbPolyline
 90
        8
 70
     1
 43
0.0
 10
2581.175640885424
 20
-260.1692082611883
 42
0.025251134184784
 10
2590.31999426569
 20
-149.8837978503754
 10
2532.067100348501
 20
-149.8837978503181
 10
2532.067100348501
 20
-213.0088337370755
 10
2526.067100348544
 20
-213.0088337370755
 10
2526.067100348544
 20
-149.8837978503754
 10
2467.814206431361
 20
-149.8837978503181
 42
0.025251134184682
 10
2476.958559811643
 20
-260.1692082611883
  0
LWPOLYLINE
  5
EA
330
905
100
AcDbEntity
  8
CUT
100
AcDbPolyline
 90
        8
 70
     1
 43
0.0
 10
2425.009846939542
 20
-66.36991157078205
 10
2425.009846939542
 20
-239.9002141402318
 42
0.4142135623730951
 10
2427.409846939587
 20
-242.3002141402224
 10
2432.211393261172
 20
-242.3002141402224
 42
0.4142135623730951
 10
2434.611393261173
 20
-239.9002141402318
 10
2434.611393261173
 20
-66.36991157078205
 42
0.4142135623730951
 10
2432.211393261172
 20
-63.96991157079106
 10
2427.409846939587
 20
-63.96991157079106
 42
0.4142135623730951
  0
LWPOLYLINE
  5
EB
330
905
100
AcDbEntity
  8
CUT
100
AcDbPolyline
 90
        8
 70
     1
 43
0.0
 10
2444.376124002865
 20
-66.36991157078205
 10
2444.376124002865
 20
-239.9002141402318
 42
0.4142135623730951
 10
2446.776124002918
 20
-242.3002141402224
 10
2451.577670324459
 20
-242.3002141402224
 42
0.4142135623730951
 10
2453.977670324461
 20
-239.9002141402318
 10
2453.977670324461
 20
-66.36991157078205
 42
0.4142135623730951
 10
2451.577670324459
 20
-63.96991157079106
 10
2446.776124002918
 20
-63.96991157079106
 42
0.4142135623730951
  0
LWPOLYLINE
  5
EC
330
905
100
AcDbEntity
  8
CUT
100
AcDbPolyline
 90
        8
 70
     1
 43
0.0
 10
2391.989788453644
 20
-218.0043273161293
 10
2149.92470751116
 20
-218.0043273161293
 42
0.4142135623730951
 10
2147.524707511122
 20
-220.4043273160762
 10
2147.524707511122
 20
-225.2058736376996
 42
0.4142135623730951
 10
2149.92470751116
 20
-227.6058736376892
 10
2391.989788453644
 20
-227.6058736376892
 42
0.4142135623730951
 10
2394.389788453638
 20
-225.2058736376996
 10
2394.389788453638
 20
-220.4043273160762
 42
0.4142135623730951
  0
LWPOLYLINE
  5
ED
330
905
100
AcDbEntity
  8
CUT
100
AcDbPolyline
 90
        8
 70
     1
 43
0.0
 10
2391.989788453644
 20
-236.2252391900304
 10
2149.92470751116
 20
-236.2252391900304
 42
0.4142135623730951
 10
2147.524707511122
 20
-238.6252391900382
 10
2147.524707511122
 20
-243.426785511617
 42
0.4142135623730951
 10
2149.92470751116
 20
-245.8267855116058
 10
2391.989788453644
 20
-245.8267855116058
 42
0.4142135623730951
 10
2394.389788453638
 20
-243.426785511617
 10
2394.389788453638
 20
-238.6252391900382
 42
0.4142135623730951
  0
LWPOLYLINE
  5
EE
330
905
100
AcDbEntity
  8
CUT
100
AcDbPolyline
 90
        8
 70
     1
 43
0.0
 10
2127.026495626477
 20
-218.0043273161293
 10
1884.961414683948
 20
-218.0043273161293
 42
0.4142135623730951
 10
1882.561414683947
 20
-220.4043273160762
 10
1882.561414683947
 20
-225.2058736376996
 42
0.4142135623730951
 10
1884.961414683948
 20
-227.6058736376892
 10
2127.026495626477
 20
-227.6058736376892
 42
0.4142135623730951
 10
2129.426495626522
 20
-225.2058736376996
 10
2129.426495626522
 20
-220.4043273160762
 42
0.4142135623730951
  0
LWPOLYLINE
  5
EF
330
905
100
AcDbEntity
  8
CUT
100
AcDbPolyline
 90
        8
 70
     1
 43
0.0
 10
2127.026495626477
 20
-236.2252391900304
 10
1884.961414683948
 20
-236.2252391900304
 42
0.4142135623730951
 10
1882.561414683947
 20
-238.6252391900382
 10
1882.561414683947
 20
-243.426785511617
 42
0.4142135623730951
 10
1884.961414683948
 20
-245.8267855116058
 10
2127.026495626477
 20
-245.8267855116058
 42
0.4142135623730951
 10
2129.426495626522
 20
-243.426785511617
 10
2129.426495626522
 20
-238.6252391900382
 42
0.4142135623730951
  0
LWPOLYLINE
  5
F0
330
905
100
AcDbEntity
  8
CUT
100
AcDbPolyline
 90
        8
 70
     1
 43
0.0
 10
2306.726584117885
 20
-882.6591973612242
 10
2339.861055648053
 20
-882.6591973612242
 10
2339.861055648009
 20
-904.7872989025066
 10
2325.148926794744
 20
-904.7872989025066
 10
2325.148926794744
 20
-910.7872989024983
 10
2339.861055648009
 20
-910.7872989024983
 10
2339.861055648009
 20
-932.9154004437816
 10
2306.726584117885
 20
-932.9154004437816
 42
-0.268159691409328
  0
LWPOLYLINE
  5
F1
330
905
100
AcDbEntity
  8
CUT
100
AcDbPolyline
 90
        8
 70
     1
 43
0.0
 10
2390.965274116574
 20
-882.6591973612242
 10
2357.830802586391
 20
-882.6591973612242
 10
2357.830802586435
 20
-904.7872989025066
 10
2372.542931439701
 20
-904.7872989025066
 10
2372.542931439701
 20
-910.7872989024983
 10
2357.830802586435
 20
-910.7872989024983
 10
2357.830802586435
 20
-932.9154004437816
 10
2390.965274116574
 20
-932.9154004437816
 42
0.268159691409328
  0
LWPOLYLINE
  5
F2
330
905
100
AcDbEntity
  8
CUT
100
AcDbPolyline
 90
       17
 70
     1
 43
0.0
 10
2347.949396769614
 20
-465.686425470117
 10
2347.949396769614
 20
-439.4280347196475
 42
-0.1936896329536231
 10
2338.575781140487
 20
-432.3401145070622
 10
2353.093582914862
 20
-427.0584358022635
 10
2351.042274527146
 20
-421.4199844281203
 10
2336.524472752815
 20
-426.701663132949
 42
-0.648512678239581
 10
2360.605298834194
 20
-411.0189223025019
 42
-0.6485126782395989
 10
2356.218151301011
 20
-439.4194061230084
 10
2356.218151301011
 20
-465.686425470117
 42
0.7052540946887788
 10
2364.736520605639
 20
-468.7218380804181
 10
2370.845132162267
 20
-461.2388113482459
 42
-0.8165079755025168
 10
2372.510905457438
 20
-462.1129755680597
 42
-0.1595213463478514
 10
2352.669413220541
 20
-491.2208165946424
 42
-0.3403542915121292
 10
2351.49813485007
 20
-491.2208165946424
 42
-0.1595213463478701
 10
2331.656642618273
 20
-462.112975566589
 42
-0.8165079755025065
 10
2333.322415908497
 20
-461.2388113482459
 10
2339.431027465118
 20
-468.7218380804181
 42
0.7052540946888432
  0
LWPOLYLINE
  5
F3
330
905
100
AcDbEntity
  8
CUT
100
AcDbPolyline
 90
       17
 70
     1
 43
0.0
 10
2373.935767443651
 20
-983.8104208558645
 10
2399.750685944844
 20
-988.615945549732
 42
0.1936896329536231
 10
2405.003442770841
 20
-999.1284061860435
 10
2412.85281031959
 20
-985.8223877213269
 10
2418.020626994843
 20
-988.8709399697757
 10
2410.171259446052
 20
-1002.176958434463
 42
0.6485126782395785
 10
2429.996148402137
 20
-981.372912611728
 42
0.6485126782395885
 10
2401.272426213942
 20
-980.4884193267382
 10
2375.449024842677
 20
-975.6813155210496
 42
-0.7052540946887788
 10
2374.023815831872
 20
-966.7513029455214
 10
2382.498394911232
 20
-962.1153204552221
 42
0.8165079755025168
 10
2381.943845947262
 20
-960.3177000278668
 42
0.1595213463478514
 10
2349.696427101237
 20
-974.4970935685962
 42
0.3403542915121292
 10
2349.482072490337
 20
-975.6485904734965
 42
0.1595213463478701
 10
2374.467143709462
 20
-1000.481984109348
 42
0.8165079755025065
 10
2375.631396044071
 20
-999.0043237165739
 10
2369.392680080495
 20
-991.6294171172078
 42
-0.7052540946888432
  0
LWPOLYLINE
  5
F4
330
905
100
AcDbEntity
  8
CUT
100
AcDbPolyline
 90
       14
 70
     1
 43
0.0
 10
2405.391562426518
 20
15.1128147161196
 42
-0.1644880257170124
 10
2411.032494323659
 20
33.07385717648663
 42
-0.1147028885153132
 10
2425.327556650267
 20
45.66506060878032
 42
0.1517047116876814
 10
2435.767610224804
 20
57.36603451779342
 10
2439.19716112877
 20
65.05461736153552
 10
2477.005182327554
 20
65.05461736153552
 10
2477.005182327554
 20
35.08010786803948
 10
2440.472756479107
 20
35.08010786803948
 10
2440.472756479107
 20
29.08010786804766
 10
2477.005182327554
 20
29.08010786804766
 10
2477.005182327554
 20
-0.8944016255056794
 10
2453.63580206977
 20
-0.8944016255056794
 10
2452.967574463113
 20
1.599457753546857
 42
0.311084650141159
 10
2435.442044808919
 20
16.12153231726256
 42
0.0663126488923066
  0
LWPOLYLINE
  5
F5
330
905
100
AcDbEntity
  8
CUT
100
AcDbPolyline
 90
       14
 70
     1
 43
0.0
 10
2494.960033221851
 20
113.505787625472
 42
0.1644880257170124
 10
2489.319101324702
 20
131.4668300858964
 42
0.1147028885153132
 10
2475.024038998043
 20
144.0580335181478
 42
-0.1517047116876814
 10
2464.583985423564
 20
155.7590074271322
 10
2461.15443451954
 20
163.4475902709316
 10
2423.346413320764
 20
163.4475902709316
 10
2423.346413320764
 20
133.4730807774069
 10
2459.878839169262
 20
133.4730807774069
 10
2459.878839169262
 20
127.4730807774151
 10
2423.346413320764
 20
127.4730807774151
 10
2423.346413320764
 20
97.49857128391909
 10
2446.715793578562
 20
97.49857128391909
 10
2447.384021185262
 20
99.9924306629007
 42
-0.311084650141159
 10
2464.909550839508
 20
114.514505226615
 42
-0.0663126488923066
  0
LWPOLYLINE
  5
F6
330
905
100
AcDbEntity
  8
CUT
100
AcDbPolyline
 90
       17
 70
     1
 43
0.0
 10
1802.252840151235
 20
101.9471927024731
 10
1813.520510114551
 20
101.9471927024731
 10
1813.520510114551
 20
95.94719270247992
 10
1802.25284015109
 20
95.94719270247992
 10
1802.252840151177
 20
-135.3079628974735
 10
1813.520510114551
 20
-135.3079628974735
 10
1813.520510114551
 20
-141.3079628974658
 10
1802.25284015109
 20
-141.3079628974658
 10
1802.25284015109
 20
-240.0208190832066
 10
1805.684354981433
 20
-235.0077834065962
 42
0.0840998180788093
 10
1815.770544747702
 20
-212.2505592289465
 42
0.044193331026188
 10
1825.958590872531
 20
-147.8546975735855
 42
0.0069911504136684
 10
1830.548018784586
 20
-76.1904475249878
 42
0.0074104912171656
 10
1831.79752224663
 20
8.799402222131675
 42
0.0128951052775477
 10
1829.23932972601
 20
80.0284593940753
 42
0.0673199537415926
 10
1815.485596898125
 20
152.8706957265019
 42
0.0956827297838573
 10
1802.252840151235
 20
178.7955673457347
  0
LWPOLYLINE
  5
F7
330
905
100
AcDbEntity
  8
CUT
100
AcDbPolyline
 90
       17
 70
     1
 43
0.0
 10
1790.252840151177
 20
101.9471927024731
 10
1778.985170187745
 20
101.9471927024731
 10
1778.985170187745
 20
95.94719270247992
 10
1790.252840151279
 20
95.94719270247992
 10
1790.252840151235
 20
-135.3079628974735
 10
1778.985170187745
 20
-135.3079628974735
 10
1778.985170187745
 20
-141.3079628974658
 10
1790.252840151279
 20
-141.3079628974658
 10
1790.252840151279
 20
-240.0208190832066
 10
1786.821325320863
 20
-235.0077834065962
 42
-0.0840998180788093
 10
1776.735135554696
 20
-212.2505592289465
 42
-0.044193331026188
 10
1766.547089429816
 20
-147.8546975735855
 42
-0.0069911504136684
 10
1761.957661517717
 20
-76.1904475249878
 42
-0.0074104912171656
 10
1760.708158055717
 20
8.799402222131675
 42
-0.0128951052775477
 10
1763.266350576352
 20
80.0284593940753
 42
-0.0673199537415926
 10
1777.020083404244
 20
152.8706957265019
 42
-0.0956827297838573
 10
1790.252840151177
 20
178.7955673457347
  0
LWPOLYLINE
  5
F8
330
905
100
AcDbEntity
  8
CUT
100
AcDbPolyline
 90
       12
 70
     1
 43
0.0
 10
1715.00612924396
 20
27.89768273516916
 10
1727.96036553643
 20
27.89768273516916
 10
1727.96036553643
 20
33.89768273516097
 10
1715.00612924396
 20
33.89768273516097
 10
1715.006129244019
 20
36.99426129192557
 42
-0.2001726850536007
 10
1741.809259519639
 20
51.36963619103539
 10
1741.809259519639
 20
-115.324792409219
 42
-0.2001726850535865
 10
1715.006129244019
 20
-100.9494175100792
 10
1715.00612924396
 20
-97.85283895334329
 10
1727.96036553643
 20
-97.85283895334329
 10
1727.96036553643
 20
-91.85283895335146
 10
1715.00612924396
 20
-91.85283895335146
  0
LWPOLYLINE
  5
F9
330
905
100
AcDbEntity
  8
CUT
100
AcDbPolyline
 90
       17
 70
     1
 43
0.0
 10
2385.575306543153
 20
13.80621038169215
 42
0.1051853562942661
 10
2378.358295698392
 20
23.16981152401718
 42
0.0332544605392184
 10
2350.270579095795
 20
44.51587407330612
 42
0.1073432593859309
 10
2269.902609259447
 20
69.28284344002918
 42
0.0256270830163262
 10
2083.874691315523
 20
73.07198698425304
 42
0.0186929614023374
 10
1996.423821344459
 20
68.89626558966188
 42
0.075924527127761
 10
1927.450819602341
 20
53.54744108115096
 42
0.0899908756478785
 10
1889.963484007643
 20
29.63640554640165
 42
0.1180083239275031
 10
1879.53819237409
 20
13.80621038177946
 10
2018.04644695883
 20
13.80621038173581
 10
2018.04644695883
 20
41.20412087952058
 10
2024.04644695883
 20
41.20412087952058
 10
2024.04644695883
 20
13.80621038169215
 10
2255.301602558797
 20
13.80621038169215
 10
2255.301602558797
 20
41.20412087952058
 10
2261.301602558782
 20
41.20412087952058
 10
2261.301602558782
 20
13.80621038169215
  0
LWPOLYLINE
  5
FA
330
905
100
AcDbEntity
  8
CUT
100
AcDbPolyline
 90
       17
 70
     1
 43
0.0
 10
2385.575306543153
 20
1.806210381708524
 42
-0.1051853562942661
 10
2378.358295698392
 20
-7.557390760602856
 42
-0.0332544605392184
 10
2350.270579095795
 20
-28.9034533099341
 42
-0.1073432593859309
 10
2269.902609259447
 20
-53.67042267659986
 42
-0.0256270830163262
 10
2083.874691315523
 20
-57.45956622088238
 42
-0.0186929614023374
 10
1996.423821344459
 20
-53.28384482627621
 42
-0.075924527127761
 10
1927.450819602341
 20
-37.93502031777894
 42
-0.0899908756478785
 10
1889.963484007643
 20
-14.02398478302962
 42
-0.1180083239275031
 10
1879.53819237409
 20
1.806210381634855
 10
2018.04644695883
 20
1.806210381634855
 10
2018.04644695883
 20
-25.59170011613492
 10
2024.04644695883
 20
-25.59170011613492
 10
2024.04644695883
 20
1.806210381708524
 10
2255.301602558797
 20
1.806210381708524
 10
2255.301602558797
 20
-25.59170011613492
 10
2261.301602558782
 20
-25.59170011613492
 10
2261.301602558782
 20
1.806210381708524
  0
LWPOLYLINE
  5
FB
330
905
100
AcDbEntity
  8
CUT
100
AcDbPolyline
 90
       19
 70
     1
 43
0.0
 10
2397.955507904026
 20
163.4454051607101
 42
0.0802811674832286
 10
2383.853986320104
 20
180.7243274858472
 42
0.0525424001905701
 10
2358.411946226985
 20
198.1128617178094
 42
0.1036178067761664
 10
2280.209472924235
 20
221.7936830050069
 42
0.0188808020530622
 10
2202.865146137334
 20
225.9401911884036
 42
0.0187423928719964
 10
2052.803413613579
 20
225.032504451068
 42
0.0205196482248975
 10
1976.245466538723
 20
219.4109859860252
 42
0.0617823398392069
 10
1927.683187789251
 20
206.3987626124829
 42
0.0917316759969157
 10
1891.874830626588
 20
184.1474882726422
 42
0.0909186184033651
 10
1881.061809597373
 20
168.6453938447678
 42
0.1197661047617089
 10
1879.994824658355
 20
163.627799275863
 10
2024.430903492339
 20
163.6277992758043
 10
2024.430903492339
 20
191.0257097736041
 10
2030.430903492296
 20
191.0257097736041
 10
2030.430903492296
 20
163.627799275747
 10
2261.686059092262
 20
163.627799275747
 10
2261.686059092262
 20
191.0257097736041
 10
2267.686059092262
 20
191.0257097736041
 10
2267.686059092262
 20
163.627799275747
  0
LWPOLYLINE
  5
FC
330
905
100
AcDbEntity
  8
CUT
100
AcDbPolyline
 90
       19
 70
     1
 43
0.0
 10
2397.955507904026
 20
151.8101933909722
 42
-0.0802811674832377
 10
2383.853986320104
 20
134.5312710658352
 42
-0.0525424001905701
 10
2358.411946226985
 20
117.1427368338579
 42
-0.1036178067761664
 10
2280.209472924235
 20
93.46191554661823
 42
-0.0188808020530622
 10
2202.865146137334
 20
89.31540736327884
 42
-0.0187423928719964
 10
2052.803413613579
 20
90.22309410061438
 42
-0.0205196482248975
 10
1976.245466538723
 20
95.84461256565715
 42
-0.0617823398392069
 10
1927.683187789251
 20
108.8568359392009
 42
-0.0917316759969157
 10
1891.874830626588
 20
131.1081102790251
 42
-0.0909186184033651
 10
1881.061809597373
 20
146.6102047068996
 42
-0.1197661047617089
 10
1879.994824658355
 20
151.6277992758193
 10
2024.430903492339
 20
151.627799275878
 10
2024.430903492339
 20
124.2298887780796
 10
2030.430903492296
 20
124.2298887780796
 10
2030.430903492296
 20
151.6277992759067
 10
2261.686059092262
 20
151.6277992759067
 10
2261.686059092262
 20
124.2298887780796
 10
2267.686059092262
 20
124.2298887780796
 10
2267.686059092262
 20
151.6277992759067
  0
LWPOLYLINE
  5
FD
330
905
100
AcDbEntity
  8
CUT
100
AcDbPolyline
 90
       17
 70
     1
 43
0.0
 10
1881.042493389697
 20
-147.8636779475403
 10
2010.537999706616
 20
-147.8636779474966
 10
2010.537999706616
 20
-172.0248441867472
 10
2016.537999706616
 20
-172.0248441867472
 10
2016.537999706616
 20
-147.8636779474966
 10
2247.793155306583
 20
-147.8636779474966
 10
2247.793155306583
 20
-172.0248441867472
 10
2253.793155306583
 20
-172.0248441867472
 10
2253.793155306583
 20
-147.8636779474966
 10
2369.970715240572
 20
-147.8636779474966
 42
-0.144240058463983
 10
2368.077766499624
 20
-151.8941201125701
 42
-0.0581332194705554
 10
2350.439030409176
 20
-166.7513583137426
 42
-0.0471299830935675
 10
2316.213865637674
 20
-185.2064620282474
 42
-0.0816051147672796
 10
2264.355410207525
 20
-197.4909930352571
 42
-0.0185213445680456
 10
2166.426279368879
 20
-201.9858057846516
 42
-0.019157877528777
 10
2003.02948739276
 20
-197.7334052347998
 42
-0.0869129495943822
 10
1914.20538660399
 20
-176.2463149136267
 42
-0.1300513560839263
  0
LWPOLYLINE
  5
FE
330
905
100
AcDbEntity
  8
CUT
100
AcDbPolyline
 90
       17
 70
     1
 43
0.0
 10
1881.042493389697
 20
-136.4552521420903
 10
2010.537999706616
 20
-136.455252142134
 10
2010.537999706616
 20
-112.2940859028401
 10
2016.537999706616
 20
-112.2940859028401
 10
2016.537999706616
 20
-136.4552521421776
 10
2247.793155306583
 20
-136.4552521421776
 10
2247.793155306583
 20
-112.2940859028401
 10
2253.793155306583
 20
-112.2940859028401
 10
2253.793155306583
 20
-136.4552521421776
 10
2369.970715240572
 20
-136.4552521421776
 42
0.144240058463983
 10
2368.077766499624
 20
-132.42480997706
 42
0.0581332194705554
 10
2350.439030409176
 20
-117.5675717758879
 42
0.0471299830935675
 10
2316.213865637674
 20
-99.11246806138457
 42
0.0816051147672796
 10
2264.355410207525
 20
-86.82793705437347
 42
0.0185213445680456
 10
2166.426279368879
 20
-82.3331243049945
 42
0.019157877528777
 10
2003.02948739276
 20
-86.58552485483074
 42
0.0869129495943822
 10
1914.20538660399
 20
-108.072615176017
 42
0.1300513560839263
  0
LWPOLYLINE
  5
FF
330
905
100
AcDbEntity
  8
CUT
100
AcDbPolyline
 90
        8
 70
     1
 43
0.0
 10
2560.591461719389
 20
113.247195286269
 10
2560.591461719389
 20
107.2471952862772
 10
2578.674134418874
 20
107.2471952862772
 10
2578.674134418874
 20
51.3119834475749
 10
2513.576405577373
 20
51.3119834475749
 10
2513.576405577373
 20
169.1824071249277
 10
2578.674134418831
 20
169.1824071249277
 10
2578.674134418831
 20
113.247195286269
  0
LWPOLYLINE
  5
100
330
905
100
AcDbEntity
  8
CUT
100
AcDbPolyline
 90
       27
 70
     1
 43
0.0
 10
1919.855691785571
 20
-72.29125723925495
 10
1908.217643179301
 20
-77.18900016607517
 42
-0.2675378517008159
 10
1895.063264944856
 20
-75.54289537406089
 42
0.0930108994157352
 10
1895.063264944856
 20
-75.54289537406089
 42
0.682759839544903
 10
1891.635627758263
 20
-74.36585738931831
 42
0.6050557725987861
 10
1884.718372525629
 20
-77.45828321654312
 42
0.6458358713810206
 10
1881.747440171628
 20
-82.60408899964
 42
0.5548074661206495
 10
1883.416639573163
 20
-88.83362597420159
 42
0.9659906417224759
 10
1887.318343114366
 20
-91.74380870789741
 42
-0.1203169588168278
 10
1889.32913581868
 20
-93.27416554173828
 42
0.186284860159724
 10
1891.079976098841
 20
-93.8997525398488
 42
0.3932039296764591
 10
1893.156113986621
 20
-91.4215794741824
 42
0.3807408465856692
 10
1891.723697572288
 20
-89.67537192339136
 42
-0.1874292227780709
 10
1888.706838995535
 20
-88.61344296611401
 42
-0.4318293108535526
 10
1890.63648583661
 20
-82.93525208450251
 42
-0.5355467578212206
 10
1894.701634700894
 20
-86.21477756622994
 42
0.3587052793361802
 10
1897.940327678046
 20
-89.25012643135664
 42
0.0738969649472224
 10
1905.945737548955
 20
-89.25012643135664
 42
-0.0942356558779061
 10
1909.057934915381
 20
-89.25012643135664
 42
-0.4572332973000152
 10
1910.367138988465
 20
-91.517734403438
 42
0.6746302960188909
 10
1912.583897650326
 20
-94.62778465710631
 42
0.2096855933297697
 10
1919.20000821567
 20
-90.01664940833393
 42
0.2446672619854481
 10
1919.20000821567
 20
-86.41387819687748
 42
0.337548987254414
 10
1916.048531419252
 20
-85.35473355473436
 42
-0.8131304128823646
 10
1912.928378106688
 20
-81.82439204062825
 42
-0.1306692114659416
 10
1914.172892550876
 20
-80.91812625055059
 10
1921.946396266092
 20
-77.25920282740458
 42
0.9592549282204672
  0
LWPOLYLINE
  5
101
330
905
100
AcDbEntity
  8
CUT
100
AcDbPolyline
 90
       27
 70
     1
 43
0.0
 10
1880.511196692965
 20
81.10864396995726
 10
1892.149245299286
 20
76.21090104312066
 42
0.2675378517008159
 10
1905.303623533731
 20
77.85700583514994
 42
-0.0930108994157352
 10
1905.303623533731
 20
77.85700583514994
 42
-0.682759839544903
 10
1908.73126072028
 20
79.03404381983387
 42
-0.6050557725987861
 10
1915.648515952966
 20
75.94161799266908
 42
-0.6458358713810206
 10
1918.619448307068
 20
70.79581220958584
 42
-0.5548074661206495
 10
1916.950248905439
 20
64.56627523493693
 42
-0.9659906417224759
 10
1913.048545364214
 20
61.65609250129978
 42
0.1203169588168278
 10
1911.037752659915
 20
60.12573566743026
 42
-0.186284860159724
 10
1909.286912379753
 20
59.50014866934975
 42
-0.3932039296764591
 10
1907.210774491923
 20
61.97832173497113
 42
-0.3807408465856692
 10
1908.643190906263
 20
63.72452928582084
 42
0.1874292227780709
 10
1911.66004948306
 20
64.78645824308455
 42
0.4318293108535526
 10
1909.730402641984
 20
70.46464912465239
 42
0.5355467578212206
 10
1905.665253777664
 20
67.18512364292497
 42
-0.3587052793361802
 10
1902.426560800526
 20
64.14977477779689
 42
-0.0738969649472224
 10
1894.42115092964
 20
64.14977477779689
 42
0.0942356558779061
 10
1891.308953563213
 20
64.14977477779689
 42
0.4572332973000152
 10
1889.999749490122
 20
61.88216680576056
 42
-0.6746302960188909
 10
1887.782990828269
 20
58.77211655210726
 42
-0.2096855933297697
 10
1881.166880262867
 20
63.38325180087827
 42
-0.2446672619854481
 10
1881.166880262867
 20
66.98602301233336
 42
-0.337548987254414
 10
1884.318357059336
 20
68.04516765443418
 42
0.8131304128823646
 10
1887.438510371863
 20
71.57550916858395
 42
0.1306692114659416
 10
1886.193995927668
 20
72.48177495864661
 10
1878.420492212517
 20
76.14069838176397
 42
-0.9592549282204672
  0
LWPOLYLINE
  5
102
330
905
100
AcDbEntity
  8
CUT
100
AcDbPolyline
 90
       20
 70
     1
 43
0.0
 10
2403.420226786617
 20
-783.0350663496649
 42
-0.4142135623729243
 10
2413.020226786623
 20
-773.4350663497291
 10
2414.953357204806
 20
-773.4350663497291
 10
2414.953357204806
 20
-826.3586656972796
 10
2420.953357204763
 20
-826.3586656972796
 10
2420.953357204763
 20
-773.4350663497291
 10
2517.574959486821
 20
-773.4350663497291
 10
2517.574959486821
 20
-826.3586656972796
 10
2523.574959486778
 20
-826.3586656972796
 10
2523.574959486778
 20
-773.4350663497291
 10
2525.508089905005
 20
-773.4350663497291
 42
-0.4142135623728286
 10
2535.108089904967
 20
-783.0350663496649
 10
2535.108089904967
 20
-868.1802375127801
 42
-0.4142135623730951
 10
2525.508089905005
 20
-877.7802375127723
 10
2525.430307535917
 20
-877.7802375127723
 42
-0.4213360047539803
 10
2476.167354802175
 20
-877.5361103429244
 42
0.4242567012155538
 10
2462.360961889503
 20
-877.5361103429244
 42
-0.4213360047540022
 10
2413.098009155711
 20
-877.7802375127723
 10
2413.020226786623
 20
-877.7802375127723
 42
-0.4142135623730951
 10
2403.420226786617
 20
-868.1802375127801
  0
LWPOLYLINE
  5
103
330
905
100
AcDbEntity
  8
CUT
100
AcDbPolyline
 90
       10
 70
     1
 43
0.0
 10
1321.484852568199
 20
242.0068456987412
 10
1306.411516091055
 20
226.9335092214144
 42
-0.547372870334963
 10
1298.513204215498
 20
228.668649670067
 42
-0.0837951641011099
 10
1288.443394065896
 20
282.2704604303269
 42
-0.0935424623602055
 10
1312.823039309962
 20
425.9820933819412
 10
1435.364154866834
 20
425.9820933819412
 42
-0.0935424623602055
 10
1459.743800111009
 20
282.2704604303269
 42
-0.0837951641011099
 10
1449.673989961313
 20
228.668649670067
 42
-0.547372870334963
 10
1441.775678085749
 20
226.9335092214144
 10
1426.702341608648
 20
242.0068456987412
 42
0.4142135623730951
  0
LWPOLYLINE
  5
104
330
905
100
AcDbEntity
  8
CUT
100
AcDbPolyline
 90
        4
 70
     1
 43
0.0
 10
1303.67632046132
 20
236.0092852703999
 42
0.4142135623730951
 10
1302.303785681182
 20
234.6367504902603
 42
0.4142135623730951
 10
1303.67632046132
 20
233.264215710122
 42
0.4142135623730951
 10
1305.04885524145
 20
234.6367504902603
 42
0.4142135623730951
  0
LWPOLYLINE
  5
105
330
905
100
AcDbEntity
  8
CUT
100
AcDbPolyline
 90
        4
 70
     1
 43
0.0
 10
1444.510873715528
 20
236.0092852703999
 42
0.4142135623730951
 10
1443.138338935383
 20
234.6367504902603
 42
0.4142135623730951
 10
1444.510873715528
 20
233.264215710122
 42
0.4142135623730951
 10
1445.883408495672
 20
234.6367504902603
 42
0.4142135623730951
  0
LWPOLYLINE
  5
106
330
905
100
AcDbEntity
  8
CUT
100
AcDbPolyline
 90
       10
 70
     1
 43
0.0
 10
1510.620519670567
 20
242.0068456987412
 10
1495.547183193321
 20
226.9335092214144
 42
-0.547372870334963
 10
1487.648871317815
 20
228.668649670067
 42
-0.0837951641011099
 10
1477.579061168118
 20
282.2704604303269
 42
-0.0935424623602055
 10
1501.958706412286
 20
425.9820933819412
 10
1624.499821969217
 20
425.9820933819412
 42
-0.0935424623602055
 10
1648.879467213319
 20
282.2704604303269
 42
-0.0837951641011099
 10
1638.809657063622
 20
228.668649670067
 42
-0.547372870334963
 10
1630.91134518808
 20
226.9335092214144
 10
1615.838008710914
 20
242.0068456987412
 42
0.4142135623730951
  0
LWPOLYLINE
  5
107
330
905
100
AcDbEntity
  8
CUT
100
AcDbPolyline
 90
        4
 70
     1
 43
0.0
 10
1492.8119875636
 20
236.0092852703999
 42
0.4142135623730951
 10
1491.439452783455
 20
234.6367504902603
 42
0.4142135623730951
 10
1492.8119875636
 20
233.264215710122
 42
0.4142135623730951
 10
1494.184522343737
 20
234.6367504902603
 42
0.4142135623730951
  0
LWPOLYLINE
  5
108
330
905
100
AcDbEntity
  8
CUT
100
AcDbPolyline
 90
        4
 70
     1
 43
0.0
 10
1633.646540817845
 20
236.0092852703999
 42
0.4142135623730951
 10
1632.274006037707
 20
234.6367504902603
 42
0.4142135623730951
 10
1633.646540817845
 20
233.264215710122
 42
0.4142135623730951
 10
1635.019075597989
 20
234.6367504902603
 42
0.4142135623730951
  0
LWPOLYLINE
  5
109
330
905
100
AcDbEntity
  8
CUT
100
AcDbPolyline
 90
       10
 70
     1
 43
0.0
 10
1695.633355534966
 20
242.0068456987412
 10
1680.560019057837
 20
226.9335092214144
 42
-0.547372870334963
 10
1672.661707182346
 20
228.668649670067
 42
-0.0837951641011099
 10
1662.5918970327
 20
282.2704604303269
 42
-0.0935424623602055
 10
1686.971542276715
 20
425.9820933819412
 10
1809.512657833646
 20
425.9820933819412
 42
-0.0935424623602055
 10
1833.892303077748
 20
282.2704604303269
 42
-0.0837951641011099
 10
1823.822492928051
 20
228.668649670067
 42
-0.547372870334963
 10
1815.924181052553
 20
226.9335092214144
 10
1800.850844575401
 20
242.0068456987412
 42
0.4142135623730951
  0
LWPOLYLINE
  5
10A
330
905
100
AcDbEntity
  8
CUT
100
AcDbPolyline
 90
        4
 70
     1
 43
0.0
 10
1677.824823428116
 20
236.0092852703999
 42
0.4142135623730951
 10
1676.452288647979
 20
234.6367504902603
 42
0.4142135623730951
 10
1677.824823428116
 20
233.264215710122
 42
0.4142135623730951
 10
1679.197358208246
 20
234.6367504902603
 42
0.4142135623730951
  0
LWPOLYLINE
  5
10B
330
905
100
AcDbEntity
  8
CUT
100
AcDbPolyline
 90
        4
 70
     1
 43
0.0
 10
1818.659376682288
 20
236.0092852703999
 42
0.4142135623730951
 10
1817.286841902151
 20
234.6367504902603
 42
0.4142135623730951
 10
1818.659376682288
 20
233.264215710122
 42
0.4142135623730951
 10
1820.031911462432
 20
234.6367504902603
 42
0.4142135623730951
  0
LWPOLYLINE
  5
10C
330
905
100
AcDbEntity
  8
CUT
100
AcDbPolyline
 90
       10
 70
     1
 43
0.0
 10
1855.878289643046
 20
275.8642109221312
 42
-0.054677079145406
 10
1852.043102667852
 20
335.4615750092642
 42
-0.0497507225289806
 10
1868.503036642516
 20
425.1342008757762
 10
1949.216032618769
 20
425.1342008757762
 42
-0.0497507225289806
 10
1965.675966593382
 20
335.4615750092642
 42
-0.0546770791454043
 10
1961.840779618131
 20
275.8642109221312
 42
-0.8450245491202473
 10
1953.923049777714
 20
275.9109971594642
 42
0.1800355337390231
 10
1930.417697567038
 20
317.1603608969406
 42
0.3631020535028979
 10
1887.301371694247
 20
317.1603608969406
 42
0.1800351308751775
 10
1863.796019483485
 20
275.9109971594642
 42
-0.8450245491203077
  0
LWPOLYLINE
  5
10D
330
905
100
AcDbEntity
  8
CUT
100
AcDbPolyline
 90
        4
 70
     1
 43
0.0
 10
1859.877918760332
 20
282.3573929365236
 42
0.4142135623730951
 10
1858.505383980187
 20
280.984858156384
 42
0.4142135623730951
 10
1859.877918760332
 20
279.6123233762457
 42
0.4142135623730951
 10
1861.250453540469
 20
280.984858156384
 42
0.4142135623730951
  0
LWPOLYLINE
  5
10E
330
905
100
AcDbEntity
  8
CUT
100
AcDbPolyline
 90
        4
 70
     1
 43
0.0
 10
1957.841150500859
 20
282.3573929365236
 42
0.4142135623730951
 10
1956.468615720714
 20
280.984858156384
 42
0.4142135623730951
 10
1957.841150500859
 20
279.6123233762457
 42
0.4142135623730951
 10
1959.213685281003
 20
280.984858156384
 42
0.4142135623730951
  0
LWPOLYLINE
  5
10F
330
905
100
AcDbEntity
  8
CUT
100
AcDbPolyline
 90
       10
 70
     1
 43
0.0
 10
2010.258963868338
 20
275.8642109221312
 42
-0.054677079145406
 10
2006.423776893087
 20
335.4615750092642
 42
-0.0497507225289806
 10
2022.883710867751
 20
425.1342008757762
 10
2103.59670684399
 20
425.1342008757762
 42
-0.0497507225289806
 10
2120.056640818566
 20
335.4615750092642
 42
-0.0546770791454043
 10
2116.221453843424
 20
275.8642109221312
 42
-0.8450245491202473
 10
2108.303724002977
 20
275.9109971594642
 42
0.1800355337390231
 10
2084.798371792229
 20
317.1603608969406
 42
0.3631020535028979
 10
2041.682045919468
 20
317.1603608969406
 42
0.1800351308751775
 10
2018.17669370872
 20
275.9109971594642
 42
-0.8450245491203077
  0
LWPOLYLINE
  5
110
330
905
100
AcDbEntity
  8
CUT
100
AcDbPolyline
 90
        4
 70
     1
 43
0.0
 10
2014.258592985567
 20
282.3573929365236
 42
0.4142135623730951
 10
2012.886058205429
 20
280.984858156384
 42
0.4142135623730951
 10
2014.258592985567
 20
279.6123233762457
 42
0.4142135623730951
 10
2015.631127765697
 20
280.984858156384
 42
0.4142135623730951
  0
LWPOLYLINE
  5
111
330
905
100
AcDbEntity
  8
CUT
100
AcDbPolyline
 90
        4
 70
     1
 43
0.0
 10
2112.221824726043
 20
282.3573929365236
 42
0.4142135623730951
 10
2110.849289945905
 20
280.984858156384
 42
0.4142135623730951
 10
2112.221824726043
 20
279.6123233762457
 42
0.4142135623730951
 10
2113.594359506173
 20
280.984858156384
 42
0.4142135623730951
  0
LWPOLYLINE
  5
112
330
905
100
AcDbEntity
  8
CUT
100
AcDbPolyline
 90
       10
 70
     1
 43
0.0
 10
2204.811651887048
 20
323.1846125370373
 42
0.2130829713034446
 10
2204.811651887048
 20
362.3196423330321
 42
0.1260915058449334
 10
2166.927563258792
 20
410.06458643884
 42
-0.6391121209120976
 10
2169.148606997001
 20
420.1983192919044
 42
-0.0766552065415989
 10
2290.485449384938
 20
428.0545938992829
 42
-0.0576783552377338
 10
2426.099826025831
 20
403.9317294361069
 10
2426.099826025831
 20
281.5725254339175
 42
-0.0576783552377338
 10
2290.485449384938
 20
257.4496609707714
 42
-0.0766552065415989
 10
2169.148606997001
 20
265.3059355781786
 42
-0.6391121209120798
 10
2166.927563258792
 20
275.4396684312144
 42
0.1260915058449334
  0
LWPOLYLINE
  5
113
330
905
100
AcDbEntity
  8
CUT
100
AcDbPolyline
 90
        4
 70
     1
 43
0.0
 10
2173.835191266396
 20
415.8140373933568
 42
0.4142135623730951
 10
2172.462656486252
 20
414.4415026132171
 42
0.4142135623730951
 10
2173.835191266396
 20
413.0689678330774
 42
0.4142135623730951
 10
2175.207726046541
 20
414.4415026132171
 42
0.4142135623730951
  0
LWPOLYLINE
  5
114
330
905
100
AcDbEntity
  8
CUT
100
AcDbPolyline
 90
        4
 70
     1
 43
0.0
 10
2173.835191266396
 20
272.4352870369905
 42
0.4142135623730951
 10
2172.462656486252
 20
271.0627522568509
 42
0.4142135623730951
 10
2173.835191266396
 20
269.6902174767113
 42
0.4142135623730951
 10
2175.207726046541
 20
271.0627522568509
 42
0.4142135623730951
  0
LWPOLYLINE
  5
115
330
905
100
AcDbEntity
  8
CUT
100
AcDbPolyline
 90
       43
 70
     1
 43
0.0
 10
2042.718622401368
 20
-506.697665503728
 42
0.2780432230721377
 10
2042.207415645895
 20
-521.5548996985265
 10
2044.709217729131
 20
-526.0486790754996
 10
2044.709217729174
 20
-535.6985345909245
 42
0.3996159966667103
 10
2053.828505474255
 20
-545.2864913976448
 10
2053.828505474255
 20
-533.2006764811315
 10
2059.828505474212
 20
-533.2006764811315
 10
2059.828505474212
 20
-545.2985345909194
 10
2060.420996181125
 20
-545.2985345909194
 42
0.2592585196445361
 10
2067.887356511008
 20
-539.9501178081703
 42
0.0968214896106882
 10
2071.063188791621
 20
-528.0977503803598
 42
0.0192463833330558
 10
2071.063188791621
 20
-528.0977503803598
 10
2071.063188791621
 20
-515.69966603746
 10
2067.02816991015
 20
-515.69966603746
 42
-0.3051318409961148
 10
2058.135105481397
 20
-509.7153824346853
 10
1965.893027815491
 20
-282.8406362968983
 42
0.823416850680805
 10
1963.119068151132
 20
-283.3829937564908
 10
1963.119068151132
 20
-293.7117238311359
 10
1799.307503026804
 20
-296.4773394882643
 42
-0.1910739725676742
 10
1796.989369046609
 20
-295.6028936880477
 10
1795.326622890872
 20
-294.0897968050006
 42
0.1867030641294045
 10
1793.065207400363
 20
-293.2148722523464
 10
1790.992194183458
 20
-293.2148722523464
 10
1790.992194183516
 20
-296.617726086188
 10
1749.302984846796
 20
-297.3215611907928
 10
1747.689492960442
 20
-296.0883781362211
 42
0.3912861318300691
 10
1743.14872165801
 20
-296.5135259588126
 42
0.3829793462037084
 10
1743.148721978457
 20
-307.2479298546962
 42
0.3912861125645995
 10
1747.689493169095
 20
-307.67307747589
 10
1749.302984846796
 20
-306.4398945808218
 10
1790.992194183458
 20
-307.1437296854131
 10
1790.992194183458
 20
-310.5465835192401
 10
1793.065207400363
 20
-310.5465835192401
 42
0.1867030641293881
 10
1795.326622890872
 20
-309.6716589665996
 10
1796.989369046609
 20
-308.158562083567
 42
-0.1910739725676493
 10
1799.307503026804
 20
-307.2841162833368
 10
1963.119068151132
 20
-310.0497319405233
 10
1963.119068151132
 20
-320.3784620151539
 10
1966.737563741957
 20
-318.2893226117296
 42
-0.4610398485063845
 10
1972.24266479113
 20
-320.2391238258836
 10
1987.075710134024
 20
-358.8933085098154
 42
0.9478145130576679
 10
1995.077937161386
 20
-379.7467175199629
 10
2043.39485693516
 20
-505.6582277408181
  0
LWPOLYLINE
  5
116
330
905
100
AcDbEntity
  8
CUT
100
AcDbPolyline
 90
       20
 70
     1
 43
0.0
 10
1700.289716597046
 20
181.4810376743105
 42
-0.8515824392818254
 10
1702.508329660526
 20
184.5549940310982
 10
1728.248345557596
 20
171.6350256740959
 42
0.2265914288363801
 10
1736.522946639652
 20
171.4733042127884
 10
1755.491219768879
 20
180.083531264114
 10
1755.491219768879
 20
134.876904416569
 10
1742.536983476395
 20
134.876904416569
 10
1742.536983476395
 20
128.8769044165758
 10
1755.491219768879
 20
128.8769044165758
 10
1755.491219768879
 20
83.67027756897346
 10
1736.522946639652
 20
92.28050462034275
 42
0.2265914288363978
 10
1728.248345557596
 20
92.11878315905028
 10
1702.508329660526
 20
79.19881480203435
 42
-0.8515824392818036
 10
1700.289716601324
 20
82.27277115449874
 42
0.0929733745862722
 10
1710.554086902291
 20
97.26847082575046
 10
1710.554086902204
 20
128.8769044165758
 10
1729.049987545306
 20
128.8769044165758
 10
1729.049987545306
 20
134.876904416569
 10
1710.554086902204
 20
134.876904416569
 10
1710.554086902291
 20
166.485338007322
 42
0.0929733745862772
  0
LWPOLYLINE
  5
117
330
905
100
AcDbEntity
  8
CUT
100
AcDbPolyline
 90
       20
 70
     1
 43
0.0
 10
1686.140341892835
 20
-142.0181531079117
 42
-0.8515824392818254
 10
1688.358954956169
 20
-138.9441967510959
 10
1714.098970853342
 20
-151.8641651081136
 42
0.2265914288363801
 10
1722.373571935404
 20
-152.0258865694479
 10
1741.341845064588
 20
-143.4156595180805
 10
1741.341845064588
 20
-188.6222863656387
 10
1728.387608772103
 20
-188.6222863656387
 10
1728.387608772103
 20
-194.6222863656323
 10
1741.341845064588
 20
-194.6222863656323
 10
1741.341845064631
 20
-239.8289132132352
 10
1722.373571935404
 20
-231.2186861618659
 42
0.2265914288363978
 10
1714.098970853342
 20
-231.3804076231575
 10
1688.358954956169
 20
-244.3003759801598
 42
-0.8515824392818036
 10
1686.140341897113
 20
-241.2264196277103
 42
0.0929733745862722
 10
1696.404712198
 20
-226.2307199564578
 10
1696.404712197949
 20
-194.6222863656323
 10
1714.900612841051
 20
-194.6222863656323
 10
1714.900612841051
 20
-188.6222863656387
 10
1696.404712197949
 20
-188.6222863656387
 10
1696.404712198
 20
-157.0138527748142
 42
0.0929733745862772
  0
LWPOLYLINE
  5
118
330
905
100
AcDbEntity
  8
CUT
100
AcDbPolyline
 90
       43
 70
     1
 43
0.0
 10
1918.122179458336
 20
-326.3769697449645
 10
1918.122179458336
 20
-362.1640619151888
 10
1924.122179458234
 20
-362.1640619151888
 10
1924.122179458234
 20
-326.3738594813224
 10
1927.801474038013
 20
-326.3719522186032
 42
-0.2634171531724254
 10
1934.749641757062
 20
-330.3054233831492
 10
1934.749641757062
 20
-373.1343355673155
 42
-0.161152276658102
 10
1928.791228524158
 20
-375.9037093400523
 10
1928.791228524158
 20
-581.3493891298169
 42
0.2668275936468222
 10
1934.15550575779
 20
-590.5138382048091
 10
1938.763203618579
 20
-593.1503423123233
 42
-0.2286529839590406
 10
1939.796576808727
 20
-595.2918979631788
 10
1939.796576808727
 20
-596.6521044853264
 10
1929.34296274339
 20
-596.6521044853264
 10
1926.525568013381
 20
-763.5306217905574
 42
0.1910739725675295
 10
1927.400013813658
 20
-765.8487557708233
 10
1928.913110696605
 20
-767.5115019264987
 42
-0.1867030641288029
 10
1929.788035249261
 20
-769.7729174170565
 10
1929.788035249261
 20
-771.8459306339366
 10
1926.385181415466
 20
-771.8459306339366
 10
1925.681346310801
 20
-813.5351399705589
 10
1926.914529205871
 20
-815.1486316483081
 42
-0.3912861125637146
 10
1926.489381584699
 20
-819.6894028389481
 42
-0.3829793462037786
 10
1915.754977688888
 20
-819.6894031593812
 42
-0.3912861318301377
 10
1915.329829866296
 20
-815.1486318569979
 10
1916.563012920869
 20
-813.5351399705589
 10
1915.859177816204
 20
-771.8459306338929
 10
1912.456323982416
 20
-771.8459306339366
 10
1912.456323982416
 20
-769.7729174170565
 42
-0.1867030641292778
 10
1913.331248535029
 20
-767.5115019264987
 10
1914.844345418019
 20
-765.8487557708233
 42
0.1910739725682241
 10
1915.718791218304
 20
-763.5306217905574
 10
1912.901396488185
 20
-596.6521044853264
 10
1902.447782107742
 20
-596.6521044853264
 10
1902.447782107742
 20
-595.2918979631788
 42
-0.2286529839590406
 10
1903.481155297933
 20
-593.1503423123233
 10
1908.088853158722
 20
-590.5138382048091
 42
0.2668275936468222
 10
1913.45313039231
 20
-581.3493891298169
 10
1913.45313039231
 20
-375.9037093400523
 42
-0.1611522766581444
 10
1907.494717159501
 20
-373.1343355673155
 10
1907.49471715945
 20
-330.3054233831492
 42
-0.263417153172412
 10
1914.442884878565
 20
-326.3719522186032
 10
1918.122179458336
 20
-326.3738594813224
  0
LWPOLYLINE
  5
119
330
905
100
AcDbEntity
  8
CUT
100
AcDbPolyline
 90
       43
 70
     1
 43
0.0
 10
1866.285734439934
 20
-915.0426918005134
 10
1866.285734439934
 20
-879.2555996303029
 10
1860.285734439935
 20
-879.2555996303029
 10
1860.285734439935
 20
-915.0458020641556
 10
1856.606439860316
 20
-915.0477093268293
 42
-0.2634171531724254
 10
1849.658272141209
 20
-911.1142381623288
 10
1849.658272141209
 20
-868.2853259781598
 42
-0.161152276658102
 10
1855.616685374127
 20
-865.5159522054248
 10
1855.616685374127
 20
-594.4664047438866
 42
0.2668275936468222
 10
1850.252408140524
 20
-585.3019556688807
 10
1845.644710279699
 20
-582.6654515613647
 42
-0.2286529839590406
 10
1844.611337089543
 20
-580.5238959105102
 10
1844.611337089543
 20
-579.1636893883763
 10
1855.064951154865
 20
-579.1636893883763
 10
1857.882345884846
 20
-390.1316966847001
 42
0.1910739725675295
 10
1857.007900084714
 20
-387.8135627044351
 10
1855.494803201723
 20
-386.1508165487596
 42
-0.1867030641288029
 10
1854.619878649024
 20
-383.8894010581583
 10
1854.619878649024
 20
-381.8163878413218
 10
1858.022732482812
 20
-381.8163878413218
 10
1858.72656758747
 20
-330.927769280531
 10
1857.4933846924
 20
-329.3142776027819
 42
-0.3912861125637146
 10
1857.918532313572
 20
-324.7735064121573
 42
-0.3829793462037786
 10
1868.652936209426
 20
-324.7735060917087
 42
-0.3912861318301377
 10
1869.078084032076
 20
-329.314277394092
 10
1867.844900977496
 20
-330.927769280531
 10
1868.548736082066
 20
-381.8163878413218
 10
1871.951589915898
 20
-381.8163878413218
 10
1871.951589915898
 20
-383.8894010581583
 42
-0.1867030641292778
 10
1871.076665363242
 20
-386.1508165487596
 10
1869.563568480251
 20
-387.8135627044351
 42
0.1910739725682241
 10
1868.689122679967
 20
-390.1316966847001
 10
1871.506517410042
 20
-579.1636893883763
 10
1881.960131790536
 20
-579.1636893883763
 10
1881.960131790536
 20
-580.5238959105102
 42
-0.2286529839590406
 10
1880.926758600337
 20
-582.6654515613647
 10
1876.319060739461
 20
-585.3019556688807
 42
0.2668275936468222
 10
1870.95478350596
 20
-594.4664047438866
 10
1870.95478350596
 20
-865.5159522054248
 42
-0.1611522766581444
 10
1876.913196738769
 20
-868.2853259781598
 10
1876.913196738878
 20
-911.1142381623288
 42
-0.263417153172412
 10
1869.965029019728
 20
-915.047709326873
 10
1866.285734439934
 20
-915.0458020641556
  0
LWPOLYLINE
  5
11A
330
905
100
AcDbEntity
  8
CUT
100
AcDbPolyline
 90
       43
 70
     1
 43
0.0
 10
1805.306891514145
 20
-322.9903034408283
 10
1805.306891514145
 20
-358.7773956110516
 10
1811.306891514101
 20
-358.7773956110516
 10
1811.306891514101
 20
-322.9871931771861
 10
1814.986186093836
 20
-322.9852859145278
 42
-0.2634171531724254
 10
1821.934353812892
 20
-326.9187570790566
 10
1821.934353812892
 20
-369.7476692631819
 42
-0.161152276658102
 10
1815.975940580032
 20
-372.5170430359006
 10
1815.975940580032
 20
-555.3510182547409
 42
0.2668275936468222
 10
1821.34021781362
 20
-564.5154673296749
 10
1825.94791567446
 20
-567.1519714372054
 42
-0.2286529839590406
 10
1826.981288864659
 20
-569.2935270880309
 10
1826.981288864659
 20
-570.653733610253
 10
1816.527674799286
 20
-570.653733610253
 10
1813.710280069204
 20
-737.5322509154805
 42
0.1910739725675295
 10
1814.584725869474
 20
-739.8503848957327
 10
1816.097822752457
 20
-741.5131310513645
 42
-0.1867030641288029
 10
1816.972747305128
 20
-743.7745465419659
 10
1816.972747305128
 20
-745.8475597588615
 10
1813.569893471347
 20
-745.8475597588615
 10
1812.866058366726
 20
-787.5367690954829
 10
1814.09924126176
 20
-789.1502607731601
 42
-0.3912861125637146
 10
1813.674093640566
 20
-793.691031963842
 42
-0.3829793462037786
 10
1802.939689744711
 20
-793.6910322843043
 42
-0.3912861318301377
 10
1802.514541922112
 20
-789.150260981922
 10
1803.747724976656
 20
-787.5367690954829
 10
1803.0438898721
 20
-745.8475597588178
 10
1799.64103603824
 20
-745.8475597588615
 10
1799.64103603824
 20
-743.7745465419659
 42
-0.1867030641292778
 10
1800.515960590903
 20
-741.5131310513645
 10
1802.029057473952
 20
-739.8503848957327
 42
0.1910739725682241
 10
1802.903503274134
 20
-737.5322509154805
 10
1800.086108544095
 20
-570.653733610253
 10
1789.632494163608
 20
-570.653733610253
 10
1789.632494163608
 20
-569.2935270880309
 42
-0.2286529839590406
 10
1790.6658673538
 20
-567.1519714372054
 10
1795.273565214633
 20
-564.5154673296749
 42
0.2668275936468222
 10
1800.637842448235
 20
-555.3510182547409
 10
1800.637842448235
 20
-372.5170430359006
 42
-0.1611522766581444
 10
1794.679429215375
 20
-369.7476692631819
 10
1794.679429215273
 20
-326.9187570790566
 42
-0.263417153172412
 10
1801.627596934482
 20
-322.9852859144823
 10
1805.306891514145
 20
-322.9871931771861
  0
LWPOLYLINE
  5
11B
330
905
100
AcDbEntity
  8
CUT
100
AcDbPolyline
 90
       24
 70
     1
 43
0.0
 10
1461.481937804663
 20
-799.5055979928068
 10
1461.481937804663
 20
-884.1440954646079
 10
1478.61106059029
 20
-884.1440954646079
 42
-0.2975001856614611
 10
1500.582078312927
 20
-898.4862292287518
 10
1500.745628226814
 20
-898.8582946486214
 10
1556.324124856848
 20
-898.8582946486214
 10
1556.324124856848
 20
-336.5406653207813
 10
1513.589179318904
 20
-300.5639933311552
 10
1418.868897567223
 20
-284.1925735749694
 42
0.3598466782083701
 10
1413.55953303778
 20
-287.2303346329829
 10
1411.034615958004
 20
-293.9329504884984
 10
1463.404618620258
 20
-302.9845630931279
 10
1462.382732118971
 20
-308.8969017149032
 10
1411.339427476803
 20
-300.0745951234369
 10
1438.819182891126
 20
-512.2236719294225
 10
1445.200012830723
 20
-513.1375439782616
 42
-0.3368723255855202
 10
1465.598578465066
 20
-533.8121444370274
 10
1475.805917169371
 20
-612.6147920635332
 10
1491.356284899852
 20
-617.9156722963673
 42
-0.3209520083491143
 10
1507.612609906278
 20
-640.6320870133188
 10
1507.612609906278
 20
-740.0446021128721
 42
-0.1174951322357882
 10
1498.926291493011
 20
-776.9170608927764
 42
-0.2845246263178119
 10
1462.938669848543
 20
-799.1996616121989
 10
1461.481937804706
 20
-799.1996616121989
  0
LWPOLYLINE
  5
11C
330
905
100
AcDbEntity
  8
CUT
100
AcDbPolyline
 90
       39
 70
     1
 43
0.0
 10
1307.126484128075
 20
-867.3519661449311
 10
1300.253745501843
 20
-844.4426776544071
 10
1287.089186092675
 20
-848.3920179399603
 42
-0.2717860724716888
 10
1277.647432687026
 20
-846.0884998095181
 42
-0.3146432808433079
 10
1273.524732653048
 20
-824.775430429265
 42
-0.2185701862488651
 10
1279.537347497778
 20
-819.4824918540664
 10
1279.96656818617
 20
-819.3537265453736
 10
1283.843724886141
 20
-833.8234723384005
 10
1289.639279843872
 20
-832.2705580678105
 10
1285.716057208952
 20
-817.628891865139
 10
1292.004660399467
 20
-815.7423240623341
 42
-0.0057963525187786
 10
1282.883329182816
 20
-774.8073601485923
 42
-0.0322461974208386
 10
1272.536498213285
 20
-703.0376642608218
 42
-0.0300734769416761
 10
1269.394438805149
 20
-533.9629975640202
 10
1271.513867222031
 20
-482.9797012140363
 10
1336.73308241415
 20
-482.9797012140363
 10
1336.73308241415
 20
-587.7437501321794
 10
1342.733082414106
 20
-587.7437501321794
 10
1342.733082414106
 20
-482.9797012140363
 10
1407.952297606233
 20
-482.9797012140363
 10
1410.071726023056
 20
-533.9629975640202
 42
-0.0300734769416761
 10
1406.929666614927
 20
-703.0376642608218
 42
-0.0322461974208386
 10
1396.582835645484
 20
-774.8073601485923
 42
-0.0057963525187786
 10
1387.461504428876
 20
-815.7423240623341
 10
1393.750107619296
 20
-817.628891865139
 10
1389.826884984442
 20
-832.2705580678105
 10
1395.622439942173
 20
-833.8234723384005
 10
1399.499596642145
 20
-819.3537265453736
 10
1399.928817330441
 20
-819.4824918540664
 42
-0.2185701862487567
 10
1405.941432175259
 20
-824.775430429265
 42
-0.3146432808432855
 10
1401.818732141288
 20
-846.0884998095181
 42
-0.2717860724717035
 10
1392.376978735596
 20
-848.3920179399603
 10
1379.212419326457
 20
-844.4426776544071
 10
1372.339680700195
 20
-867.3519661449311
 10
1342.781890167894
 20
-867.3519661449311
 10
1342.781890167894
 20
-847.728513860294
 10
1336.78189016788
 20
-847.728513860294
 10
1336.78189016788
 20
-867.3519661449311
 10
1307.224099635565
 20
-867.3519661449311
  0
LWPOLYLINE
  5
11D
330
905
100
AcDbEntity
  8
CUT
100
AcDbPolyline
 90
       24
 70
     1
 43
0.0
 10
1218.585913684099
 20
-799.5055979928068
 10
1218.585913684099
 20
-884.1440954646079
 10
1201.456790898399
 20
-884.1440954646079
 42
0.2975001856614611
 10
1179.485773175718
 20
-898.4862292287518
 10
1179.322223261875
 20
-898.8582946486214
 10
1123.743726631841
 20
-898.8582946486214
 10
1123.743726631841
 20
-336.5406653207813
 10
1166.478672169698
 20
-300.5639933311552
 10
1261.19895392151
 20
-284.1925735749694
 42
-0.3598466782083701
 10
1266.508318450909
 20
-287.2303346329829
 10
1269.033235530685
 20
-293.9329504884984
 10
1216.663232868497
 20
-302.9845630931279
 10
1217.685119369675
 20
-308.8969017149032
 10
1268.728424011886
 20
-300.0745951234369
 10
1241.248668597563
 20
-512.2236719294225
 10
1234.867838657967
 20
-513.1375439782616
 42
0.3368723255855202
 10
1214.469273023667
 20
-533.8121444370274
 10
1204.261934319318
 20
-612.6147920635332
 10
1188.711566588837
 20
-617.9156722963673
 42
0.3209520083491143
 10
1172.455241582411
 20
-640.6320870133188
 10
1172.455241582411
 20
-740.0446021128721
 42
0.1174951322357882
 10
1181.141559995678
 20
-776.9170608927764
 42
0.2845246263178119
 10
1217.129181640233
 20
-799.1996616121989
 10
1218.585913684099
 20
-799.1996616121989
  0
LWPOLYLINE
  5
11E
330
905
100
AcDbEntity
  8
CUT
100
AcDbPolyline
 90
       16
 70
     1
 43
0.0
 10
1463.664762348013
 20
200.1720542899454
 10
1362.859427379324
 20
200.1720808825087
 42
0.029124993195898
 10
1123.112720177381
 20
186.9883962799265
 10
1123.112720177381
 20
136.1775685676259
 10
1285.661205358654
 20
136.1775685675809
 10
1285.661205358654
 20
166.0920138063704
 10
1291.661205358654
 20
166.0920138063704
 10
1291.661205358654
 20
136.1775685675372
 10
1522.916360958643
 20
136.1775685675372
 10
1522.916360958643
 20
166.0920138063704
 10
1528.916360958643
 20
166.0920138063704
 10
1528.916360958643
 20
136.1775685675372
 10
1673.743726212346
 20
136.1775685675372
 10
1673.743726212346
 20
165.6093851330709
 10
1641.374441990698
 20
176.0347059093672
 42
0.0833747271970353
 10
1463.817419456925
 20
200.1744389663402
  0
LWPOLYLINE
  5
11F
330
905
100
AcDbEntity
  8
CUT
100
AcDbPolyline
 90
       16
 70
     1
 43
0.0
 10
1463.664762348013
 20
60.18308284532145
 10
1362.859427379324
 20
60.18305625271455
 42
-0.029124993195898
 10
1123.112720177381
 20
73.36674085531035
 10
1123.112720177381
 20
124.1775685676409
 10
1285.661205358654
 20
124.1775685677132
 10
1285.661205358654
 20
94.26312332886778
 10
1291.661205358654
 20
94.26312332886778
 10
1291.661205358654
 20
124.1775685677432
 10
1522.916360958643
 20
124.1775685677132
 10
1522.916360958643
 20
94.26312332886778
 10
1528.916360958643
 20
94.26312332886778
 10
1528.916360958643
 20
124.1775685677432
 10
1673.743726212346
 20
124.1775685677432
 10
1673.743726212346
 20
94.74575200222602
 10
1641.374441990698
 20
84.32043122585469
 42
-0.0833747271970353
 10
1463.817419456925
 20
60.18069816889806
  0
ENDSEC
  0
SECTION
  2
OBJECTS
  0
DICTIONARY
  5
8A1
330
0
100
AcDbDictionary
281
     1
  3
ACAD_BACKGROUND
350
913
  3
ACAD_CIP_PREVIOUS_PRODUCT_INFO
350
912
  3
ACAD_COLOR
350
8F7
  3
ACAD_DETAILVIEWSTYLE
350
8FF
  3
ACAD_GROUP
350
8A2
  3
ACAD_LAYOUT
350
8F6
  3
ACAD_MATERIAL
350
8A5
  3
ACAD_MLEADERSTYLE
350
8FA
  3
ACAD_MLINESTYLE
350
8F3
  3
ACAD_PLOTSETTINGS
350
8F5
  3
ACAD_PLOTSTYLENAME
350
8A3
  3
ACAD_SCALELIST
350
8D7
  3
ACAD_SECTIONVIEWSTYLE
350
8FC
  3
ACAD_TABLESTYLE
350
8F8
  3
ACAD_VISUALSTYLE
350
8BE
  3
ACDB_RECOMPOSE_DATA
350
9E5
  3
AcDbVariableDictionary
350
91A
  3
DWGPROPS
350
9E6
  0
DICTIONARY
  5
916
330
8E9
100
AcDbDictionary
280
     1
281
     1
  3
ADSK_XREC_LAYER_RECONCILED
360
917
  0
DICTIONARY
  5
918
330
90B
100
AcDbDictionary
280
     1
281
     1
  3
ADSK_XREC_LAYER_RECONCILED
360
919
  0
DICTIONARY
  5
913
102
{ACAD_REACTORS
330
8A1
102
}
330
8A1
100
AcDbDictionary
281
     1
  0
XRECORD
  5
912
102
{ACAD_REACTORS
330
8A1
102
}
330
8A1
100
AcDbXrecord
280
     1
300
ACD
300
2013
300
ACD_F_S
  0
DICTIONARY
  5
8F7
102
{ACAD_REACTORS
330
8A1
102
}
330
8A1
100
AcDbDictionary
281
     1
  0
DICTIONARY
  5
8FF
102
{ACAD_REACTORS
330
8A1
102
}
330
8A1
100
AcDbDictionary
281
     1
  3
Imperial24
350
900
  0
DICTIONARY
  5
8A2
102
{ACAD_REACTORS
330
8A1
102
}
330
8A1
100
AcDbDictionary
281
     1
  0
DICTIONARY
  5
8F6
102
{ACAD_REACTORS
330
8A1
102
}
330
8A1
100
AcDbDictionary
281
     1
  3
Layout1
350
904
  3
Model
350
908
  0
DICTIONARY
  5
8A5
102
{ACAD_REACTORS
330
8A1
102
}
330
8A1
100
AcDbDictionary
281
     1
  3
ByBlock
350
8AE
  3
ByLayer
350
8A6
  3
Global
350
8B6
  0
DICTIONARY
  5
8FA
102
{ACAD_REACTORS
330
8A1
102
}
330
8A1
100
AcDbDictionary
281
     1
  3
Standard
350
8FB
  0
DICTIONARY
  5
8F3
102
{ACAD_REACTORS
330
8A1
102
}
330
8A1
100
AcDbDictionary
281
     1
  3
Standard
350
8F4
  0
DICTIONARY
  5
8F5
102
{ACAD_REACTORS
330
8A1
102
}
330
8A1
100
AcDbDictionary
281
     1
  0
ACDBDICTIONARYWDFLT
  5
8A3
102
{ACAD_REACTORS
330
8A1
102
}
330
8A1
100
AcDbDictionary
281
     1
  3
Normal
350
8A4
100
AcDbDictionaryWithDefault
340
8A4
  0
DICTIONARY
  5
8D7
102
{ACAD_REACTORS
330
8A1
102
}
330
8A1
100
AcDbDictionary
281
     1
  3
A0
350
8D8
  3
A1
350
8D9
  3
A2
350
8DA
  3
A3
350
8DB
  3
A4
350
8DC
  3
A5
350
8DD
  3
A6
350
8DE
  3
A7
350
8DF
  3
A8
350
8E0
  3
A9
350
8E1
  3
B0
350
8E2
  3
B1
350
8E3
  3
B2
350
8E4
  3
B3
350
8E5
  3
B4
350
8E6
  3
B5
350
8E7
  3
B6
350
8E8
  0
DICTIONARY
  5
8FC
102
{ACAD_REACTORS
330
8A1
102
}
330
8A1
100
AcDbDictionary
281
     1
  3
Imperial24
350
8FE
  0
DICTIONARY
  5
8F8
102
{ACAD_REACTORS
330
8A1
102
}
330
8A1
100
AcDbDictionary
281
     1
  3
Standard
350
8F9
  0
DICTIONARY
  5
8BE
102
{ACAD_REACTORS
330
8A1
102
}
330
8A1
100
AcDbDictionary
281
     1
  3
2dWireframe
350
8C4
  3
Basic
350
8C3
  3
Brighten
350
8CA
  3
ColorChange
350
8CE
  3
Conceptual
350
8C7
  3
Dim
350
8C9
  3
EdgeColorOff
350
8D6
  3
Facepattern
350
8CD
  3
Flat
350
8BF
  3
FlatWithEdges
350
8C0
  3
Gouraud
350
8C1
  3
GouraudWithEdges
350
8C2
  3
Hidden
350
8C6
  3
JitterOff
350
8D4
  3
Linepattern
350
8CC
  3
OverhangOff
350
8D5
  3
Realistic
350
8C8
  3
Shaded
350
8D3
  3
Shaded with edges
350
8D2
  3
Shades of Gray
350
8CF
  3
Sketchy
350
8D0
  3
Thicken
350
8CB
  3
Wireframe
350
8C5
  3
X-Ray
350
8D1
  0
XRECORD
  5
9E5
102
{ACAD_REACTORS
330
8A1
102
}
330
8A1
100
AcDbXrecord
280
     1
 90
        1
330
8F9
  0
DICTIONARY
  5
91A
102
{ACAD_REACTORS
330
8A1
102
}
330
8A1
100
AcDbDictionary
281
     1
  3
CANNOSCALE
350
91F
  3
CMLEADERSTYLE
350
91C
  3
CTABLESTYLE
350
91B
  3
CVIEWDETAILSTYLE
350
91D
  3
CVIEWSECTIONSTYLE
350
91E
  3
DIMASSOC
350
922
  3
INDEXCTL
350
921
  3
SORTENTS
350
920
  3
XCLIPFRAME
350
923
  0
XRECORD
  5
9E6
102
{ACAD_REACTORS
330
8A1
102
}
330
8A1
100
AcDbXrecord
280
     1
  1
DWGPROPS COOKIE
  2

  3

  4

  6

  7

  8
makecnc_Master
  9

300
=
301
=
302
=
303
=
304
=
305
=
306
=
307
=
308
=
309
=
 40
0.0019341435185185
 41
2454910.5
 42
2457186.958211759
  1

 90
        0
  0
XRECORD
  5
917
102
{ACAD_REACTORS
330
916
102
}
330
916
100
AcDbXrecord
280
     1
290
     1
  0
XRECORD
  5
919
102
{ACAD_REACTORS
330
918
102
}
330
918
100
AcDbXrecord
280
     1
290
     1
  0
ACDBDETAILVIEWSTYLE
  5
900
102
{ACAD_REACTORS
330
8FF
102
}
330
8FF
100
AcDbModelDocViewStyle
 70
     0
  3
Imperial24
290
     0
100
AcDbDetailViewStyle
 70
     0
 71
     0
 90
        3
 71
     1
340
8EA
 40
0.24
340
0
 40
0.24
300

 40
0.36
280
     3
 71
     2
340
8F1
 90
       25
 71
     3
340
8EA
 40
0.24
 90
        1
 40
0.75
 90
        1
300
%<\AcVar ViewType \f "%tc1">% %<\AcVar ViewDetailId>%\PSCALE %<\AcVar ViewScale \f "%sn">%
 71
     4
340
8F1
 90
       25
340
8F1
 90
       25
280
     0
  0
LAYOUT
  5
904
102
{ACAD_XDICTIONARY
360
A1C
102
}
102
{ACAD_REACTORS
330
8F6
102
}
330
8F6
100
AcDbPlotSettings
  1

  2
Disc Publisher II
  4

  6

 40
0.0
 41
0.0
 42
0.0
 43
0.0
 44
0.0
 45
0.0
 46
0.0
 47
0.0
 48
0.0
 49
0.0
140
0.0
141
0.0
142
1.0
143
1.0
 70
   688
 72
     0
 73
     0
 74
     5
  7

 75
    16
147
1.0
148
0.0
149
0.0
100
AcDbLayout
  1
Layout1
 70
     1
 71
     1
 10
0.0
 20
0.0
 11
12.0
 21
9.0
 12
0.0
 22
0.0
 32
0.0
 14
1.000000000000000E+20
 24
1.000000000000000E+20
 34
1.000000000000000E+20
 15
-1.000000000000000E+20
 25
-1.000000000000000E+20
 35
-1.000000000000000E+20
146
0.0
 13
0.0
 23
0.0
 33
0.0
 16
1.0
 26
0.0
 36
0.0
 17
0.0
 27
1.0
 37
0.0
 76
     0
330
901
  0
LAYOUT
  5
908
102
{ACAD_XDICTIONARY
360
A1E
102
}
102
{ACAD_REACTORS
330
8F6
102
}
330
8F6
100
AcDbPlotSettings
  1

  2
Disc Publisher II
  4

  6

 40
0.0
 41
0.0
 42
0.0
 43
0.0
 44
0.0
 45
0.0
 46
0.0
 47
0.0
 48
0.0
 49
0.0
140
0.0
141
0.0
142
1.0
143
1.0
 70
  1712
 72
     0
 73
     0
 74
     0
  7

 75
     0
147
1.0
148
0.0
149
0.0
100
AcDbLayout
  1
Model
 70
     1
 71
     0
 10
0.0
 20
0.0
 11
12.0
 21
9.0
 12
0.0
 22
0.0
 32
0.0
 14
0.0
 24
0.0
 34
0.0
 15
0.0
 25
0.0
 35
0.0
146
0.0
 13
0.0
 23
0.0
 33
0.0
 16
1.0
 26
0.0
 36
0.0
 17
0.0
 27
1.0
 37
0.0
 76
     0
330
905
331
909
  0
MATERIAL
  5
8AE
102
{ACAD_XDICTIONARY
360
8AF
102
}
102
{ACAD_REACTORS
330
8A5
102
}
330
8A5
100
AcDbMaterial
  1
ByBlock
 72
     0
 43
0.0208333333333333
 43
0.0
 43
0.0
 43
0.0
 43
0.0
 43
0.0208333333333333
 43
0.0
 43
0.0
 43
0.0
 43
0.0
 43
1.0
 43
0.0
 43
0.0
 43
0.0
 43
0.0
 43
1.0
 77
     0
 47
0.0208333333333333
 47
0.0
 47
0.0
 47
0.0
 47
0.0
 47
0.0208333333333333
 47
0.0
 47
0.0
 47
0.0
 47
0.0
 47
1.0
 47
0.0
 47
0.0
 47
0.0
 47
0.0
 47
1.0
171
     0
 49
0.0208333333333333
 49
0.0
 49
0.0
 49
0.0
 49
0.0
 49
0.0208333333333333
 49
0.0
 49
0.0
 49
0.0
 49
0.0
 49
1.0
 49
0.0
 49
0.0
 49
0.0
 49
0.0
 49
1.0
175
     0
142
0.0208333333333333
142
0.0
142
0.0
142
0.0
142
0.0
142
0.0208333333333333
142
0.0
142
0.0
142
0.0
142
0.0
142
1.0
142
0.0
142
0.0
142
0.0
142
0.0
142
1.0
179
     0
144
0.0208333333333333
144
0.0
144
0.0
144
0.0
144
0.0
144
0.0208333333333333
144
0.0
144
0.0
144
0.0
144
0.0
144
1.0
144
0.0
144
0.0
144
0.0
144
0.0
144
1.0
147
0.0208333333333333
147
0.0
147
0.0
147
0.0
147
0.0
147
0.0208333333333333
147
0.0
147
0.0
147
0.0
147
0.0
147
1.0
147
0.0
147
0.0
147
0.0
147
0.0
147
1.0
  0
MATERIAL
  5
8A6
102
{ACAD_XDICTIONARY
360
8A7
102
}
102
{ACAD_REACTORS
330
8A5
102
}
330
8A5
100
AcDbMaterial
  1
ByLayer
 72
     0
 43
0.0208333333333333
 43
0.0
 43
0.0
 43
0.0
 43
0.0
 43
0.0208333333333333
 43
0.0
 43
0.0
 43
0.0
 43
0.0
 43
1.0
 43
0.0
 43
0.0
 43
0.0
 43
0.0
 43
1.0
 77
     0
 47
0.0208333333333333
 47
0.0
 47
0.0
 47
0.0
 47
0.0
 47
0.0208333333333333
 47
0.0
 47
0.0
 47
0.0
 47
0.0
 47
1.0
 47
0.0
 47
0.0
 47
0.0
 47
0.0
 47
1.0
171
     0
 49
0.0208333333333333
 49
0.0
 49
0.0
 49
0.0
 49
0.0
 49
0.0208333333333333
 49
0.0
 49
0.0
 49
0.0
 49
0.0
 49
1.0
 49
0.0
 49
0.0
 49
0.0
 49
0.0
 49
1.0
175
     0
142
0.0208333333333333
142
0.0
142
0.0
142
0.0
142
0.0
142
0.0208333333333333
142
0.0
142
0.0
142
0.0
142
0.0
142
1.0
142
0.0
142
0.0
142
0.0
142
0.0
142
1.0
179
     0
144
0.0208333333333333
144
0.0
144
0.0
144
0.0
144
0.0
144
0.0208333333333333
144
0.0
144
0.0
144
0.0
144
0.0
144
1.0
144
0.0
144
0.0
144
0.0
144
0.0
144
1.0
147
0.0208333333333333
147
0.0
147
0.0
147
0.0
147
0.0
147
0.0208333333333333
147
0.0
147
0.0
147
0.0
147
0.0
147
1.0
147
0.0
147
0.0
147
0.0
147
0.0
147
1.0
  0
MATERIAL
  5
8B6
102
{ACAD_XDICTIONARY
360
8B7
102
}
102
{ACAD_REACTORS
330
8A5
102
}
330
8A5
100
AcDbMaterial
  1
Global
 72
     0
 43
0.0208333333333333
 43
0.0
 43
0.0
 43
0.0
 43
0.0
 43
0.0208333333333333
 43
0.0
 43
0.0
 43
0.0
 43
0.0
 43
1.0
 43
0.0
 43
0.0
 43
0.0
 43
0.0
 43
1.0
 77
     0
 47
0.0208333333333333
 47
0.0
 47
0.0
 47
0.0
 47
0.0
 47
0.0208333333333333
 47
0.0
 47
0.0
 47
0.0
 47
0.0
 47
1.0
 47
0.0
 47
0.0
 47
0.0
 47
0.0
 47
1.0
171
     0
 49
0.0208333333333333
 49
0.0
 49
0.0
 49
0.0
 49
0.0
 49
0.0208333333333333
 49
0.0
 49
0.0
 49
0.0
 49
0.0
 49
1.0
 49
0.0
 49
0.0
 49
0.0
 49
0.0
 49
1.0
175
     0
142
0.0208333333333333
142
0.0
142
0.0
142
0.0
142
0.0
142
0.0208333333333333
142
0.0
142
0.0
142
0.0
142
0.0
142
1.0
142
0.0
142
0.0
142
0.0
142
0.0
142
1.0
179
     0
144
0.0208333333333333
144
0.0
144
0.0
144
0.0
144
0.0
144
0.0208333333333333
144
0.0
144
0.0
144
0.0
144
0.0
144
1.0
144
0.0
144
0.0
144
0.0
144
0.0
144
1.0
147
0.0208333333333333
147
0.0
147
0.0
147
0.0
147
0.0
147
0.0208333333333333
147
0.0
147
0.0
147
0.0
147
0.0
147
1.0
147
0.0
147
0.0
147
0.0
147
0.0
147
1.0
  0
MLEADERSTYLE
  5
8FB
102
{ACAD_REACTORS
330
8FA
102
}
330
8FA
100
AcDbMLeaderStyle
170
     2
171
     1
172
     0
 90
        2
 40
0.0
 41
0.0
173
     1
 91
-1056964608
340
8EF
 92
       -2
290
     1
 42
0.09
291
     1
 43
0.36
  3
Standard
 44
0.18
300

342
8EA
174
     1
178
     6
175
     1
176
     0
 93
-1056964608
 45
0.18
292
     0
297
     0
 46
0.18
 94
-1056964608
 47
1.0
 49
1.0
140
1.0
293
     1
141
0.0
294
     1
177
     0
142
1.0
295
     0
296
     0
143
0.125
1001
ACAD_MLEADERVER
1070
     2
  0
MLINESTYLE
  5
8F4
102
{ACAD_REACTORS
330
8F3
102
}
330
8F3
100
AcDbMlineStyle
  2
STANDARD
 70
     0
  3

 62
   256
 51
90.0
 52
90.0
 71
     2
 49
0.5
 62
   256
  6
BYLAYER
 49
-0.5
 62
   256
  6
BYLAYER
  0
ACDBPLACEHOLDER
  5
8A4
102
{ACAD_REACTORS
330
8A3
102
}
330
8A3
  0
SCALE
  5
8D8
102
{ACAD_REACTORS
330
8D7
102
}
330
8D7
100
AcDbScale
 70
     0
300
1:1
140
1.0
141
1.0
290
     1
  0
SCALE
  5
8D9
102
{ACAD_REACTORS
330
8D7
102
}
330
8D7
100
AcDbScale
 70
     0
300
1/128" = 1'-0"
140
0.0078125
141
12.0
290
     0
  0
SCALE
  5
8DA
102
{ACAD_REACTORS
330
8D7
102
}
330
8D7
100
AcDbScale
 70
     0
300
1/64" = 1'-0"
140
0.015625
141
12.0
290
     0
  0
SCALE
  5
8DB
102
{ACAD_REACTORS
330
8D7
102
}
330
8D7
100
AcDbScale
 70
     0
300
1/32" = 1'-0"
140
0.03125
141
12.0
290
     0
  0
SCALE
  5
8DC
102
{ACAD_REACTORS
330
8D7
102
}
330
8D7
100
AcDbScale
 70
     0
300
1/16" = 1'-0"
140
0.0625
141
12.0
290
     0
  0
SCALE
  5
8DD
102
{ACAD_REACTORS
330
8D7
102
}
330
8D7
100
AcDbScale
 70
     0
300
3/32" = 1'-0"
140
0.09375
141
12.0
290
     0
  0
SCALE
  5
8DE
102
{ACAD_REACTORS
330
8D7
102
}
330
8D7
100
AcDbScale
 70
     0
300
1/8" = 1'-0"
140
0.125
141
12.0
290
     0
  0
SCALE
  5
8DF
102
{ACAD_REACTORS
330
8D7
102
}
330
8D7
100
AcDbScale
 70
     0
300
3/16" = 1'-0"
140
0.1875
141
12.0
290
     0
  0
SCALE
  5
8E0
102
{ACAD_REACTORS
330
8D7
102
}
330
8D7
100
AcDbScale
 70
     0
300
1/4" = 1'-0"
140
0.25
141
12.0
290
     0
  0
SCALE
  5
8E1
102
{ACAD_REACTORS
330
8D7
102
}
330
8D7
100
AcDbScale
 70
     0
300
3/8" = 1'-0"
140
0.375
141
12.0
290
     0
  0
SCALE
  5
8E2
102
{ACAD_REACTORS
330
8D7
102
}
330
8D7
100
AcDbScale
 70
     0
300
1/2" = 1'-0"
140
0.5
141
12.0
290
     0
  0
SCALE
  5
8E3
102
{ACAD_REACTORS
330
8D7
102
}
330
8D7
100
AcDbScale
 70
     0
300
3/4" = 1'-0"
140
0.75
141
12.0
290
     0
  0
SCALE
  5
8E4
102
{ACAD_REACTORS
330
8D7
102
}
330
8D7
100
AcDbScale
 70
     0
300
1" = 1'-0"
140
1.0
141
12.0
290
     0
  0
SCALE
  5
8E5
102
{ACAD_REACTORS
330
8D7
102
}
330
8D7
100
AcDbScale
 70
     0
300
1-1/2" = 1'-0"
140
1.5
141
12.0
290
     0
  0
SCALE
  5
8E6
102
{ACAD_REACTORS
330
8D7
102
}
330
8D7
100
AcDbScale
 70
     0
300
3" = 1'-0"
140
3.0
141
12.0
290
     0
  0
SCALE
  5
8E7
102
{ACAD_REACTORS
330
8D7
102
}
330
8D7
100
AcDbScale
 70
     0
300
6" = 1'-0"
140
6.0
141
12.0
290
     0
  0
SCALE
  5
8E8
102
{ACAD_REACTORS
330
8D7
102
}
330
8D7
100
AcDbScale
 70
     0
300
1'-0" = 1'-0"
140
12.0
141
12.0
290
     0
  0
ACDBSECTIONVIEWSTYLE
  5
8FE
102
{ACAD_REACTORS
330
8FC
102
}
330
8FC
100
AcDbModelDocViewStyle
 70
     0
  3
Imperial24
290
     0
100
AcDbSectionViewStyle
 70
     0
 71
     0
 90
       78
 71
     1
340
8EA
 40
0.24
340
0
340
0
 40
0.24
300
I, O, Q, S, X, Z
 40
0.48
 90
        3
 40
0.18
 90
        1
 71
     2
340
8FD
 90
       25
340
8F1
 90
       50
 40
0.24
 40
0.0
 40
0.24
 71
     3
340
8EA
 40
0.24
 90
        1
 40
0.75
 90
        1
300
%<\AcVar ViewType \f "%tc1">% %<\AcVar ViewSectionStartId>%-%<\AcVar ViewSectionEndId>%\PSCALE %<\AcVar ViewScale \f "%sn">%
 71
     4
300
ANSI31
 40
1.0
 90
        0
290
     0
290
     0
 90
        6
 40
0.0
 40
1.570796326794896
 40
0.2617993877991494
 40
1.308996938995747
 40
-0.2617993877991494
 40
1.832595714594046
  0
TABLESTYLE
  5
8F9
102
{ACAD_XDICTIONARY
360
9E3
102
}
102
{ACAD_REACTORS
330
8F8
102
}
330
8F8
100
AcDbTableStyle
  3
Standard
 70
     0
 71
     0
 40
0.06
 41
0.06
280
     0
281
     0
  7
STANDARD
140
0.18
170
     2
 62
     0
 63
     7
283
     0
274
    -2
284
     1
 64
     0
275
    -2
285
     1
 65
     0
276
    -2
286
     1
 66
     0
277
    -2
287
     1
 67
     0
278
    -2
288
     1
 68
     0
279
    -2
289
     1
 69
     0
  7
STANDARD
140
0.25
170
     5
 62
     0
 63
     7
283
     0
274
    -2
284
     1
 64
     0
275
    -2
285
     1
 65
     0
276
    -2
286
     1
 66
     0
277
    -2
287
     1
 67
     0
278
    -2
288
     1
 68
     0
279
    -2
289
     1
 69
     0
  7
STANDARD
140
0.18
170
     5
 62
     0
 63
     7
283
     0
274
    -2
284
     1
 64
     0
275
    -2
285
     1
 65
     0
276
    -2
286
     1
 66
     0
277
    -2
287
     1
 67
     0
278
    -2
288
     1
 68
     0
279
    -2
289
     1
 69
     0
  0
VISUALSTYLE
  5
8C4
102
{ACAD_XDICTIONARY
360
9F4
102
}
102
{ACAD_REACTORS
330
8BE
102
}
330
8BE
100
AcDbVisualStyle
  2
2dWireframe
 70
     4
 71
     0
 72
     2
 73
     0
 90
        0
 40
-0.6
 41
-30.0
 62
     5
 63
     7
 74
     1
 91
        4
 64
     7
 65
   257
 75
     1
175
     1
 42
1.0
 92
        0
 66
   257
 43
1.0
 76
     1
 77
     6
 78
     2
 67
     7
 79
     5
170
     0
171
     0
290
     0
174
     0
 93
        1
 44
0.0
173
     0
291
     0
 45
0.0
1001
ACAD
1000
AcDbSavedByObjectVersion
1070
     0
  0
VISUALSTYLE
  5
8C3
102
{ACAD_XDICTIONARY
360
9F2
102
}
102
{ACAD_REACTORS
330
8BE
102
}
330
8BE
100
AcDbVisualStyle
  2
Basic
 70
     7
 71
     1
 72
     0
 73
     1
 90
        0
 40
-0.6
 41
-30.0
 62
     5
 63
     7
 74
     0
 91
        4
 64
     7
 65
   257
 75
     1
175
     1
 42
1.0
 92
        8
 66
     7
 43
1.0
 76
     1
 77
     6
 78
     2
 67
     7
 79
     5
170
     0
171
     0
290
     0
174
     0
 93
        1
 44
0.0
173
     0
291
     1
 45
0.0
1001
ACAD
1000
AcDbSavedByObjectVersion
1070
     0
  0
VISUALSTYLE
  5
8CA
102
{ACAD_XDICTIONARY
360
A00
102
}
102
{ACAD_REACTORS
330
8BE
102
}
330
8BE
100
AcDbVisualStyle
  2
Brighten
 70
    12
 71
     2
 72
     2
 73
     0
 90
        0
 40
-0.6
 41
-30.0
 62
     5
 63
     7
 74
     1
 91
        4
 64
     7
 65
   257
 75
     1
175
     1
 42
1.0
 92
        8
 66
     7
 43
1.0
 76
     1
 77
     6
 78
     2
 67
     7
 79
     5
170
     0
171
     0
290
     0
174
     0
 93
        1
 44
50.0
173
     0
291
     1
 45
0.0
1001
ACAD
1000
AcDbSavedByObjectVersion
1070
     0
  0
VISUALSTYLE
  5
8CE
102
{ACAD_XDICTIONARY
360
A08
102
}
102
{ACAD_REACTORS
330
8BE
102
}
330
8BE
100
AcDbVisualStyle
  2
ColorChange
 70
    16
 71
     2
 72
     2
 73
     3
 90
        0
 40
-0.6
 41
-30.0
 62
     5
 63
     8
 74
     1
 91
        4
 64
     7
 65
   257
 75
     1
175
     1
 42
1.0
 92
        8
 66
     8
 43
1.0
 76
     1
 77
     6
 78
     2
 67
     7
 79
     5
170
     0
171
     0
290
     0
174
     0
 93
        1
 44
0.0
173
     0
291
     1
 45
0.0
1001
ACAD
1000
AcDbSavedByObjectVersion
1070
     0
  0
VISUALSTYLE
  5
8C7
102
{ACAD_XDICTIONARY
360
9FA
102
}
102
{ACAD_REACTORS
330
8BE
102
}
330
8BE
100
AcDbVisualStyle
  2
Conceptual
 70
     9
 71
     3
 72
     2
 73
     0
 90
        0
 40
-0.6
 41
-30.0
 62
     5
 63
     7
 74
     2
 91
        2
 64
     7
 65
   257
 75
     1
175
     1
 42
179.0
 92
        8
 66
     7
 43
1.0
 76
     1
 77
     6
 78
     2
 67
     7
 79
     3
170
     0
171
     0
290
     0
174
     0
 93
        1
 44
0.0
173
     0
291
     0
 45
0.0
1001
ACAD
1000
AcDbSavedByObjectVersion
1070
     0
  0
VISUALSTYLE
  5
8C9
102
{ACAD_XDICTIONARY
360
9FE
102
}
102
{ACAD_REACTORS
330
8BE
102
}
330
8BE
100
AcDbVisualStyle
  2
Dim
 70
    11
 71
     2
 72
     2
 73
     0
 90
        0
 40
-0.6
 41
-30.0
 62
     5
 63
     7
 74
     1
 91
        4
 64
     7
 65
   257
 75
     1
175
     1
 42
1.0
 92
        8
 66
     7
 43
1.0
 76
     1
 77
     6
 78
     2
 67
     7
 79
     5
170
     0
171
     0
290
     0
174
     0
 93
        1
 44
-50.0
173
     0
291
     1
 45
0.0
1001
ACAD
1000
AcDbSavedByObjectVersion
1070
     0
  0
VISUALSTYLE
  5
8D6
102
{ACAD_XDICTIONARY
360
A18
102
}
102
{ACAD_REACTORS
330
8BE
102
}
330
8BE
100
AcDbVisualStyle
  2
EdgeColorOff
 70
    22
 71
     2
 72
     2
 73
     0
 90
        0
 40
-0.6
 41
-30.0
 62
     5
 63
     7
 74
     1
 91
        4
 64
     7
 65
   257
 75
     1
175
     1
 42
1.0
 92
        8
 66
     7
 43
1.0
 76
     1
 77
     6
 78
     2
 67
     7
 79
     5
170
     0
171
     0
290
     0
174
     0
 93
        1
 44
0.0
173
     0
291
     1
 45
0.0
1001
ACAD
1000
AcDbSavedByObjectVersion
1070
     0
  0
VISUALSTYLE
  5
8CD
102
{ACAD_XDICTIONARY
360
A06
102
}
102
{ACAD_REACTORS
330
8BE
102
}
330
8BE
100
AcDbVisualStyle
  2
Facepattern
 70
    15
 71
     2
 72
     2
 73
     0
 90
        0
 40
-0.6
 41
-30.0
 62
     5
 63
     7
 74
     1
 91
        4
 64
     7
 65
   257
 75
     1
175
     1
 42
1.0
 92
        8
 66
     7
 43
1.0
 76
     1
 77
     6
 78
     2
 67
     7
 79
     5
170
     0
171
     0
290
     0
174
     0
 93
        1
 44
0.0
173
     0
291
     1
 45
0.0
1001
ACAD
1000
AcDbSavedByObjectVersion
1070
     0
  0
VISUALSTYLE
  5
8BF
102
{ACAD_XDICTIONARY
360
9EA
102
}
102
{ACAD_REACTORS
330
8BE
102
}
330
8BE
100
AcDbVisualStyle
  2
Flat
 70
     0
 71
     2
 72
     1
 73
     1
 90
        2
 40
-0.6
 41
30.0
 62
     5
 63
     7
 74
     0
 91
        0
 64
     7
 65
   257
 75
     1
175
     1
 42
1.0
 92
        8
 66
     7
 43
1.0
 76
     1
 77
     6
 78
     2
 67
     7
 79
     5
170
     0
171
     0
290
     0
174
     0
 93
       13
 44
0.0
173
     0
291
     1
 45
0.0
1001
ACAD
1000
AcDbSavedByObjectVersion
1070
     0
  0
VISUALSTYLE
  5
8C0
102
{ACAD_XDICTIONARY
360
9EC
102
}
102
{ACAD_REACTORS
330
8BE
102
}
330
8BE
100
AcDbVisualStyle
  2
FlatWithEdges
 70
     1
 71
     2
 72
     1
 73
     1
 90
        2
 40
-0.6
 41
30.0
 62
     5
 63
     7
 74
     1
 91
        0
 64
     7
 65
   257
 75
     1
175
     1
 42
1.0
 92
        0
 66
   257
 43
1.0
 76
     1
 77
     6
 78
     2
 67
     7
 79
     5
170
     0
171
     0
290
     0
174
     0
 93
       13
 44
0.0
173
     0
291
     1
 45
0.0
1001
ACAD
1000
AcDbSavedByObjectVersion
1070
     0
  0
VISUALSTYLE
  5
8C1
102
{ACAD_XDICTIONARY
360
9EE
102
}
102
{ACAD_REACTORS
330
8BE
102
}
330
8BE
100
AcDbVisualStyle
  2
Gouraud
 70
     2
 71
     2
 72
     2
 73
     1
 90
        2
 40
-0.6
 41
30.0
 62
     5
 63
     7
 74
     0
 91
        0
 64
     7
 65
   257
 75
     1
175
     1
 42
1.0
 92
        0
 66
     7
 43
1.0
 76
     1
 77
     6
 78
     2
 67
     7
 79
     5
170
     0
171
     0
290
     0
174
     0
 93
       13
 44
0.0
173
     0
291
     1
 45
0.0
1001
ACAD
1000
AcDbSavedByObjectVersion
1070
     0
  0
VISUALSTYLE
  5
8C2
102
{ACAD_XDICTIONARY
360
9F0
102
}
102
{ACAD_REACTORS
330
8BE
102
}
330
8BE
100
AcDbVisualStyle
  2
GouraudWithEdges
 70
     3
 71
     2
 72
     2
 73
     1
 90
        2
 40
-0.6
 41
30.0
 62
     5
 63
     7
 74
     1
 91
        0
 64
     7
 65
   257
 75
     1
175
     1
 42
1.0
 92
        0
 66
   257
 43
1.0
 76
     1
 77
     6
 78
     2
 67
     7
 79
     5
170
     0
171
     0
290
     0
174
     0
 93
       13
 44
0.0
173
     0
291
     1
 45
0.0
1001
ACAD
1000
AcDbSavedByObjectVersion
1070
     0
  0
VISUALSTYLE
  5
8C6
102
{ACAD_XDICTIONARY
360
9F8
102
}
102
{ACAD_REACTORS
330
8BE
102
}
330
8BE
100
AcDbVisualStyle
  2
Hidden
 70
     6
 71
     1
 72
     2
 73
     2
 90
        0
 40
-0.6
 41
-30.0
 62
     5
 63
     7
 74
     2
 91
        2
 64
     7
 65
   257
 75
     2
175
     1
 42
40.0
 92
        0
 66
   257
 43
1.0
 76
     1
 77
     6
 78
     2
 67
     7
 79
     3
170
     0
171
     0
290
     0
174
     0
 93
        1
 44
0.0
173
     0
291
     0
 45
0.0
1001
ACAD
1000
AcDbSavedByObjectVersion
1070
     0
  0
VISUALSTYLE
  5
8D4
102
{ACAD_XDICTIONARY
360
A14
102
}
102
{ACAD_REACTORS
330
8BE
102
}
330
8BE
100
AcDbVisualStyle
  2
JitterOff
 70
    20
 71
     2
 72
     2
 73
     0
 90
        0
 40
-0.6
 41
-30.0
 62
     5
 63
     7
 74
     1
 91
        4
 64
     7
 65
   257
 75
     1
175
     1
 42
1.0
 92
       10
 66
     7
 43
1.0
 76
     1
 77
     6
 78
     2
 67
     7
 79
     5
170
     0
171
     0
290
     0
174
     0
 93
        1
 44
0.0
173
     0
291
     1
 45
0.0
1001
ACAD
1000
AcDbSavedByObjectVersion
1070
     0
  0
VISUALSTYLE
  5
8CC
102
{ACAD_XDICTIONARY
360
A04
102
}
102
{ACAD_REACTORS
330
8BE
102
}
330
8BE
100
AcDbVisualStyle
  2
Linepattern
 70
    14
 71
     2
 72
     2
 73
     0
 90
        0
 40
-0.6
 41
-30.0
 62
     5
 63
     7
 74
     1
 91
        4
 64
     7
 65
   257
 75
     7
175
     7
 42
1.0
 92
        8
 66
     7
 43
1.0
 76
     1
 77
     6
 78
     2
 67
     7
 79
     5
170
     0
171
     0
290
     0
174
     0
 93
        1
 44
0.0
173
     0
291
     1
 45
0.0
1001
ACAD
1000
AcDbSavedByObjectVersion
1070
     0
  0
VISUALSTYLE
  5
8D5
102
{ACAD_XDICTIONARY
360
A16
102
}
102
{ACAD_REACTORS
330
8BE
102
}
330
8BE
100
AcDbVisualStyle
  2
OverhangOff
 70
    21
 71
     2
 72
     2
 73
     0
 90
        0
 40
-0.6
 41
-30.0
 62
     5
 63
     7
 74
     1
 91
        4
 64
     7
 65
   257
 75
     1
175
     1
 42
1.0
 92
        9
 66
     7
 43
1.0
 76
     1
 77
     6
 78
     2
 67
     7
 79
     5
170
     0
171
     0
290
     0
174
     0
 93
        1
 44
0.0
173
     0
291
     1
 45
0.0
1001
ACAD
1000
AcDbSavedByObjectVersion
1070
     0
  0
VISUALSTYLE
  5
8C8
102
{ACAD_XDICTIONARY
360
9FC
102
}
102
{ACAD_REACTORS
330
8BE
102
}
330
8BE
100
AcDbVisualStyle
  2
Realistic
 70
     8
 71
     2
 72
     3
 73
     0
 90
        2
 40
-0.6
 41
30.0
 62
     5
 63
     7
 74
     0
 91
        0
 64
     7
 65
   257
 75
     1
175
     1
 42
1.0
 92
        8
 66
   257
 43
1.0
 76
     1
 77
     6
 78
     2
 67
     7
 79
     3
170
     0
171
     0
290
     0
174
     0
 93
       13
 44
0.0
173
     0
291
     0
 45
0.0
1001
ACAD
1000
AcDbSavedByObjectVersion
1070
     0
  0
VISUALSTYLE
  5
8D3
102
{ACAD_XDICTIONARY
360
A12
102
}
102
{ACAD_REACTORS
330
8BE
102
}
330
8BE
100
AcDbVisualStyle
  2
Shaded
 70
    27
 71
     2
 72
     2
 73
     1
 90
        2
 40
-0.6
 41
30.0
 62
     5
 63
     7
 74
     0
 91
        4
 64
     7
 65
   257
 75
     1
175
     1
 42
1.0
 92
        8
 66
   257
 43
1.0
 76
     1
 77
     6
 78
     2
 67
     8
 79
     3
170
     0
171
     0
290
     0
174
     0
 93
        5
 44
0.0
173
     0
291
     0
 45
0.0
1001
ACAD
1000
AcDbSavedByObjectVersion
1070
     0
  0
VISUALSTYLE
  5
8D2
102
{ACAD_XDICTIONARY
360
A10
102
}
102
{ACAD_REACTORS
330
8BE
102
}
330
8BE
100
AcDbVisualStyle
  2
Shaded with edges
 70
    26
 71
     2
 72
     2
 73
     1
 90
        2
 40
-0.6
 41
30.0
 62
     5
 63
     7
 74
     1
 91
       10
 64
     7
 65
   257
 75
     2
175
     1
 42
1.0
 92
        8
 66
   257
 43
1.0
 76
     1
 77
     6
 78
     2
 67
     7
 79
     3
170
     0
171
     0
290
     0
174
     0
 93
        5
 44
0.0
173
     0
291
     0
 45
0.0
1001
ACAD
1000
AcDbSavedByObjectVersion
1070
     0
  0
VISUALSTYLE
  5
8CF
102
{ACAD_XDICTIONARY
360
A0A
102
}
102
{ACAD_REACTORS
330
8BE
102
}
330
8BE
100
AcDbVisualStyle
  2
Shades of Gray
 70
    23
 71
     2
 72
     2
 73
     3
 90
        0
 40
-0.6
 41
-30.0
 62
     5
 63
     7
 74
     2
 91
        2
 64
     7
 65
     7
 75
     1
175
     1
 42
40.0
 92
        8
 66
     7
 43
1.0
 76
     1
 77
     6
 78
     2
 67
     7
 79
     3
170
     0
171
     0
290
     0
174
     0
 93
        1
 44
0.0
173
     0
291
     0
 45
0.0
1001
ACAD
1000
AcDbSavedByObjectVersion
1070
     0
  0
VISUALSTYLE
  5
8D0
102
{ACAD_XDICTIONARY
360
A0C
102
}
102
{ACAD_REACTORS
330
8BE
102
}
330
8BE
100
AcDbVisualStyle
  2
Sketchy
 70
    24
 71
     1
 72
     2
 73
     2
 90
        0
 40
-0.6
 41
-30.0
 62
     5
 63
     7
 74
     2
 91
        2
 64
     7
 65
     7
 75
     1
175
     1
 42
40.0
 92
       11
 66
     7
 43
1.0
 76
     1
 77
     6
 78
     2
 67
     7
 79
     6
170
     0
171
     0
290
     0
174
     0
 93
        1
 44
0.0
173
     0
291
     0
 45
0.0
1001
ACAD
1000
AcDbSavedByObjectVersion
1070
     0
  0
VISUALSTYLE
  5
8CB
102
{ACAD_XDICTIONARY
360
A02
102
}
102
{ACAD_REACTORS
330
8BE
102
}
330
8BE
100
AcDbVisualStyle
  2
Thicken
 70
    13
 71
     2
 72
     2
 73
     0
 90
        0
 40
-0.6
 41
-30.0
 62
     5
 63
     7
 74
     1
 91
        4
 64
     7
 65
   257
 75
     1
175
     1
 42
1.0
 92
       12
 66
     7
 43
1.0
 76
     1
 77
     6
 78
     2
 67
     7
 79
     5
170
     0
171
     0
290
     0
174
     0
 93
        1
 44
0.0
173
     0
291
     1
 45
0.0
1001
ACAD
1000
AcDbSavedByObjectVersion
1070
     0
  0
VISUALSTYLE
  5
8C5
102
{ACAD_XDICTIONARY
360
9F6
102
}
102
{ACAD_REACTORS
330
8BE
102
}
330
8BE
100
AcDbVisualStyle
  2
Wireframe
 70
     5
 71
     0
 72
     2
 73
     0
 90
        0
 40
-0.6
 41
-30.0
 62
     5
 63
     7
 74
     1
 91
        4
 64
     7
 65
   257
 75
     1
175
     1
 42
1.0
 92
        0
 66
   257
 43
1.0
 76
     1
 77
     6
 78
     2
 67
     7
 79
     3
170
     0
171
     0
290
     0
174
     0
 93
        1
 44
0.0
173
     0
291
     0
 45
0.0
1001
ACAD
1000
AcDbSavedByObjectVersion
1070
     0
  0
VISUALSTYLE
  5
8D1
102
{ACAD_XDICTIONARY
360
A0E
102
}
102
{ACAD_REACTORS
330
8BE
102
}
330
8BE
100
AcDbVisualStyle
  2
X-Ray
 70
    25
 71
     2
 72
     2
 73
     1
 90
        1
 40
0.5
 41
-30.0
 62
     5
 63
     7
 74
     1
 91
        0
 64
     7
 65
   257
 75
     1
175
     1
 42
1.0
 92
        8
 66
     7
 43
1.0
 76
     1
 77
     6
 78
     2
 67
     7
 79
     3
170
     0
171
     0
290
     0
174
     0
 93
       13
 44
0.0
173
     0
291
     0
 45
0.0
1001
ACAD
1000
AcDbSavedByObjectVersion
1070
     0
  0
DICTIONARYVAR
  5
91F
102
{ACAD_REACTORS
330
91A
102
}
330
91A
100
DictionaryVariables
280
     0
  1
1:1
  0
DICTIONARYVAR
  5
91C
102
{ACAD_REACTORS
330
91A
102
}
330
91A
100
DictionaryVariables
280
     0
  1
STANDARD
  0
DICTIONARYVAR
  5
91B
102
{ACAD_REACTORS
330
91A
102
}
330
91A
100
DictionaryVariables
280
     0
  1
STANDARD
  0
DICTIONARYVAR
  5
91D
102
{ACAD_REACTORS
330
91A
102
}
330
91A
100
DictionaryVariables
280
     0
  1
Imperial24
  0
DICTIONARYVAR
  5
91E
102
{ACAD_REACTORS
330
91A
102
}
330
91A
100
DictionaryVariables
280
     0
  1
Imperial24
  0
DICTIONARYVAR
  5
922
102
{ACAD_REACTORS
330
91A
102
}
330
91A
100
DictionaryVariables
280
     0
  1
1
  0
DICTIONARYVAR
  5
921
102
{ACAD_REACTORS
330
91A
102
}
330
91A
100
DictionaryVariables
280
     0
  1
0
  0
DICTIONARYVAR
  5
920
102
{ACAD_REACTORS
330
91A
102
}
330
91A
100
DictionaryVariables
280
     0
  1
127
  0
DICTIONARYVAR
  5
923
102
{ACAD_REACTORS
330
91A
102
}
330
91A
100
DictionaryVariables
280
     0
  1
2
  0
DICTIONARY
  5
A1C
330
904
100
AcDbDictionary
280
     1
281
     1
  3
ACAD_XREC_ROUNDTRIP
360
A1D
  0
DICTIONARY
  5
A1E
330
908
100
AcDbDictionary
280
     1
281
     1
  3
ACAD_XREC_ROUNDTRIP
360
A1F
  0
DICTIONARY
  5
8AF
330
8AE
100
AcDbDictionary
280
     1
281
     1
  3
ACAD_XREC_ROUNDTRIP
360
9E8
  3
BUMPTILE
360
8B1
  3
DIFFUSETILE
360
8B0
  3
OPACITYTILE
360
8B4
  3
REFLECTIONTILE
360
8B3
  3
REFRACTIONTILE
360
8B5
  3
SPECULARTILE
360
8B2
  0
DICTIONARY
  5
8A7
330
8A6
100
AcDbDictionary
280
     1
281
     1
  3
ACAD_XREC_ROUNDTRIP
360
9E7
  3
BUMPTILE
360
8A9
  3
DIFFUSETILE
360
8A8
  3
OPACITYTILE
360
8AC
  3
REFLECTIONTILE
360
8AB
  3
REFRACTIONTILE
360
8AD
  3
SPECULARTILE
360
8AA
  0
DICTIONARY
  5
8B7
330
8B6
100
AcDbDictionary
280
     1
281
     1
  3
ACAD_XREC_ROUNDTRIP
360
9E9
  3
BUMPTILE
360
8B9
  3
DIFFUSETILE
360
8B8
  3
OPACITYTILE
360
8BC
  3
REFLECTIONTILE
360
8BB
  3
REFRACTIONTILE
360
8BD
  3
SPECULARTILE
360
8BA
  0
DICTIONARY
  5
9E3
330
8F9
100
AcDbDictionary
280
     1
281
     1
  3
ACAD_ROUNDTRIP_2008_TABLESTYLE_CELLSTYLEMAP
360
9E4
  3
ACAD_XREC_ROUNDTRIP
360
A1A
  0
DICTIONARY
  5
9F4
330
8C4
100
AcDbDictionary
280
     1
281
     1
  3
ACAD_XREC_ROUNDTRIP
360
9F5
  0
DICTIONARY
  5
9F2
330
8C3
100
AcDbDictionary
280
     1
281
     1
  3
ACAD_XREC_ROUNDTRIP
360
9F3
  0
DICTIONARY
  5
A00
330
8CA
100
AcDbDictionary
280
     1
281
     1
  3
ACAD_XREC_ROUNDTRIP
360
A01
  0
DICTIONARY
  5
A08
330
8CE
100
AcDbDictionary
280
     1
281
     1
  3
ACAD_XREC_ROUNDTRIP
360
A09
  0
DICTIONARY
  5
9FA
330
8C7
100
AcDbDictionary
280
     1
281
     1
  3
ACAD_XREC_ROUNDTRIP
360
9FB
  0
DICTIONARY
  5
9FE
330
8C9
100
AcDbDictionary
280
     1
281
     1
  3
ACAD_XREC_ROUNDTRIP
360
9FF
  0
DICTIONARY
  5
A18
330
8D6
100
AcDbDictionary
280
     1
281
     1
  3
ACAD_XREC_ROUNDTRIP
360
A19
  0
DICTIONARY
  5
A06
330
8CD
100
AcDbDictionary
280
     1
281
     1
  3
ACAD_XREC_ROUNDTRIP
360
A07
  0
DICTIONARY
  5
9EA
330
8BF
100
AcDbDictionary
280
     1
281
     1
  3
ACAD_XREC_ROUNDTRIP
360
9EB
  0
DICTIONARY
  5
9EC
330
8C0
100
AcDbDictionary
280
     1
281
     1
  3
ACAD_XREC_ROUNDTRIP
360
9ED
  0
DICTIONARY
  5
9EE
330
8C1
100
AcDbDictionary
280
     1
281
     1
  3
ACAD_XREC_ROUNDTRIP
360
9EF
  0
DICTIONARY
  5
9F0
330
8C2
100
AcDbDictionary
280
     1
281
     1
  3
ACAD_XREC_ROUNDTRIP
360
9F1
  0
DICTIONARY
  5
9F8
330
8C6
100
AcDbDictionary
280
     1
281
     1
  3
ACAD_XREC_ROUNDTRIP
360
9F9
  0
DICTIONARY
  5
A14
330
8D4
100
AcDbDictionary
280
     1
281
     1
  3
ACAD_XREC_ROUNDTRIP
360
A15
  0
DICTIONARY
  5
A04
330
8CC
100
AcDbDictionary
280
     1
281
     1
  3
ACAD_XREC_ROUNDTRIP
360
A05
  0
DICTIONARY
  5
A16
330
8D5
100
AcDbDictionary
280
     1
281
     1
  3
ACAD_XREC_ROUNDTRIP
360
A17
  0
DICTIONARY
  5
9FC
330
8C8
100
AcDbDictionary
280
     1
281
     1
  3
ACAD_XREC_ROUNDTRIP
360
9FD
  0
DICTIONARY
  5
A12
330
8D3
100
AcDbDictionary
280
     1
281
     1
  3
ACAD_XREC_ROUNDTRIP
360
A13
  0
DICTIONARY
  5
A10
330
8D2
100
AcDbDictionary
280
     1
281
     1
  3
ACAD_XREC_ROUNDTRIP
360
A11
  0
DICTIONARY
  5
A0A
330
8CF
100
AcDbDictionary
280
     1
281
     1
  3
ACAD_XREC_ROUNDTRIP
360
A0B
  0
DICTIONARY
  5
A0C
330
8D0
100
AcDbDictionary
280
     1
281
     1
  3
ACAD_XREC_ROUNDTRIP
360
A0D
  0
DICTIONARY
  5
A02
330
8CB
100
AcDbDictionary
280
     1
281
     1
  3
ACAD_XREC_ROUNDTRIP
360
A03
  0
DICTIONARY
  5
9F6
330
8C5
100
AcDbDictionary
280
     1
281
     1
  3
ACAD_XREC_ROUNDTRIP
360
9F7
  0
DICTIONARY
  5
A0E
330
8D1
100
AcDbDictionary
280
     1
281
     1
  3
ACAD_XREC_ROUNDTRIP
360
A0F
  0
XRECORD
  5
A1D
102
{ACAD_REACTORS
330
A1C
102
}
330
A1C
100
AcDbXrecord
280
     1
102
SHADEPLOT
 70
     0
102
SHADEPLOTRESLEVEL
 70
     2
102
SHADEPLOTCUSTOMDPI
 70
   300
  0
XRECORD
  5
A1F
102
{ACAD_REACTORS
330
A1E
102
}
330
A1E
100
AcDbXrecord
280
     1
102
SHADEPLOT
 70
     0
102
SHADEPLOTRESLEVEL
 70
     2
102
SHADEPLOTCUSTOMDPI
 70
   300
  0
XRECORD
  5
9E8
102
{ACAD_REACTORS
330
8AF
102
}
330
8AF
100
AcDbXrecord
280
     1
102
MATERIAL
148
0.0
149
0.0
149
0.0
 93
        0
 94
      127
282
     0
 72
     0
 77
     0
171
     0
175
     0
179
     0
273
     0
  0
XRECORD
  5
8B1
102
{ACAD_REACTORS
330
8AF
102
}
330
8AF
100
AcDbXrecord
280
     1
270
     1
271
     1
  0
XRECORD
  5
8B0
102
{ACAD_REACTORS
330
8AF
102
}
330
8AF
100
AcDbXrecord
280
     1
270
     1
271
     1
  0
XRECORD
  5
8B4
102
{ACAD_REACTORS
330
8AF
102
}
330
8AF
100
AcDbXrecord
280
     1
270
     1
271
     1
  0
XRECORD
  5
8B3
102
{ACAD_REACTORS
330
8AF
102
}
330
8AF
100
AcDbXrecord
280
     1
270
     1
271
     1
  0
XRECORD
  5
8B5
102
{ACAD_REACTORS
330
8AF
102
}
330
8AF
100
AcDbXrecord
280
     1
270
     1
271
     1
  0
XRECORD
  5
8B2
102
{ACAD_REACTORS
330
8AF
102
}
330
8AF
100
AcDbXrecord
280
     1
270
     1
271
     1
  0
XRECORD
  5
9E7
102
{ACAD_REACTORS
330
8A7
102
}
330
8A7
100
AcDbXrecord
280
     1
102
MATERIAL
148
0.0
149
0.0
149
0.0
 93
        0
 94
      127
282
     0
 72
     0
 77
     0
171
     0
175
     0
179
     0
273
     0
  0
XRECORD
  5
8A9
102
{ACAD_REACTORS
330
8A7
102
}
330
8A7
100
AcDbXrecord
280
     1
270
     1
271
     1
  0
XRECORD
  5
8A8
102
{ACAD_REACTORS
330
8A7
102
}
330
8A7
100
AcDbXrecord
280
     1
270
     1
271
     1
  0
XRECORD
  5
8AC
102
{ACAD_REACTORS
330
8A7
102
}
330
8A7
100
AcDbXrecord
280
     1
270
     1
271
     1
  0
XRECORD
  5
8AB
102
{ACAD_REACTORS
330
8A7
102
}
330
8A7
100
AcDbXrecord
280
     1
270
     1
271
     1
  0
XRECORD
  5
8AD
102
{ACAD_REACTORS
330
8A7
102
}
330
8A7
100
AcDbXrecord
280
     1
270
     1
271
     1
  0
XRECORD
  5
8AA
102
{ACAD_REACTORS
330
8A7
102
}
330
8A7
100
AcDbXrecord
280
     1
270
     1
271
     1
  0
XRECORD
  5
9E9
102
{ACAD_REACTORS
330
8B7
102
}
330
8B7
100
AcDbXrecord
280
     1
102
MATERIAL
148
0.0
149
0.0
149
0.0
 93
        0
 94
      127
282
     0
 72
     0
 77
     0
171
     0
175
     0
179
     0
273
     0
  0
XRECORD
  5
8B9
102
{ACAD_REACTORS
330
8B7
102
}
330
8B7
100
AcDbXrecord
280
     1
270
     1
271
     1
  0
XRECORD
  5
8B8
102
{ACAD_REACTORS
330
8B7
102
}
330
8B7
100
AcDbXrecord
280
     1
270
     1
271
     1
  0
XRECORD
  5
8BC
102
{ACAD_REACTORS
330
8B7
102
}
330
8B7
100
AcDbXrecord
280
     1
270
     1
271
     1
  0
XRECORD
  5
8BB
102
{ACAD_REACTORS
330
8B7
102
}
330
8B7
100
AcDbXrecord
280
     1
270
     1
271
     1
  0
XRECORD
  5
8BD
102
{ACAD_REACTORS
330
8B7
102
}
330
8B7
100
AcDbXrecord
280
     1
270
     1
271
     1
  0
XRECORD
  5
8BA
102
{ACAD_REACTORS
330
8B7
102
}
330
8B7
100
AcDbXrecord
280
     1
270
     1
271
     1
  0
CELLSTYLEMAP
  5
9E4
102
{ACAD_REACTORS
330
9E3
102
}
330
9E3
100
AcDbCellStyleMap
 90
        3
300
CELLSTYLE
  1
TABLEFORMAT_BEGIN
 90
        5
170
     1
 91
        0
 92
    32768
 62
   257
 93
        1
300
CONTENTFORMAT
  1
CONTENTFORMAT_BEGIN
 90
        0
 91
        0
 92
      512
 93
        0
300

 40
0.0
140
1.0
 94
        5
 62
     0
340
8EA
144
0.25
309
CONTENTFORMAT_END
171
     0
 94
        0
309
TABLEFORMAT_END
  1
CELLSTYLE_BEGIN
 90
        1
 91
        1
300
_TITLE
309
CELLSTYLE_END
300
CELLSTYLE
  1
TABLEFORMAT_BEGIN
 90
        5
170
     1
 91
        0
 92
        0
 62
   257
 93
        1
300
CONTENTFORMAT
  1
CONTENTFORMAT_BEGIN
 90
        0
 91
        0
 92
      512
 93
        0
300

 40
0.0
140
1.0
 94
        5
 62
     0
340
8EA
144
0.18
309
CONTENTFORMAT_END
171
     0
 94
        0
309
TABLEFORMAT_END
  1
CELLSTYLE_BEGIN
 90
        2
 91
        1
300
_HEADER
309
CELLSTYLE_END
300
CELLSTYLE
  1
TABLEFORMAT_BEGIN
 90
        5
170
     1
 91
        0
 92
        0
 62
   257
 93
        1
300
CONTENTFORMAT
  1
CONTENTFORMAT_BEGIN
 90
        0
 91
        0
 92
      512
 93
        0
300

 40
0.0
140
1.0
 94
        2
 62
     0
340
8EA
144
0.18
309
CONTENTFORMAT_END
171
     0
 94
        0
309
TABLEFORMAT_END
  1
CELLSTYLE_BEGIN
 90
        3
 91
        2
300
_DATA
309
CELLSTYLE_END
  0
XRECORD
  5
A1A
102
{ACAD_REACTORS
330
9E3
102
}
330
9E3
100
AcDbXrecord
280
     1
102
ACAD_ROUNDTRIP_PRE2007_TABLESTYLE
 90
      512
 91
        0
  1

 92
      512
 93
        0
  2

 94
      512
 95
        0
  3

  0
XRECORD
  5
9F5
102
{ACAD_REACTORS
330
9F4
102
}
330
9F4
100
AcDbXrecord
280
     1
102
RTVSPost2010Prop28
280
     1
102
RTVSPost2010PropOp28
 70
     1
102
RTVSPost2010Prop29
280
     1
102
RTVSPost2010PropOp29
 70
     1
102
RTVSPost2010Prop30
280
     0
102
RTVSPost2010PropOp30
 70
     1
102
RTVSPost2010Prop31
280
     0
102
RTVSPost2010PropOp31
 70
     1
102
RTVSPost2010Prop32
280
     0
102
RTVSPost2010PropOp32
 70
     1
102
RTVSPost2010Prop33
280
     0
102
RTVSPost2010PropOp33
 70
     1
102
RTVSPost2010Prop34
280
     0
102
RTVSPost2010PropOp34
 70
     1
102
RTVSPost2010Prop35
280
     0
102
RTVSPost2010PropOp35
 70
     1
102
RTVSPost2010Prop36
280
     0
102
RTVSPost2010PropOp36
 70
     1
102
RTVSPost2010Prop37
 90
       50
102
RTVSPost2010PropOp37
 70
     1
102
RTVSPost2010Prop38
140
0.0
102
RTVSPost2010PropOp38
 70
     1
102
RTVSPost2010Prop39
140
1.0
102
RTVSPost2010PropOp39
 70
     1
102
RTVSPost2010Prop40
 90
        0
102
RTVSPost2010PropOp40
 70
     1
102
RTVSPost2010Prop41ColorIndex
 90
       18
102
RTVSPost2010Prop41ColorRGB
 90
        0
102
RTVSPost2010PropOp41
 70
     1
102
RTVSPost2010Prop42
 90
       50
102
RTVSPost2010PropOp42
 70
     1
102
RTVSPost2010Prop43
 90
        3
102
RTVSPost2010PropOp43
 70
     1
102
RTVSPost2010Prop44ColorIndex
 90
        5
102
RTVSPost2010Prop44ColorRGB
 90
      255
102
RTVSPost2010PropOp44
 70
     1
102
RTVSPost2010Prop45
280
     0
102
RTVSPost2010PropOp45
 70
     1
102
RTVSPost2010Prop46
 90
       50
102
RTVSPost2010PropOp46
 70
     1
102
RTVSPost2010Prop47
 90
       50
102
RTVSPost2010PropOp47
 70
     1
102
RTVSPost2010Prop48
 90
       50
102
RTVSPost2010PropOp48
 70
     1
102
RTVSPost2010Prop49
280
     0
102
RTVSPost2010PropOp49
 70
     1
102
RTVSPost2010Prop50
 90
       50
102
RTVSPost2010PropOp50
 70
     1
102
RTVSPost2010Prop51ColorIndex
 90
      256
102
RTVSPost2010Prop51ColorRGB
 90
-16777216
102
RTVSPost2010PropOp51
 70
     0
102
RTVSPost2010Prop52
140
1.0
102
RTVSPost2010PropOp52
 70
     0
102
RTVSPost2010Prop53
 90
        2
102
RTVSPost2010PropOp53
 70
     1
102
RTVSPost2010Prop54
  1
strokes_ogs.tif
102
RTVSPost2010PropOp54
 70
     1
102
RTVSPost2010Prop55
280
     0
102
RTVSPost2010PropOp55
 70
     1
102
RTVSPost2010Prop56
140
1.0
102
RTVSPost2010PropOp56
 70
     1
102
RTVSPost2010Prop57
140
1.0
102
RTVSPost2010PropOp57
 70
     1
102
RTVSPropertyOp0
 70
     1
102
RTVSPropertyOp1
 70
     1
102
RTVSPropertyOp2
 70
     1
102
RTVSPropertyOp3
 70
     1
102
RTVSPropertyOp4
 70
     1
102
RTVSPropertyOp5
 70
     1
102
RTVSPropertyOp6
 70
     1
102
RTVSPropertyOp7
 70
     1
102
RTVSPropertyOp8
 70
     1
102
RTVSPropertyOp9
 70
     1
102
RTVSPropertyOp10
 70
     1
102
RTVSPropertyOp11
 70
     1
102
RTVSPropertyOp12
 70
     1
102
RTVSPropertyOp13
 70
     1
102
RTVSPropertyOp14
 70
     1
102
RTVSPropertyOp15
 70
     1
102
RTVSPropertyOp16
 70
     1
102
RTVSPropertyOp17
 70
     1
102
RTVSPropertyOp18
 70
     1
102
RTVSPropertyOp19
 70
     1
102
RTVSPropertyOp20
 70
     1
102
RTVSPropertyOp21
 70
     1
102
RTVSPropertyOp22
 70
     1
102
RTVSPropertyOp23
 70
     1
102
RTVSPropertyOp24
 70
     1
102
RTVSPropertyOp25
 70
     1
102
RTVSPropertyOp26
 70
     1
102
RTVSPropertyOp27
 70
     1
102
RTVSPropertyOp28
 70
     1
102
RTVSPropertyOp29
 70
     1
102
RTVSPropertyOp30
 70
     1
102
RTVSPropertyOp31
 70
     1
102
RTVSPropertyOp32
 70
     1
102
RTVSPropertyOp33
 70
     1
102
RTVSPropertyOp34
 70
     1
102
RTVSPropertyOp35
 70
     1
102
RTVSPropertyOp36
 70
     1
102
RTVSPropertyOp37
 70
     1
102
RTVSPropertyOp38
 70
     1
102
RTVSPropertyOp39
 70
     1
102
RTVSPropertyOp40
 70
     1
102
RTVSPropertyOp41
 70
     1
102
RTVSPropertyOp42
 70
     1
102
RTVSPropertyOp43
 70
     1
102
RTVSPropertyOp44
 70
     1
102
RTVSPropertyOp45
 70
     1
102
RTVSPropertyOp46
 70
     1
102
RTVSPropertyOp47
 70
     1
102
RTVSPropertyOp48
 70
     1
102
RTVSPropertyOp49
 70
     1
102
RTVSPropertyOp50
 70
     1
102
RTVSPropertyOp51
 70
     0
102
RTVSPropertyOp52
 70
     0
102
RTVSPropertyOp53
 70
     1
102
RTVSPropertyOp54
 70
     1
102
RTVSPropertyOp55
 70
     1
102
RTVSPropertyOp56
 70
     1
102
RTVSPropertyOp57
 70
     1
102
RTVSPropertyOp58
 70
     1
102
RTVSPropertyOp59
 70
     1
102
RTVSPropertyOp60
 70
     1
102
RTVSPropertyOp61
 70
     1
102
RTVSPropertyOp62
 70
     1
  0
XRECORD
  5
9F3
102
{ACAD_REACTORS
330
9F2
102
}
330
9F2
100
AcDbXrecord
280
     1
102
RTVSPost2010Prop28
280
     0
102
RTVSPost2010PropOp28
 70
     1
102
RTVSPost2010Prop29
280
     1
102
RTVSPost2010PropOp29
 70
     1
102
RTVSPost2010Prop30
280
     1
102
RTVSPost2010PropOp30
 70
     1
102
RTVSPost2010Prop31
280
     0
102
RTVSPost2010PropOp31
 70
     1
102
RTVSPost2010Prop32
280
     0
102
RTVSPost2010PropOp32
 70
     1
102
RTVSPost2010Prop33
280
     0
102
RTVSPost2010PropOp33
 70
     1
102
RTVSPost2010Prop34
280
     0
102
RTVSPost2010PropOp34
 70
     1
102
RTVSPost2010Prop35
280
     0
102
RTVSPost2010PropOp35
 70
     1
102
RTVSPost2010Prop36
280
     0
102
RTVSPost2010PropOp36
 70
     1
102
RTVSPost2010Prop37
 90
       50
102
RTVSPost2010PropOp37
 70
     1
102
RTVSPost2010Prop38
140
0.0
102
RTVSPost2010PropOp38
 70
     1
102
RTVSPost2010Prop39
140
1.0
102
RTVSPost2010PropOp39
 70
     1
102
RTVSPost2010Prop40
 90
        0
102
RTVSPost2010PropOp40
 70
     1
102
RTVSPost2010Prop41ColorIndex
 90
       18
102
RTVSPost2010Prop41ColorRGB
 90
        0
102
RTVSPost2010PropOp41
 70
     1
102
RTVSPost2010Prop42
 90
       50
102
RTVSPost2010PropOp42
 70
     1
102
RTVSPost2010Prop43
 90
        3
102
RTVSPost2010PropOp43
 70
     1
102
RTVSPost2010Prop44ColorIndex
 90
        5
102
RTVSPost2010Prop44ColorRGB
 90
      255
102
RTVSPost2010PropOp44
 70
     1
102
RTVSPost2010Prop45
280
     0
102
RTVSPost2010PropOp45
 70
     1
102
RTVSPost2010Prop46
 90
       50
102
RTVSPost2010PropOp46
 70
     1
102
RTVSPost2010Prop47
 90
       50
102
RTVSPost2010PropOp47
 70
     1
102
RTVSPost2010Prop48
 90
       50
102
RTVSPost2010PropOp48
 70
     1
102
RTVSPost2010Prop49
280
     0
102
RTVSPost2010PropOp49
 70
     1
102
RTVSPost2010Prop50
 90
       50
102
RTVSPost2010PropOp50
 70
     1
102
RTVSPost2010Prop51ColorIndex
 90
      256
102
RTVSPost2010Prop51ColorRGB
 90
-16777216
102
RTVSPost2010PropOp51
 70
     0
102
RTVSPost2010Prop52
140
1.0
102
RTVSPost2010PropOp52
 70
     0
102
RTVSPost2010Prop53
 90
        2
102
RTVSPost2010PropOp53
 70
     1
102
RTVSPost2010Prop54
  1
strokes_ogs.tif
102
RTVSPost2010PropOp54
 70
     1
102
RTVSPost2010Prop55
280
     0
102
RTVSPost2010PropOp55
 70
     1
102
RTVSPost2010Prop56
140
1.0
102
RTVSPost2010PropOp56
 70
     1
102
RTVSPost2010Prop57
140
1.0
102
RTVSPost2010PropOp57
 70
     1
102
RTVSPropertyOp0
 70
     1
102
RTVSPropertyOp1
 70
     1
102
RTVSPropertyOp2
 70
     1
102
RTVSPropertyOp3
 70
     1
102
RTVSPropertyOp4
 70
     1
102
RTVSPropertyOp5
 70
     1
102
RTVSPropertyOp6
 70
     1
102
RTVSPropertyOp7
 70
     1
102
RTVSPropertyOp8
 70
     1
102
RTVSPropertyOp9
 70
     1
102
RTVSPropertyOp10
 70
     1
102
RTVSPropertyOp11
 70
     1
102
RTVSPropertyOp12
 70
     1
102
RTVSPropertyOp13
 70
     1
102
RTVSPropertyOp14
 70
     1
102
RTVSPropertyOp15
 70
     1
102
RTVSPropertyOp16
 70
     1
102
RTVSPropertyOp17
 70
     1
102
RTVSPropertyOp18
 70
     1
102
RTVSPropertyOp19
 70
     1
102
RTVSPropertyOp20
 70
     1
102
RTVSPropertyOp21
 70
     1
102
RTVSPropertyOp22
 70
     1
102
RTVSPropertyOp23
 70
     1
102
RTVSPropertyOp24
 70
     1
102
RTVSPropertyOp25
 70
     1
102
RTVSPropertyOp26
 70
     1
102
RTVSPropertyOp27
 70
     1
102
RTVSPropertyOp28
 70
     1
102
RTVSPropertyOp29
 70
     1
102
RTVSPropertyOp30
 70
     1
102
RTVSPropertyOp31
 70
     1
102
RTVSPropertyOp32
 70
     1
102
RTVSPropertyOp33
 70
     1
102
RTVSPropertyOp34
 70
     1
102
RTVSPropertyOp35
 70
     1
102
RTVSPropertyOp36
 70
     1
102
RTVSPropertyOp37
 70
     1
102
RTVSPropertyOp38
 70
     1
102
RTVSPropertyOp39
 70
     1
102
RTVSPropertyOp40
 70
     1
102
RTVSPropertyOp41
 70
     1
102
RTVSPropertyOp42
 70
     1
102
RTVSPropertyOp43
 70
     1
102
RTVSPropertyOp44
 70
     1
102
RTVSPropertyOp45
 70
     1
102
RTVSPropertyOp46
 70
     1
102
RTVSPropertyOp47
 70
     1
102
RTVSPropertyOp48
 70
     1
102
RTVSPropertyOp49
 70
     1
102
RTVSPropertyOp50
 70
     1
102
RTVSPropertyOp51
 70
     0
102
RTVSPropertyOp52
 70
     0
102
RTVSPropertyOp53
 70
     1
102
RTVSPropertyOp54
 70
     1
102
RTVSPropertyOp55
 70
     1
102
RTVSPropertyOp56
 70
     1
102
RTVSPropertyOp57
 70
     1
102
RTVSPropertyOp58
 70
     1
102
RTVSPropertyOp59
 70
     1
102
RTVSPropertyOp60
 70
     1
102
RTVSPropertyOp61
 70
     1
102
RTVSPropertyOp62
 70
     1
  0
XRECORD
  5
A01
102
{ACAD_REACTORS
330
A00
102
}
330
A00
100
AcDbXrecord
280
     1
102
RTVSPost2010Prop28
280
     0
102
RTVSPost2010PropOp28
 70
     1
102
RTVSPost2010Prop29
280
     1
102
RTVSPost2010PropOp29
 70
     1
102
RTVSPost2010Prop30
280
     1
102
RTVSPost2010PropOp30
 70
     1
102
RTVSPost2010Prop31
280
     0
102
RTVSPost2010PropOp31
 70
     1
102
RTVSPost2010Prop32
280
     0
102
RTVSPost2010PropOp32
 70
     1
102
RTVSPost2010Prop33
280
     0
102
RTVSPost2010PropOp33
 70
     1
102
RTVSPost2010Prop34
280
     0
102
RTVSPost2010PropOp34
 70
     1
102
RTVSPost2010Prop35
280
     0
102
RTVSPost2010PropOp35
 70
     1
102
RTVSPost2010Prop36
280
     0
102
RTVSPost2010PropOp36
 70
     1
102
RTVSPost2010Prop37
 90
       50
102
RTVSPost2010PropOp37
 70
     1
102
RTVSPost2010Prop38
140
0.0
102
RTVSPost2010PropOp38
 70
     1
102
RTVSPost2010Prop39
140
1.0
102
RTVSPost2010PropOp39
 70
     1
102
RTVSPost2010Prop40
 90
        0
102
RTVSPost2010PropOp40
 70
     1
102
RTVSPost2010Prop41ColorIndex
 90
       18
102
RTVSPost2010Prop41ColorRGB
 90
        0
102
RTVSPost2010PropOp41
 70
     1
102
RTVSPost2010Prop42
 90
       50
102
RTVSPost2010PropOp42
 70
     1
102
RTVSPost2010Prop43
 90
        3
102
RTVSPost2010PropOp43
 70
     1
102
RTVSPost2010Prop44ColorIndex
 90
        5
102
RTVSPost2010Prop44ColorRGB
 90
      255
102
RTVSPost2010PropOp44
 70
     1
102
RTVSPost2010Prop45
280
     0
102
RTVSPost2010PropOp45
 70
     1
102
RTVSPost2010Prop46
 90
       50
102
RTVSPost2010PropOp46
 70
     1
102
RTVSPost2010Prop47
 90
       50
102
RTVSPost2010PropOp47
 70
     1
102
RTVSPost2010Prop48
 90
       50
102
RTVSPost2010PropOp48
 70
     1
102
RTVSPost2010Prop49
280
     0
102
RTVSPost2010PropOp49
 70
     1
102
RTVSPost2010Prop50
 90
       50
102
RTVSPost2010PropOp50
 70
     1
102
RTVSPost2010Prop51ColorIndex
 90
      256
102
RTVSPost2010Prop51ColorRGB
 90
-16777216
102
RTVSPost2010PropOp51
 70
     0
102
RTVSPost2010Prop52
140
1.0
102
RTVSPost2010PropOp52
 70
     0
102
RTVSPost2010Prop53
 90
        2
102
RTVSPost2010PropOp53
 70
     1
102
RTVSPost2010Prop54
  1
strokes_ogs.tif
102
RTVSPost2010PropOp54
 70
     1
102
RTVSPost2010Prop55
280
     0
102
RTVSPost2010PropOp55
 70
     1
102
RTVSPost2010Prop56
140
1.0
102
RTVSPost2010PropOp56
 70
     1
102
RTVSPost2010Prop57
140
1.0
102
RTVSPost2010PropOp57
 70
     1
102
RTVSPropertyOp0
 70
     1
102
RTVSPropertyOp1
 70
     1
102
RTVSPropertyOp2
 70
     1
102
RTVSPropertyOp3
 70
     1
102
RTVSPropertyOp4
 70
     1
102
RTVSPropertyOp5
 70
     1
102
RTVSPropertyOp6
 70
     1
102
RTVSPropertyOp7
 70
     1
102
RTVSPropertyOp8
 70
     1
102
RTVSPropertyOp9
 70
     1
102
RTVSPropertyOp10
 70
     1
102
RTVSPropertyOp11
 70
     1
102
RTVSPropertyOp12
 70
     1
102
RTVSPropertyOp13
 70
     1
102
RTVSPropertyOp14
 70
     1
102
RTVSPropertyOp15
 70
     1
102
RTVSPropertyOp16
 70
     1
102
RTVSPropertyOp17
 70
     1
102
RTVSPropertyOp18
 70
     1
102
RTVSPropertyOp19
 70
     1
102
RTVSPropertyOp20
 70
     1
102
RTVSPropertyOp21
 70
     1
102
RTVSPropertyOp22
 70
     1
102
RTVSPropertyOp23
 70
     1
102
RTVSPropertyOp24
 70
     1
102
RTVSPropertyOp25
 70
     1
102
RTVSPropertyOp26
 70
     1
102
RTVSPropertyOp27
 70
     1
102
RTVSPropertyOp28
 70
     1
102
RTVSPropertyOp29
 70
     1
102
RTVSPropertyOp30
 70
     1
102
RTVSPropertyOp31
 70
     1
102
RTVSPropertyOp32
 70
     1
102
RTVSPropertyOp33
 70
     1
102
RTVSPropertyOp34
 70
     1
102
RTVSPropertyOp35
 70
     1
102
RTVSPropertyOp36
 70
     1
102
RTVSPropertyOp37
 70
     1
102
RTVSPropertyOp38
 70
     1
102
RTVSPropertyOp39
 70
     1
102
RTVSPropertyOp40
 70
     1
102
RTVSPropertyOp41
 70
     1
102
RTVSPropertyOp42
 70
     1
102
RTVSPropertyOp43
 70
     1
102
RTVSPropertyOp44
 70
     1
102
RTVSPropertyOp45
 70
     1
102
RTVSPropertyOp46
 70
     1
102
RTVSPropertyOp47
 70
     1
102
RTVSPropertyOp48
 70
     1
102
RTVSPropertyOp49
 70
     1
102
RTVSPropertyOp50
 70
     1
102
RTVSPropertyOp51
 70
     0
102
RTVSPropertyOp52
 70
     0
102
RTVSPropertyOp53
 70
     1
102
RTVSPropertyOp54
 70
     1
102
RTVSPropertyOp55
 70
     1
102
RTVSPropertyOp56
 70
     1
102
RTVSPropertyOp57
 70
     1
102
RTVSPropertyOp58
 70
     1
102
RTVSPropertyOp59
 70
     1
102
RTVSPropertyOp60
 70
     1
102
RTVSPropertyOp61
 70
     1
102
RTVSPropertyOp62
 70
     1
  0
XRECORD
  5
A09
102
{ACAD_REACTORS
330
A08
102
}
330
A08
100
AcDbXrecord
280
     1
102
RTVSPost2010Prop28
280
     0
102
RTVSPost2010PropOp28
 70
     1
102
RTVSPost2010Prop29
280
     1
102
RTVSPost2010PropOp29
 70
     1
102
RTVSPost2010Prop30
280
     1
102
RTVSPost2010PropOp30
 70
     1
102
RTVSPost2010Prop31
280
     0
102
RTVSPost2010PropOp31
 70
     1
102
RTVSPost2010Prop32
280
     0
102
RTVSPost2010PropOp32
 70
     1
102
RTVSPost2010Prop33
280
     0
102
RTVSPost2010PropOp33
 70
     1
102
RTVSPost2010Prop34
280
     0
102
RTVSPost2010PropOp34
 70
     1
102
RTVSPost2010Prop35
280
     0
102
RTVSPost2010PropOp35
 70
     1
102
RTVSPost2010Prop36
280
     0
102
RTVSPost2010PropOp36
 70
     1
102
RTVSPost2010Prop37
 90
       50
102
RTVSPost2010PropOp37
 70
     1
102
RTVSPost2010Prop38
140
0.0
102
RTVSPost2010PropOp38
 70
     1
102
RTVSPost2010Prop39
140
1.0
102
RTVSPost2010PropOp39
 70
     1
102
RTVSPost2010Prop40
 90
        0
102
RTVSPost2010PropOp40
 70
     1
102
RTVSPost2010Prop41ColorIndex
 90
       18
102
RTVSPost2010Prop41ColorRGB
 90
        0
102
RTVSPost2010PropOp41
 70
     1
102
RTVSPost2010Prop42
 90
       50
102
RTVSPost2010PropOp42
 70
     1
102
RTVSPost2010Prop43
 90
        3
102
RTVSPost2010PropOp43
 70
     1
102
RTVSPost2010Prop44ColorIndex
 90
        5
102
RTVSPost2010Prop44ColorRGB
 90
      255
102
RTVSPost2010PropOp44
 70
     1
102
RTVSPost2010Prop45
280
     0
102
RTVSPost2010PropOp45
 70
     1
102
RTVSPost2010Prop46
 90
       50
102
RTVSPost2010PropOp46
 70
     1
102
RTVSPost2010Prop47
 90
       50
102
RTVSPost2010PropOp47
 70
     1
102
RTVSPost2010Prop48
 90
       50
102
RTVSPost2010PropOp48
 70
     1
102
RTVSPost2010Prop49
280
     0
102
RTVSPost2010PropOp49
 70
     1
102
RTVSPost2010Prop50
 90
       50
102
RTVSPost2010PropOp50
 70
     1
102
RTVSPost2010Prop51ColorIndex
 90
      256
102
RTVSPost2010Prop51ColorRGB
 90
-16777216
102
RTVSPost2010PropOp51
 70
     0
102
RTVSPost2010Prop52
140
1.0
102
RTVSPost2010PropOp52
 70
     0
102
RTVSPost2010Prop53
 90
        2
102
RTVSPost2010PropOp53
 70
     1
102
RTVSPost2010Prop54
  1
strokes_ogs.tif
102
RTVSPost2010PropOp54
 70
     1
102
RTVSPost2010Prop55
280
     0
102
RTVSPost2010PropOp55
 70
     1
102
RTVSPost2010Prop56
140
1.0
102
RTVSPost2010PropOp56
 70
     1
102
RTVSPost2010Prop57
140
1.0
102
RTVSPost2010PropOp57
 70
     1
102
RTVSPropertyOp0
 70
     1
102
RTVSPropertyOp1
 70
     1
102
RTVSPropertyOp2
 70
     1
102
RTVSPropertyOp3
 70
     1
102
RTVSPropertyOp4
 70
     1
102
RTVSPropertyOp5
 70
     1
102
RTVSPropertyOp6
 70
     1
102
RTVSPropertyOp7
 70
     1
102
RTVSPropertyOp8
 70
     1
102
RTVSPropertyOp9
 70
     1
102
RTVSPropertyOp10
 70
     1
102
RTVSPropertyOp11
 70
     1
102
RTVSPropertyOp12
 70
     1
102
RTVSPropertyOp13
 70
     1
102
RTVSPropertyOp14
 70
     1
102
RTVSPropertyOp15
 70
     1
102
RTVSPropertyOp16
 70
     1
102
RTVSPropertyOp17
 70
     1
102
RTVSPropertyOp18
 70
     1
102
RTVSPropertyOp19
 70
     1
102
RTVSPropertyOp20
 70
     1
102
RTVSPropertyOp21
 70
     1
102
RTVSPropertyOp22
 70
     1
102
RTVSPropertyOp23
 70
     1
102
RTVSPropertyOp24
 70
     1
102
RTVSPropertyOp25
 70
     1
102
RTVSPropertyOp26
 70
     1
102
RTVSPropertyOp27
 70
     1
102
RTVSPropertyOp28
 70
     1
102
RTVSPropertyOp29
 70
     1
102
RTVSPropertyOp30
 70
     1
102
RTVSPropertyOp31
 70
     1
102
RTVSPropertyOp32
 70
     1
102
RTVSPropertyOp33
 70
     1
102
RTVSPropertyOp34
 70
     1
102
RTVSPropertyOp35
 70
     1
102
RTVSPropertyOp36
 70
     1
102
RTVSPropertyOp37
 70
     1
102
RTVSPropertyOp38
 70
     1
102
RTVSPropertyOp39
 70
     1
102
RTVSPropertyOp40
 70
     1
102
RTVSPropertyOp41
 70
     1
102
RTVSPropertyOp42
 70
     1
102
RTVSPropertyOp43
 70
     1
102
RTVSPropertyOp44
 70
     1
102
RTVSPropertyOp45
 70
     1
102
RTVSPropertyOp46
 70
     1
102
RTVSPropertyOp47
 70
     1
102
RTVSPropertyOp48
 70
     1
102
RTVSPropertyOp49
 70
     1
102
RTVSPropertyOp50
 70
     1
102
RTVSPropertyOp51
 70
     0
102
RTVSPropertyOp52
 70
     0
102
RTVSPropertyOp53
 70
     1
102
RTVSPropertyOp54
 70
     1
102
RTVSPropertyOp55
 70
     1
102
RTVSPropertyOp56
 70
     1
102
RTVSPropertyOp57
 70
     1
102
RTVSPropertyOp58
 70
     1
102
RTVSPropertyOp59
 70
     1
102
RTVSPropertyOp60
 70
     1
102
RTVSPropertyOp61
 70
     1
102
RTVSPropertyOp62
 70
     1
  0
XRECORD
  5
9FB
102
{ACAD_REACTORS
330
9FA
102
}
330
9FA
100
AcDbXrecord
280
     1
102
RTVSPost2010Prop28
280
     0
102
RTVSPost2010PropOp28
 70
     1
102
RTVSPost2010Prop29
280
     1
102
RTVSPost2010PropOp29
 70
     1
102
RTVSPost2010Prop30
280
     1
102
RTVSPost2010PropOp30
 70
     1
102
RTVSPost2010Prop31
280
     0
102
RTVSPost2010PropOp31
 70
     1
102
RTVSPost2010Prop32
280
     0
102
RTVSPost2010PropOp32
 70
     1
102
RTVSPost2010Prop33
280
     0
102
RTVSPost2010PropOp33
 70
     1
102
RTVSPost2010Prop34
280
     0
102
RTVSPost2010PropOp34
 70
     1
102
RTVSPost2010Prop35
280
     0
102
RTVSPost2010PropOp35
 70
     1
102
RTVSPost2010Prop36
280
     0
102
RTVSPost2010PropOp36
 70
     1
102
RTVSPost2010Prop37
 90
       50
102
RTVSPost2010PropOp37
 70
     1
102
RTVSPost2010Prop38
140
0.0
102
RTVSPost2010PropOp38
 70
     1
102
RTVSPost2010Prop39
140
1.0
102
RTVSPost2010PropOp39
 70
     1
102
RTVSPost2010Prop40
 90
        0
102
RTVSPost2010PropOp40
 70
     1
102
RTVSPost2010Prop41ColorIndex
 90
       18
102
RTVSPost2010Prop41ColorRGB
 90
        0
102
RTVSPost2010PropOp41
 70
     1
102
RTVSPost2010Prop42
 90
       50
102
RTVSPost2010PropOp42
 70
     1
102
RTVSPost2010Prop43
 90
        3
102
RTVSPost2010PropOp43
 70
     1
102
RTVSPost2010Prop44ColorIndex
 90
        5
102
RTVSPost2010Prop44ColorRGB
 90
      255
102
RTVSPost2010PropOp44
 70
     1
102
RTVSPost2010Prop45
280
     0
102
RTVSPost2010PropOp45
 70
     1
102
RTVSPost2010Prop46
 90
       50
102
RTVSPost2010PropOp46
 70
     1
102
RTVSPost2010Prop47
 90
       50
102
RTVSPost2010PropOp47
 70
     1
102
RTVSPost2010Prop48
 90
       50
102
RTVSPost2010PropOp48
 70
     1
102
RTVSPost2010Prop49
280
     0
102
RTVSPost2010PropOp49
 70
     1
102
RTVSPost2010Prop50
 90
       50
102
RTVSPost2010PropOp50
 70
     1
102
RTVSPost2010Prop51ColorIndex
 90
      256
102
RTVSPost2010Prop51ColorRGB
 90
-16777216
102
RTVSPost2010PropOp51
 70
     0
102
RTVSPost2010Prop52
140
1.0
102
RTVSPost2010PropOp52
 70
     0
102
RTVSPost2010Prop53
 90
        2
102
RTVSPost2010PropOp53
 70
     1
102
RTVSPost2010Prop54
  1
strokes_ogs.tif
102
RTVSPost2010PropOp54
 70
     1
102
RTVSPost2010Prop55
280
     0
102
RTVSPost2010PropOp55
 70
     1
102
RTVSPost2010Prop56
140
1.0
102
RTVSPost2010PropOp56
 70
     1
102
RTVSPost2010Prop57
140
1.0
102
RTVSPost2010PropOp57
 70
     1
102
RTVSPropertyOp0
 70
     1
102
RTVSPropertyOp1
 70
     1
102
RTVSPropertyOp2
 70
     1
102
RTVSPropertyOp3
 70
     1
102
RTVSPropertyOp4
 70
     1
102
RTVSPropertyOp5
 70
     1
102
RTVSPropertyOp6
 70
     1
102
RTVSPropertyOp7
 70
     1
102
RTVSPropertyOp8
 70
     1
102
RTVSPropertyOp9
 70
     1
102
RTVSPropertyOp10
 70
     1
102
RTVSPropertyOp11
 70
     1
102
RTVSPropertyOp12
 70
     1
102
RTVSPropertyOp13
 70
     1
102
RTVSPropertyOp14
 70
     1
102
RTVSPropertyOp15
 70
     1
102
RTVSPropertyOp16
 70
     1
102
RTVSPropertyOp17
 70
     1
102
RTVSPropertyOp18
 70
     1
102
RTVSPropertyOp19
 70
     1
102
RTVSPropertyOp20
 70
     1
102
RTVSPropertyOp21
 70
     1
102
RTVSPropertyOp22
 70
     1
102
RTVSPropertyOp23
 70
     1
102
RTVSPropertyOp24
 70
     1
102
RTVSPropertyOp25
 70
     1
102
RTVSPropertyOp26
 70
     1
102
RTVSPropertyOp27
 70
     1
102
RTVSPropertyOp28
 70
     1
102
RTVSPropertyOp29
 70
     1
102
RTVSPropertyOp30
 70
     1
102
RTVSPropertyOp31
 70
     1
102
RTVSPropertyOp32
 70
     1
102
RTVSPropertyOp33
 70
     1
102
RTVSPropertyOp34
 70
     1
102
RTVSPropertyOp35
 70
     1
102
RTVSPropertyOp36
 70
     1
102
RTVSPropertyOp37
 70
     1
102
RTVSPropertyOp38
 70
     1
102
RTVSPropertyOp39
 70
     1
102
RTVSPropertyOp40
 70
     1
102
RTVSPropertyOp41
 70
     1
102
RTVSPropertyOp42
 70
     1
102
RTVSPropertyOp43
 70
     1
102
RTVSPropertyOp44
 70
     1
102
RTVSPropertyOp45
 70
     1
102
RTVSPropertyOp46
 70
     1
102
RTVSPropertyOp47
 70
     1
102
RTVSPropertyOp48
 70
     1
102
RTVSPropertyOp49
 70
     1
102
RTVSPropertyOp50
 70
     1
102
RTVSPropertyOp51
 70
     0
102
RTVSPropertyOp52
 70
     0
102
RTVSPropertyOp53
 70
     1
102
RTVSPropertyOp54
 70
     1
102
RTVSPropertyOp55
 70
     1
102
RTVSPropertyOp56
 70
     1
102
RTVSPropertyOp57
 70
     1
102
RTVSPropertyOp58
 70
     1
102
RTVSPropertyOp59
 70
     1
102
RTVSPropertyOp60
 70
     1
102
RTVSPropertyOp61
 70
     1
102
RTVSPropertyOp62
 70
     1
  0
XRECORD
  5
9FF
102
{ACAD_REACTORS
330
9FE
102
}
330
9FE
100
AcDbXrecord
280
     1
102
RTVSPost2010Prop28
280
     0
102
RTVSPost2010PropOp28
 70
     1
102
RTVSPost2010Prop29
280
     1
102
RTVSPost2010PropOp29
 70
     1
102
RTVSPost2010Prop30
280
     1
102
RTVSPost2010PropOp30
 70
     1
102
RTVSPost2010Prop31
280
     0
102
RTVSPost2010PropOp31
 70
     1
102
RTVSPost2010Prop32
280
     0
102
RTVSPost2010PropOp32
 70
     1
102
RTVSPost2010Prop33
280
     0
102
RTVSPost2010PropOp33
 70
     1
102
RTVSPost2010Prop34
280
     0
102
RTVSPost2010PropOp34
 70
     1
102
RTVSPost2010Prop35
280
     0
102
RTVSPost2010PropOp35
 70
     1
102
RTVSPost2010Prop36
280
     0
102
RTVSPost2010PropOp36
 70
     1
102
RTVSPost2010Prop37
 90
       50
102
RTVSPost2010PropOp37
 70
     1
102
RTVSPost2010Prop38
140
0.0
102
RTVSPost2010PropOp38
 70
     1
102
RTVSPost2010Prop39
140
1.0
102
RTVSPost2010PropOp39
 70
     1
102
RTVSPost2010Prop40
 90
        0
102
RTVSPost2010PropOp40
 70
     1
102
RTVSPost2010Prop41ColorIndex
 90
       18
102
RTVSPost2010Prop41ColorRGB
 90
        0
102
RTVSPost2010PropOp41
 70
     1
102
RTVSPost2010Prop42
 90
       50
102
RTVSPost2010PropOp42
 70
     1
102
RTVSPost2010Prop43
 90
        3
102
RTVSPost2010PropOp43
 70
     1
102
RTVSPost2010Prop44ColorIndex
 90
        5
102
RTVSPost2010Prop44ColorRGB
 90
      255
102
RTVSPost2010PropOp44
 70
     1
102
RTVSPost2010Prop45
280
     0
102
RTVSPost2010PropOp45
 70
     1
102
RTVSPost2010Prop46
 90
       50
102
RTVSPost2010PropOp46
 70
     1
102
RTVSPost2010Prop47
 90
       50
102
RTVSPost2010PropOp47
 70
     1
102
RTVSPost2010Prop48
 90
       50
102
RTVSPost2010PropOp48
 70
     1
102
RTVSPost2010Prop49
280
     0
102
RTVSPost2010PropOp49
 70
     1
102
RTVSPost2010Prop50
 90
       50
102
RTVSPost2010PropOp50
 70
     1
102
RTVSPost2010Prop51ColorIndex
 90
      256
102
RTVSPost2010Prop51ColorRGB
 90
-16777216
102
RTVSPost2010PropOp51
 70
     0
102
RTVSPost2010Prop52
140
1.0
102
RTVSPost2010PropOp52
 70
     0
102
RTVSPost2010Prop53
 90
        2
102
RTVSPost2010PropOp53
 70
     1
102
RTVSPost2010Prop54
  1
strokes_ogs.tif
102
RTVSPost2010PropOp54
 70
     1
102
RTVSPost2010Prop55
280
     0
102
RTVSPost2010PropOp55
 70
     1
102
RTVSPost2010Prop56
140
1.0
102
RTVSPost2010PropOp56
 70
     1
102
RTVSPost2010Prop57
140
1.0
102
RTVSPost2010PropOp57
 70
     1
102
RTVSPropertyOp0
 70
     1
102
RTVSPropertyOp1
 70
     1
102
RTVSPropertyOp2
 70
     1
102
RTVSPropertyOp3
 70
     1
102
RTVSPropertyOp4
 70
     1
102
RTVSPropertyOp5
 70
     1
102
RTVSPropertyOp6
 70
     1
102
RTVSPropertyOp7
 70
     1
102
RTVSPropertyOp8
 70
     1
102
RTVSPropertyOp9
 70
     1
102
RTVSPropertyOp10
 70
     1
102
RTVSPropertyOp11
 70
     1
102
RTVSPropertyOp12
 70
     1
102
RTVSPropertyOp13
 70
     1
102
RTVSPropertyOp14
 70
     1
102
RTVSPropertyOp15
 70
     1
102
RTVSPropertyOp16
 70
     1
102
RTVSPropertyOp17
 70
     1
102
RTVSPropertyOp18
 70
     1
102
RTVSPropertyOp19
 70
     1
102
RTVSPropertyOp20
 70
     1
102
RTVSPropertyOp21
 70
     1
102
RTVSPropertyOp22
 70
     1
102
RTVSPropertyOp23
 70
     1
102
RTVSPropertyOp24
 70
     1
102
RTVSPropertyOp25
 70
     1
102
RTVSPropertyOp26
 70
     1
102
RTVSPropertyOp27
 70
     1
102
RTVSPropertyOp28
 70
     1
102
RTVSPropertyOp29
 70
     1
102
RTVSPropertyOp30
 70
     1
102
RTVSPropertyOp31
 70
     1
102
RTVSPropertyOp32
 70
     1
102
RTVSPropertyOp33
 70
     1
102
RTVSPropertyOp34
 70
     1
102
RTVSPropertyOp35
 70
     1
102
RTVSPropertyOp36
 70
     1
102
RTVSPropertyOp37
 70
     1
102
RTVSPropertyOp38
 70
     1
102
RTVSPropertyOp39
 70
     1
102
RTVSPropertyOp40
 70
     1
102
RTVSPropertyOp41
 70
     1
102
RTVSPropertyOp42
 70
     1
102
RTVSPropertyOp43
 70
     1
102
RTVSPropertyOp44
 70
     1
102
RTVSPropertyOp45
 70
     1
102
RTVSPropertyOp46
 70
     1
102
RTVSPropertyOp47
 70
     1
102
RTVSPropertyOp48
 70
     1
102
RTVSPropertyOp49
 70
     1
102
RTVSPropertyOp50
 70
     1
102
RTVSPropertyOp51
 70
     0
102
RTVSPropertyOp52
 70
     0
102
RTVSPropertyOp53
 70
     1
102
RTVSPropertyOp54
 70
     1
102
RTVSPropertyOp55
 70
     1
102
RTVSPropertyOp56
 70
     1
102
RTVSPropertyOp57
 70
     1
102
RTVSPropertyOp58
 70
     1
102
RTVSPropertyOp59
 70
     1
102
RTVSPropertyOp60
 70
     1
102
RTVSPropertyOp61
 70
     1
102
RTVSPropertyOp62
 70
     1
  0
XRECORD
  5
A19
102
{ACAD_REACTORS
330
A18
102
}
330
A18
100
AcDbXrecord
280
     1
102
RTVSPost2010Prop28
280
     0
102
RTVSPost2010PropOp28
 70
     1
102
RTVSPost2010Prop29
280
     1
102
RTVSPost2010PropOp29
 70
     1
102
RTVSPost2010Prop30
280
     1
102
RTVSPost2010PropOp30
 70
     1
102
RTVSPost2010Prop31
280
     0
102
RTVSPost2010PropOp31
 70
     1
102
RTVSPost2010Prop32
280
     0
102
RTVSPost2010PropOp32
 70
     1
102
RTVSPost2010Prop33
280
     0
102
RTVSPost2010PropOp33
 70
     1
102
RTVSPost2010Prop34
280
     0
102
RTVSPost2010PropOp34
 70
     1
102
RTVSPost2010Prop35
280
     0
102
RTVSPost2010PropOp35
 70
     1
102
RTVSPost2010Prop36
280
     0
102
RTVSPost2010PropOp36
 70
     1
102
RTVSPost2010Prop37
 90
       50
102
RTVSPost2010PropOp37
 70
     0
102
RTVSPost2010Prop38
140
0.0
102
RTVSPost2010PropOp38
 70
     0
102
RTVSPost2010Prop39
140
1.0
102
RTVSPost2010PropOp39
 70
     0
102
RTVSPost2010Prop40
 90
        0
102
RTVSPost2010PropOp40
 70
     0
102
RTVSPost2010Prop41ColorIndex
 90
       18
102
RTVSPost2010Prop41ColorRGB
 90
        0
102
RTVSPost2010PropOp41
 70
     0
102
RTVSPost2010Prop42
 90
       50
102
RTVSPost2010PropOp42
 70
     0
102
RTVSPost2010Prop43
 90
        3
102
RTVSPost2010PropOp43
 70
     0
102
RTVSPost2010Prop44ColorIndex
 90
        5
102
RTVSPost2010Prop44ColorRGB
 90
      255
102
RTVSPost2010PropOp44
 70
     0
102
RTVSPost2010Prop45
280
     0
102
RTVSPost2010PropOp45
 70
     1
102
RTVSPost2010Prop46
 90
       50
102
RTVSPost2010PropOp46
 70
     0
102
RTVSPost2010Prop47
 90
       50
102
RTVSPost2010PropOp47
 70
     0
102
RTVSPost2010Prop48
 90
       50
102
RTVSPost2010PropOp48
 70
     0
102
RTVSPost2010Prop49
280
     0
102
RTVSPost2010PropOp49
 70
     1
102
RTVSPost2010Prop50
 90
       50
102
RTVSPost2010PropOp50
 70
     0
102
RTVSPost2010Prop51ColorIndex
 90
      256
102
RTVSPost2010Prop51ColorRGB
 90
-16777216
102
RTVSPost2010PropOp51
 70
     0
102
RTVSPost2010Prop52
140
1.0
102
RTVSPost2010PropOp52
 70
     0
102
RTVSPost2010Prop53
 90
        2
102
RTVSPost2010PropOp53
 70
     0
102
RTVSPost2010Prop54
  1
strokes_ogs.tif
102
RTVSPost2010PropOp54
 70
     0
102
RTVSPost2010Prop55
280
     0
102
RTVSPost2010PropOp55
 70
     1
102
RTVSPost2010Prop56
140
1.0
102
RTVSPost2010PropOp56
 70
     0
102
RTVSPost2010Prop57
140
1.0
102
RTVSPost2010PropOp57
 70
     0
102
RTVSPropertyOp0
 70
     0
102
RTVSPropertyOp1
 70
     0
102
RTVSPropertyOp2
 70
     0
102
RTVSPropertyOp3
 70
     0
102
RTVSPropertyOp4
 70
     0
102
RTVSPropertyOp5
 70
     0
102
RTVSPropertyOp6
 70
     0
102
RTVSPropertyOp7
 70
     0
102
RTVSPropertyOp8
 70
     0
102
RTVSPropertyOp9
 70
     0
102
RTVSPropertyOp10
 70
     0
102
RTVSPropertyOp11
 70
     0
102
RTVSPropertyOp12
 70
     0
102
RTVSPropertyOp13
 70
     0
102
RTVSPropertyOp14
 70
     2
102
RTVSPropertyOp15
 70
     0
102
RTVSPropertyOp16
 70
     0
102
RTVSPropertyOp17
 70
     0
102
RTVSPropertyOp18
 70
     0
102
RTVSPropertyOp19
 70
     0
102
RTVSPropertyOp20
 70
     0
102
RTVSPropertyOp21
 70
     0
102
RTVSPropertyOp22
 70
     0
102
RTVSPropertyOp23
 70
     0
102
RTVSPropertyOp24
 70
     0
102
RTVSPropertyOp25
 70
     0
102
RTVSPropertyOp26
 70
     0
102
RTVSPropertyOp27
 70
     0
102
RTVSPropertyOp28
 70
     1
102
RTVSPropertyOp29
 70
     1
102
RTVSPropertyOp30
 70
     1
102
RTVSPropertyOp31
 70
     1
102
RTVSPropertyOp32
 70
     1
102
RTVSPropertyOp33
 70
     1
102
RTVSPropertyOp34
 70
     1
102
RTVSPropertyOp35
 70
     1
102
RTVSPropertyOp36
 70
     1
102
RTVSPropertyOp37
 70
     0
102
RTVSPropertyOp38
 70
     0
102
RTVSPropertyOp39
 70
     0
102
RTVSPropertyOp40
 70
     0
102
RTVSPropertyOp41
 70
     0
102
RTVSPropertyOp42
 70
     0
102
RTVSPropertyOp43
 70
     0
102
RTVSPropertyOp44
 70
     0
102
RTVSPropertyOp45
 70
     1
102
RTVSPropertyOp46
 70
     0
102
RTVSPropertyOp47
 70
     0
102
RTVSPropertyOp48
 70
     0
102
RTVSPropertyOp49
 70
     1
102
RTVSPropertyOp50
 70
     0
102
RTVSPropertyOp51
 70
     0
102
RTVSPropertyOp52
 70
     0
102
RTVSPropertyOp53
 70
     0
102
RTVSPropertyOp54
 70
     0
102
RTVSPropertyOp55
 70
     1
102
RTVSPropertyOp56
 70
     0
102
RTVSPropertyOp57
 70
     0
102
RTVSPropertyOp58
 70
     0
102
RTVSPropertyOp59
 70
     0
102
RTVSPropertyOp60
 70
     0
102
RTVSPropertyOp61
 70
     0
102
RTVSPropertyOp62
 70
     0
  0
XRECORD
  5
A07
102
{ACAD_REACTORS
330
A06
102
}
330
A06
100
AcDbXrecord
280
     1
102
RTVSPost2010Prop28
280
     0
102
RTVSPost2010PropOp28
 70
     1
102
RTVSPost2010Prop29
280
     1
102
RTVSPost2010PropOp29
 70
     1
102
RTVSPost2010Prop30
280
     1
102
RTVSPost2010PropOp30
 70
     1
102
RTVSPost2010Prop31
280
     0
102
RTVSPost2010PropOp31
 70
     1
102
RTVSPost2010Prop32
280
     0
102
RTVSPost2010PropOp32
 70
     1
102
RTVSPost2010Prop33
280
     0
102
RTVSPost2010PropOp33
 70
     1
102
RTVSPost2010Prop34
280
     0
102
RTVSPost2010PropOp34
 70
     1
102
RTVSPost2010Prop35
280
     0
102
RTVSPost2010PropOp35
 70
     1
102
RTVSPost2010Prop36
280
     0
102
RTVSPost2010PropOp36
 70
     1
102
RTVSPost2010Prop37
 90
       50
102
RTVSPost2010PropOp37
 70
     1
102
RTVSPost2010Prop38
140
0.0
102
RTVSPost2010PropOp38
 70
     1
102
RTVSPost2010Prop39
140
1.0
102
RTVSPost2010PropOp39
 70
     1
102
RTVSPost2010Prop40
 90
        0
102
RTVSPost2010PropOp40
 70
     1
102
RTVSPost2010Prop41ColorIndex
 90
       18
102
RTVSPost2010Prop41ColorRGB
 90
        0
102
RTVSPost2010PropOp41
 70
     1
102
RTVSPost2010Prop42
 90
       50
102
RTVSPost2010PropOp42
 70
     1
102
RTVSPost2010Prop43
 90
        3
102
RTVSPost2010PropOp43
 70
     1
102
RTVSPost2010Prop44ColorIndex
 90
        5
102
RTVSPost2010Prop44ColorRGB
 90
      255
102
RTVSPost2010PropOp44
 70
     1
102
RTVSPost2010Prop45
280
     0
102
RTVSPost2010PropOp45
 70
     1
102
RTVSPost2010Prop46
 90
       50
102
RTVSPost2010PropOp46
 70
     1
102
RTVSPost2010Prop47
 90
       50
102
RTVSPost2010PropOp47
 70
     1
102
RTVSPost2010Prop48
 90
       50
102
RTVSPost2010PropOp48
 70
     1
102
RTVSPost2010Prop49
280
     0
102
RTVSPost2010PropOp49
 70
     1
102
RTVSPost2010Prop50
 90
       50
102
RTVSPost2010PropOp50
 70
     1
102
RTVSPost2010Prop51ColorIndex
 90
      256
102
RTVSPost2010Prop51ColorRGB
 90
-16777216
102
RTVSPost2010PropOp51
 70
     0
102
RTVSPost2010Prop52
140
1.0
102
RTVSPost2010PropOp52
 70
     0
102
RTVSPost2010Prop53
 90
        2
102
RTVSPost2010PropOp53
 70
     1
102
RTVSPost2010Prop54
  1
strokes_ogs.tif
102
RTVSPost2010PropOp54
 70
     1
102
RTVSPost2010Prop55
280
     0
102
RTVSPost2010PropOp55
 70
     1
102
RTVSPost2010Prop56
140
1.0
102
RTVSPost2010PropOp56
 70
     1
102
RTVSPost2010Prop57
140
1.0
102
RTVSPost2010PropOp57
 70
     1
102
RTVSPropertyOp0
 70
     1
102
RTVSPropertyOp1
 70
     1
102
RTVSPropertyOp2
 70
     1
102
RTVSPropertyOp3
 70
     1
102
RTVSPropertyOp4
 70
     1
102
RTVSPropertyOp5
 70
     1
102
RTVSPropertyOp6
 70
     1
102
RTVSPropertyOp7
 70
     1
102
RTVSPropertyOp8
 70
     1
102
RTVSPropertyOp9
 70
     1
102
RTVSPropertyOp10
 70
     1
102
RTVSPropertyOp11
 70
     1
102
RTVSPropertyOp12
 70
     1
102
RTVSPropertyOp13
 70
     1
102
RTVSPropertyOp14
 70
     1
102
RTVSPropertyOp15
 70
     1
102
RTVSPropertyOp16
 70
     1
102
RTVSPropertyOp17
 70
     1
102
RTVSPropertyOp18
 70
     1
102
RTVSPropertyOp19
 70
     1
102
RTVSPropertyOp20
 70
     1
102
RTVSPropertyOp21
 70
     1
102
RTVSPropertyOp22
 70
     1
102
RTVSPropertyOp23
 70
     1
102
RTVSPropertyOp24
 70
     1
102
RTVSPropertyOp25
 70
     1
102
RTVSPropertyOp26
 70
     1
102
RTVSPropertyOp27
 70
     1
102
RTVSPropertyOp28
 70
     1
102
RTVSPropertyOp29
 70
     1
102
RTVSPropertyOp30
 70
     1
102
RTVSPropertyOp31
 70
     1
102
RTVSPropertyOp32
 70
     1
102
RTVSPropertyOp33
 70
     1
102
RTVSPropertyOp34
 70
     1
102
RTVSPropertyOp35
 70
     1
102
RTVSPropertyOp36
 70
     1
102
RTVSPropertyOp37
 70
     1
102
RTVSPropertyOp38
 70
     1
102
RTVSPropertyOp39
 70
     1
102
RTVSPropertyOp40
 70
     1
102
RTVSPropertyOp41
 70
     1
102
RTVSPropertyOp42
 70
     1
102
RTVSPropertyOp43
 70
     1
102
RTVSPropertyOp44
 70
     1
102
RTVSPropertyOp45
 70
     1
102
RTVSPropertyOp46
 70
     1
102
RTVSPropertyOp47
 70
     1
102
RTVSPropertyOp48
 70
     1
102
RTVSPropertyOp49
 70
     1
102
RTVSPropertyOp50
 70
     1
102
RTVSPropertyOp51
 70
     0
102
RTVSPropertyOp52
 70
     0
102
RTVSPropertyOp53
 70
     1
102
RTVSPropertyOp54
 70
     1
102
RTVSPropertyOp55
 70
     1
102
RTVSPropertyOp56
 70
     1
102
RTVSPropertyOp57
 70
     1
102
RTVSPropertyOp58
 70
     1
102
RTVSPropertyOp59
 70
     1
102
RTVSPropertyOp60
 70
     1
102
RTVSPropertyOp61
 70
     1
102
RTVSPropertyOp62
 70
     1
  0
XRECORD
  5
9EB
102
{ACAD_REACTORS
330
9EA
102
}
330
9EA
100
AcDbXrecord
280
     1
102
RTVSPost2010Prop28
280
     0
102
RTVSPost2010PropOp28
 70
     1
102
RTVSPost2010Prop29
280
     1
102
RTVSPost2010PropOp29
 70
     1
102
RTVSPost2010Prop30
280
     1
102
RTVSPost2010PropOp30
 70
     1
102
RTVSPost2010Prop31
280
     0
102
RTVSPost2010PropOp31
 70
     1
102
RTVSPost2010Prop32
280
     0
102
RTVSPost2010PropOp32
 70
     1
102
RTVSPost2010Prop33
280
     0
102
RTVSPost2010PropOp33
 70
     1
102
RTVSPost2010Prop34
280
     0
102
RTVSPost2010PropOp34
 70
     1
102
RTVSPost2010Prop35
280
     0
102
RTVSPost2010PropOp35
 70
     1
102
RTVSPost2010Prop36
280
     0
102
RTVSPost2010PropOp36
 70
     1
102
RTVSPost2010Prop37
 90
       50
102
RTVSPost2010PropOp37
 70
     1
102
RTVSPost2010Prop38
140
0.0
102
RTVSPost2010PropOp38
 70
     1
102
RTVSPost2010Prop39
140
1.0
102
RTVSPost2010PropOp39
 70
     1
102
RTVSPost2010Prop40
 90
        0
102
RTVSPost2010PropOp40
 70
     1
102
RTVSPost2010Prop41ColorIndex
 90
       18
102
RTVSPost2010Prop41ColorRGB
 90
        0
102
RTVSPost2010PropOp41
 70
     1
102
RTVSPost2010Prop42
 90
       50
102
RTVSPost2010PropOp42
 70
     1
102
RTVSPost2010Prop43
 90
        3
102
RTVSPost2010PropOp43
 70
     1
102
RTVSPost2010Prop44ColorIndex
 90
        5
102
RTVSPost2010Prop44ColorRGB
 90
      255
102
RTVSPost2010PropOp44
 70
     1
102
RTVSPost2010Prop45
280
     0
102
RTVSPost2010PropOp45
 70
     1
102
RTVSPost2010Prop46
 90
       50
102
RTVSPost2010PropOp46
 70
     1
102
RTVSPost2010Prop47
 90
       50
102
RTVSPost2010PropOp47
 70
     1
102
RTVSPost2010Prop48
 90
       50
102
RTVSPost2010PropOp48
 70
     1
102
RTVSPost2010Prop49
280
     0
102
RTVSPost2010PropOp49
 70
     1
102
RTVSPost2010Prop50
 90
       50
102
RTVSPost2010PropOp50
 70
     1
102
RTVSPost2010Prop51ColorIndex
 90
      256
102
RTVSPost2010Prop51ColorRGB
 90
-16777216
102
RTVSPost2010PropOp51
 70
     0
102
RTVSPost2010Prop52
140
1.0
102
RTVSPost2010PropOp52
 70
     0
102
RTVSPost2010Prop53
 90
        2
102
RTVSPost2010PropOp53
 70
     1
102
RTVSPost2010Prop54
  1
strokes_ogs.tif
102
RTVSPost2010PropOp54
 70
     1
102
RTVSPost2010Prop55
280
     0
102
RTVSPost2010PropOp55
 70
     1
102
RTVSPost2010Prop56
140
1.0
102
RTVSPost2010PropOp56
 70
     1
102
RTVSPost2010Prop57
140
1.0
102
RTVSPost2010PropOp57
 70
     1
102
RTVSPropertyOp0
 70
     1
102
RTVSPropertyOp1
 70
     1
102
RTVSPropertyOp2
 70
     1
102
RTVSPropertyOp3
 70
     1
102
RTVSPropertyOp4
 70
     1
102
RTVSPropertyOp5
 70
     1
102
RTVSPropertyOp6
 70
     1
102
RTVSPropertyOp7
 70
     1
102
RTVSPropertyOp8
 70
     1
102
RTVSPropertyOp9
 70
     1
102
RTVSPropertyOp10
 70
     1
102
RTVSPropertyOp11
 70
     1
102
RTVSPropertyOp12
 70
     1
102
RTVSPropertyOp13
 70
     1
102
RTVSPropertyOp14
 70
     1
102
RTVSPropertyOp15
 70
     1
102
RTVSPropertyOp16
 70
     1
102
RTVSPropertyOp17
 70
     1
102
RTVSPropertyOp18
 70
     1
102
RTVSPropertyOp19
 70
     1
102
RTVSPropertyOp20
 70
     1
102
RTVSPropertyOp21
 70
     1
102
RTVSPropertyOp22
 70
     1
102
RTVSPropertyOp23
 70
     1
102
RTVSPropertyOp24
 70
     1
102
RTVSPropertyOp25
 70
     1
102
RTVSPropertyOp26
 70
     1
102
RTVSPropertyOp27
 70
     1
102
RTVSPropertyOp28
 70
     1
102
RTVSPropertyOp29
 70
     1
102
RTVSPropertyOp30
 70
     1
102
RTVSPropertyOp31
 70
     1
102
RTVSPropertyOp32
 70
     1
102
RTVSPropertyOp33
 70
     1
102
RTVSPropertyOp34
 70
     1
102
RTVSPropertyOp35
 70
     1
102
RTVSPropertyOp36
 70
     1
102
RTVSPropertyOp37
 70
     1
102
RTVSPropertyOp38
 70
     1
102
RTVSPropertyOp39
 70
     1
102
RTVSPropertyOp40
 70
     1
102
RTVSPropertyOp41
 70
     1
102
RTVSPropertyOp42
 70
     1
102
RTVSPropertyOp43
 70
     1
102
RTVSPropertyOp44
 70
     1
102
RTVSPropertyOp45
 70
     1
102
RTVSPropertyOp46
 70
     1
102
RTVSPropertyOp47
 70
     1
102
RTVSPropertyOp48
 70
     1
102
RTVSPropertyOp49
 70
     1
102
RTVSPropertyOp50
 70
     1
102
RTVSPropertyOp51
 70
     0
102
RTVSPropertyOp52
 70
     0
102
RTVSPropertyOp53
 70
     1
102
RTVSPropertyOp54
 70
     1
102
RTVSPropertyOp55
 70
     1
102
RTVSPropertyOp56
 70
     1
102
RTVSPropertyOp57
 70
     1
102
RTVSPropertyOp58
 70
     1
102
RTVSPropertyOp59
 70
     1
102
RTVSPropertyOp60
 70
     1
102
RTVSPropertyOp61
 70
     1
102
RTVSPropertyOp62
 70
     1
  0
XRECORD
  5
9ED
102
{ACAD_REACTORS
330
9EC
102
}
330
9EC
100
AcDbXrecord
280
     1
102
RTVSPost2010Prop28
280
     0
102
RTVSPost2010PropOp28
 70
     1
102
RTVSPost2010Prop29
280
     1
102
RTVSPost2010PropOp29
 70
     1
102
RTVSPost2010Prop30
280
     1
102
RTVSPost2010PropOp30
 70
     1
102
RTVSPost2010Prop31
280
     0
102
RTVSPost2010PropOp31
 70
     1
102
RTVSPost2010Prop32
280
     0
102
RTVSPost2010PropOp32
 70
     1
102
RTVSPost2010Prop33
280
     0
102
RTVSPost2010PropOp33
 70
     1
102
RTVSPost2010Prop34
280
     0
102
RTVSPost2010PropOp34
 70
     1
102
RTVSPost2010Prop35
280
     0
102
RTVSPost2010PropOp35
 70
     1
102
RTVSPost2010Prop36
280
     0
102
RTVSPost2010PropOp36
 70
     1
102
RTVSPost2010Prop37
 90
       50
102
RTVSPost2010PropOp37
 70
     1
102
RTVSPost2010Prop38
140
0.0
102
RTVSPost2010PropOp38
 70
     1
102
RTVSPost2010Prop39
140
1.0
102
RTVSPost2010PropOp39
 70
     1
102
RTVSPost2010Prop40
 90
        0
102
RTVSPost2010PropOp40
 70
     1
102
RTVSPost2010Prop41ColorIndex
 90
       18
102
RTVSPost2010Prop41ColorRGB
 90
        0
102
RTVSPost2010PropOp41
 70
     1
102
RTVSPost2010Prop42
 90
       50
102
RTVSPost2010PropOp42
 70
     1
102
RTVSPost2010Prop43
 90
        3
102
RTVSPost2010PropOp43
 70
     1
102
RTVSPost2010Prop44ColorIndex
 90
        5
102
RTVSPost2010Prop44ColorRGB
 90
      255
102
RTVSPost2010PropOp44
 70
     1
102
RTVSPost2010Prop45
280
     0
102
RTVSPost2010PropOp45
 70
     1
102
RTVSPost2010Prop46
 90
       50
102
RTVSPost2010PropOp46
 70
     1
102
RTVSPost2010Prop47
 90
       50
102
RTVSPost2010PropOp47
 70
     1
102
RTVSPost2010Prop48
 90
       50
102
RTVSPost2010PropOp48
 70
     1
102
RTVSPost2010Prop49
280
     0
102
RTVSPost2010PropOp49
 70
     1
102
RTVSPost2010Prop50
 90
       50
102
RTVSPost2010PropOp50
 70
     1
102
RTVSPost2010Prop51ColorIndex
 90
      256
102
RTVSPost2010Prop51ColorRGB
 90
-16777216
102
RTVSPost2010PropOp51
 70
     0
102
RTVSPost2010Prop52
140
1.0
102
RTVSPost2010PropOp52
 70
     0
102
RTVSPost2010Prop53
 90
        2
102
RTVSPost2010PropOp53
 70
     1
102
RTVSPost2010Prop54
  1
strokes_ogs.tif
102
RTVSPost2010PropOp54
 70
     1
102
RTVSPost2010Prop55
280
     0
102
RTVSPost2010PropOp55
 70
     1
102
RTVSPost2010Prop56
140
1.0
102
RTVSPost2010PropOp56
 70
     1
102
RTVSPost2010Prop57
140
1.0
102
RTVSPost2010PropOp57
 70
     1
102
RTVSPropertyOp0
 70
     1
102
RTVSPropertyOp1
 70
     1
102
RTVSPropertyOp2
 70
     1
102
RTVSPropertyOp3
 70
     1
102
RTVSPropertyOp4
 70
     1
102
RTVSPropertyOp5
 70
     1
102
RTVSPropertyOp6
 70
     1
102
RTVSPropertyOp7
 70
     1
102
RTVSPropertyOp8
 70
     1
102
RTVSPropertyOp9
 70
     1
102
RTVSPropertyOp10
 70
     1
102
RTVSPropertyOp11
 70
     1
102
RTVSPropertyOp12
 70
     1
102
RTVSPropertyOp13
 70
     1
102
RTVSPropertyOp14
 70
     1
102
RTVSPropertyOp15
 70
     1
102
RTVSPropertyOp16
 70
     1
102
RTVSPropertyOp17
 70
     1
102
RTVSPropertyOp18
 70
     1
102
RTVSPropertyOp19
 70
     1
102
RTVSPropertyOp20
 70
     1
102
RTVSPropertyOp21
 70
     1
102
RTVSPropertyOp22
 70
     1
102
RTVSPropertyOp23
 70
     1
102
RTVSPropertyOp24
 70
     1
102
RTVSPropertyOp25
 70
     1
102
RTVSPropertyOp26
 70
     1
102
RTVSPropertyOp27
 70
     1
102
RTVSPropertyOp28
 70
     1
102
RTVSPropertyOp29
 70
     1
102
RTVSPropertyOp30
 70
     1
102
RTVSPropertyOp31
 70
     1
102
RTVSPropertyOp32
 70
     1
102
RTVSPropertyOp33
 70
     1
102
RTVSPropertyOp34
 70
     1
102
RTVSPropertyOp35
 70
     1
102
RTVSPropertyOp36
 70
     1
102
RTVSPropertyOp37
 70
     1
102
RTVSPropertyOp38
 70
     1
102
RTVSPropertyOp39
 70
     1
102
RTVSPropertyOp40
 70
     1
102
RTVSPropertyOp41
 70
     1
102
RTVSPropertyOp42
 70
     1
102
RTVSPropertyOp43
 70
     1
102
RTVSPropertyOp44
 70
     1
102
RTVSPropertyOp45
 70
     1
102
RTVSPropertyOp46
 70
     1
102
RTVSPropertyOp47
 70
     1
102
RTVSPropertyOp48
 70
     1
102
RTVSPropertyOp49
 70
     1
102
RTVSPropertyOp50
 70
     1
102
RTVSPropertyOp51
 70
     0
102
RTVSPropertyOp52
 70
     0
102
RTVSPropertyOp53
 70
     1
102
RTVSPropertyOp54
 70
     1
102
RTVSPropertyOp55
 70
     1
102
RTVSPropertyOp56
 70
     1
102
RTVSPropertyOp57
 70
     1
102
RTVSPropertyOp58
 70
     1
102
RTVSPropertyOp59
 70
     1
102
RTVSPropertyOp60
 70
     1
102
RTVSPropertyOp61
 70
     1
102
RTVSPropertyOp62
 70
     1
  0
XRECORD
  5
9EF
102
{ACAD_REACTORS
330
9EE
102
}
330
9EE
100
AcDbXrecord
280
     1
102
RTVSPost2010Prop28
280
     0
102
RTVSPost2010PropOp28
 70
     1
102
RTVSPost2010Prop29
280
     1
102
RTVSPost2010PropOp29
 70
     1
102
RTVSPost2010Prop30
280
     1
102
RTVSPost2010PropOp30
 70
     1
102
RTVSPost2010Prop31
280
     0
102
RTVSPost2010PropOp31
 70
     1
102
RTVSPost2010Prop32
280
     0
102
RTVSPost2010PropOp32
 70
     1
102
RTVSPost2010Prop33
280
     0
102
RTVSPost2010PropOp33
 70
     1
102
RTVSPost2010Prop34
280
     0
102
RTVSPost2010PropOp34
 70
     1
102
RTVSPost2010Prop35
280
     0
102
RTVSPost2010PropOp35
 70
     1
102
RTVSPost2010Prop36
280
     0
102
RTVSPost2010PropOp36
 70
     1
102
RTVSPost2010Prop37
 90
       50
102
RTVSPost2010PropOp37
 70
     1
102
RTVSPost2010Prop38
140
0.0
102
RTVSPost2010PropOp38
 70
     1
102
RTVSPost2010Prop39
140
1.0
102
RTVSPost2010PropOp39
 70
     1
102
RTVSPost2010Prop40
 90
        0
102
RTVSPost2010PropOp40
 70
     1
102
RTVSPost2010Prop41ColorIndex
 90
       18
102
RTVSPost2010Prop41ColorRGB
 90
        0
102
RTVSPost2010PropOp41
 70
     1
102
RTVSPost2010Prop42
 90
       50
102
RTVSPost2010PropOp42
 70
     1
102
RTVSPost2010Prop43
 90
        3
102
RTVSPost2010PropOp43
 70
     1
102
RTVSPost2010Prop44ColorIndex
 90
        5
102
RTVSPost2010Prop44ColorRGB
 90
      255
102
RTVSPost2010PropOp44
 70
     1
102
RTVSPost2010Prop45
280
     0
102
RTVSPost2010PropOp45
 70
     1
102
RTVSPost2010Prop46
 90
       50
102
RTVSPost2010PropOp46
 70
     1
102
RTVSPost2010Prop47
 90
       50
102
RTVSPost2010PropOp47
 70
     1
102
RTVSPost2010Prop48
 90
       50
102
RTVSPost2010PropOp48
 70
     1
102
RTVSPost2010Prop49
280
     0
102
RTVSPost2010PropOp49
 70
     1
102
RTVSPost2010Prop50
 90
       50
102
RTVSPost2010PropOp50
 70
     1
102
RTVSPost2010Prop51ColorIndex
 90
      256
102
RTVSPost2010Prop51ColorRGB
 90
-16777216
102
RTVSPost2010PropOp51
 70
     0
102
RTVSPost2010Prop52
140
1.0
102
RTVSPost2010PropOp52
 70
     0
102
RTVSPost2010Prop53
 90
        2
102
RTVSPost2010PropOp53
 70
     1
102
RTVSPost2010Prop54
  1
strokes_ogs.tif
102
RTVSPost2010PropOp54
 70
     1
102
RTVSPost2010Prop55
280
     0
102
RTVSPost2010PropOp55
 70
     1
102
RTVSPost2010Prop56
140
1.0
102
RTVSPost2010PropOp56
 70
     1
102
RTVSPost2010Prop57
140
1.0
102
RTVSPost2010PropOp57
 70
     1
102
RTVSPropertyOp0
 70
     1
102
RTVSPropertyOp1
 70
     1
102
RTVSPropertyOp2
 70
     1
102
RTVSPropertyOp3
 70
     1
102
RTVSPropertyOp4
 70
     1
102
RTVSPropertyOp5
 70
     1
102
RTVSPropertyOp6
 70
     1
102
RTVSPropertyOp7
 70
     1
102
RTVSPropertyOp8
 70
     1
102
RTVSPropertyOp9
 70
     1
102
RTVSPropertyOp10
 70
     1
102
RTVSPropertyOp11
 70
     1
102
RTVSPropertyOp12
 70
     1
102
RTVSPropertyOp13
 70
     1
102
RTVSPropertyOp14
 70
     1
102
RTVSPropertyOp15
 70
     1
102
RTVSPropertyOp16
 70
     1
102
RTVSPropertyOp17
 70
     1
102
RTVSPropertyOp18
 70
     1
102
RTVSPropertyOp19
 70
     1
102
RTVSPropertyOp20
 70
     1
102
RTVSPropertyOp21
 70
     1
102
RTVSPropertyOp22
 70
     1
102
RTVSPropertyOp23
 70
     1
102
RTVSPropertyOp24
 70
     1
102
RTVSPropertyOp25
 70
     1
102
RTVSPropertyOp26
 70
     1
102
RTVSPropertyOp27
 70
     1
102
RTVSPropertyOp28
 70
     1
102
RTVSPropertyOp29
 70
     1
102
RTVSPropertyOp30
 70
     1
102
RTVSPropertyOp31
 70
     1
102
RTVSPropertyOp32
 70
     1
102
RTVSPropertyOp33
 70
     1
102
RTVSPropertyOp34
 70
     1
102
RTVSPropertyOp35
 70
     1
102
RTVSPropertyOp36
 70
     1
102
RTVSPropertyOp37
 70
     1
102
RTVSPropertyOp38
 70
     1
102
RTVSPropertyOp39
 70
     1
102
RTVSPropertyOp40
 70
     1
102
RTVSPropertyOp41
 70
     1
102
RTVSPropertyOp42
 70
     1
102
RTVSPropertyOp43
 70
     1
102
RTVSPropertyOp44
 70
     1
102
RTVSPropertyOp45
 70
     1
102
RTVSPropertyOp46
 70
     1
102
RTVSPropertyOp47
 70
     1
102
RTVSPropertyOp48
 70
     1
102
RTVSPropertyOp49
 70
     1
102
RTVSPropertyOp50
 70
     1
102
RTVSPropertyOp51
 70
     0
102
RTVSPropertyOp52
 70
     0
102
RTVSPropertyOp53
 70
     1
102
RTVSPropertyOp54
 70
     1
102
RTVSPropertyOp55
 70
     1
102
RTVSPropertyOp56
 70
     1
102
RTVSPropertyOp57
 70
     1
102
RTVSPropertyOp58
 70
     1
102
RTVSPropertyOp59
 70
     1
102
RTVSPropertyOp60
 70
     1
102
RTVSPropertyOp61
 70
     1
102
RTVSPropertyOp62
 70
     1
  0
XRECORD
  5
9F1
102
{ACAD_REACTORS
330
9F0
102
}
330
9F0
100
AcDbXrecord
280
     1
102
RTVSPost2010Prop28
280
     0
102
RTVSPost2010PropOp28
 70
     1
102
RTVSPost2010Prop29
280
     1
102
RTVSPost2010PropOp29
 70
     1
102
RTVSPost2010Prop30
280
     1
102
RTVSPost2010PropOp30
 70
     1
102
RTVSPost2010Prop31
280
     0
102
RTVSPost2010PropOp31
 70
     1
102
RTVSPost2010Prop32
280
     0
102
RTVSPost2010PropOp32
 70
     1
102
RTVSPost2010Prop33
280
     0
102
RTVSPost2010PropOp33
 70
     1
102
RTVSPost2010Prop34
280
     0
102
RTVSPost2010PropOp34
 70
     1
102
RTVSPost2010Prop35
280
     0
102
RTVSPost2010PropOp35
 70
     1
102
RTVSPost2010Prop36
280
     0
102
RTVSPost2010PropOp36
 70
     1
102
RTVSPost2010Prop37
 90
       50
102
RTVSPost2010PropOp37
 70
     1
102
RTVSPost2010Prop38
140
0.0
102
RTVSPost2010PropOp38
 70
     1
102
RTVSPost2010Prop39
140
1.0
102
RTVSPost2010PropOp39
 70
     1
102
RTVSPost2010Prop40
 90
        0
102
RTVSPost2010PropOp40
 70
     1
102
RTVSPost2010Prop41ColorIndex
 90
       18
102
RTVSPost2010Prop41ColorRGB
 90
        0
102
RTVSPost2010PropOp41
 70
     1
102
RTVSPost2010Prop42
 90
       50
102
RTVSPost2010PropOp42
 70
     1
102
RTVSPost2010Prop43
 90
        3
102
RTVSPost2010PropOp43
 70
     1
102
RTVSPost2010Prop44ColorIndex
 90
        5
102
RTVSPost2010Prop44ColorRGB
 90
      255
102
RTVSPost2010PropOp44
 70
     1
102
RTVSPost2010Prop45
280
     0
102
RTVSPost2010PropOp45
 70
     1
102
RTVSPost2010Prop46
 90
       50
102
RTVSPost2010PropOp46
 70
     1
102
RTVSPost2010Prop47
 90
       50
102
RTVSPost2010PropOp47
 70
     1
102
RTVSPost2010Prop48
 90
       50
102
RTVSPost2010PropOp48
 70
     1
102
RTVSPost2010Prop49
280
     0
102
RTVSPost2010PropOp49
 70
     1
102
RTVSPost2010Prop50
 90
       50
102
RTVSPost2010PropOp50
 70
     1
102
RTVSPost2010Prop51ColorIndex
 90
      256
102
RTVSPost2010Prop51ColorRGB
 90
-16777216
102
RTVSPost2010PropOp51
 70
     0
102
RTVSPost2010Prop52
140
1.0
102
RTVSPost2010PropOp52
 70
     0
102
RTVSPost2010Prop53
 90
        2
102
RTVSPost2010PropOp53
 70
     1
102
RTVSPost2010Prop54
  1
strokes_ogs.tif
102
RTVSPost2010PropOp54
 70
     1
102
RTVSPost2010Prop55
280
     0
102
RTVSPost2010PropOp55
 70
     1
102
RTVSPost2010Prop56
140
1.0
102
RTVSPost2010PropOp56
 70
     1
102
RTVSPost2010Prop57
140
1.0
102
RTVSPost2010PropOp57
 70
     1
102
RTVSPropertyOp0
 70
     1
102
RTVSPropertyOp1
 70
     1
102
RTVSPropertyOp2
 70
     1
102
RTVSPropertyOp3
 70
     1
102
RTVSPropertyOp4
 70
     1
102
RTVSPropertyOp5
 70
     1
102
RTVSPropertyOp6
 70
     1
102
RTVSPropertyOp7
 70
     1
102
RTVSPropertyOp8
 70
     1
102
RTVSPropertyOp9
 70
     1
102
RTVSPropertyOp10
 70
     1
102
RTVSPropertyOp11
 70
     1
102
RTVSPropertyOp12
 70
     1
102
RTVSPropertyOp13
 70
     1
102
RTVSPropertyOp14
 70
     1
102
RTVSPropertyOp15
 70
     1
102
RTVSPropertyOp16
 70
     1
102
RTVSPropertyOp17
 70
     1
102
RTVSPropertyOp18
 70
     1
102
RTVSPropertyOp19
 70
     1
102
RTVSPropertyOp20
 70
     1
102
RTVSPropertyOp21
 70
     1
102
RTVSPropertyOp22
 70
     1
102
RTVSPropertyOp23
 70
     1
102
RTVSPropertyOp24
 70
     1
102
RTVSPropertyOp25
 70
     1
102
RTVSPropertyOp26
 70
     1
102
RTVSPropertyOp27
 70
     1
102
RTVSPropertyOp28
 70
     1
102
RTVSPropertyOp29
 70
     1
102
RTVSPropertyOp30
 70
     1
102
RTVSPropertyOp31
 70
     1
102
RTVSPropertyOp32
 70
     1
102
RTVSPropertyOp33
 70
     1
102
RTVSPropertyOp34
 70
     1
102
RTVSPropertyOp35
 70
     1
102
RTVSPropertyOp36
 70
     1
102
RTVSPropertyOp37
 70
     1
102
RTVSPropertyOp38
 70
     1
102
RTVSPropertyOp39
 70
     1
102
RTVSPropertyOp40
 70
     1
102
RTVSPropertyOp41
 70
     1
102
RTVSPropertyOp42
 70
     1
102
RTVSPropertyOp43
 70
     1
102
RTVSPropertyOp44
 70
     1
102
RTVSPropertyOp45
 70
     1
102
RTVSPropertyOp46
 70
     1
102
RTVSPropertyOp47
 70
     1
102
RTVSPropertyOp48
 70
     1
102
RTVSPropertyOp49
 70
     1
102
RTVSPropertyOp50
 70
     1
102
RTVSPropertyOp51
 70
     0
102
RTVSPropertyOp52
 70
     0
102
RTVSPropertyOp53
 70
     1
102
RTVSPropertyOp54
 70
     1
102
RTVSPropertyOp55
 70
     1
102
RTVSPropertyOp56
 70
     1
102
RTVSPropertyOp57
 70
     1
102
RTVSPropertyOp58
 70
     1
102
RTVSPropertyOp59
 70
     1
102
RTVSPropertyOp60
 70
     1
102
RTVSPropertyOp61
 70
     1
102
RTVSPropertyOp62
 70
     1
  0
XRECORD
  5
9F9
102
{ACAD_REACTORS
330
9F8
102
}
330
9F8
100
AcDbXrecord
280
     1
102
RTVSPost2010Prop28
280
     0
102
RTVSPost2010PropOp28
 70
     1
102
RTVSPost2010Prop29
280
     1
102
RTVSPost2010PropOp29
 70
     1
102
RTVSPost2010Prop30
280
     1
102
RTVSPost2010PropOp30
 70
     1
102
RTVSPost2010Prop31
280
     0
102
RTVSPost2010PropOp31
 70
     1
102
RTVSPost2010Prop32
280
     0
102
RTVSPost2010PropOp32
 70
     1
102
RTVSPost2010Prop33
280
     0
102
RTVSPost2010PropOp33
 70
     1
102
RTVSPost2010Prop34
280
     0
102
RTVSPost2010PropOp34
 70
     1
102
RTVSPost2010Prop35
280
     0
102
RTVSPost2010PropOp35
 70
     1
102
RTVSPost2010Prop36
280
     0
102
RTVSPost2010PropOp36
 70
     1
102
RTVSPost2010Prop37
 90
       50
102
RTVSPost2010PropOp37
 70
     1
102
RTVSPost2010Prop38
140
0.0
102
RTVSPost2010PropOp38
 70
     1
102
RTVSPost2010Prop39
140
1.0
102
RTVSPost2010PropOp39
 70
     1
102
RTVSPost2010Prop40
 90
        0
102
RTVSPost2010PropOp40
 70
     1
102
RTVSPost2010Prop41ColorIndex
 90
       18
102
RTVSPost2010Prop41ColorRGB
 90
        0
102
RTVSPost2010PropOp41
 70
     1
102
RTVSPost2010Prop42
 90
       50
102
RTVSPost2010PropOp42
 70
     1
102
RTVSPost2010Prop43
 90
        3
102
RTVSPost2010PropOp43
 70
     1
102
RTVSPost2010Prop44ColorIndex
 90
        5
102
RTVSPost2010Prop44ColorRGB
 90
      255
102
RTVSPost2010PropOp44
 70
     1
102
RTVSPost2010Prop45
280
     0
102
RTVSPost2010PropOp45
 70
     1
102
RTVSPost2010Prop46
 90
       50
102
RTVSPost2010PropOp46
 70
     1
102
RTVSPost2010Prop47
 90
       50
102
RTVSPost2010PropOp47
 70
     1
102
RTVSPost2010Prop48
 90
       50
102
RTVSPost2010PropOp48
 70
     1
102
RTVSPost2010Prop49
280
     0
102
RTVSPost2010PropOp49
 70
     1
102
RTVSPost2010Prop50
 90
       50
102
RTVSPost2010PropOp50
 70
     1
102
RTVSPost2010Prop51ColorIndex
 90
      256
102
RTVSPost2010Prop51ColorRGB
 90
-16777216
102
RTVSPost2010PropOp51
 70
     0
102
RTVSPost2010Prop52
140
1.0
102
RTVSPost2010PropOp52
 70
     0
102
RTVSPost2010Prop53
 90
        2
102
RTVSPost2010PropOp53
 70
     1
102
RTVSPost2010Prop54
  1
strokes_ogs.tif
102
RTVSPost2010PropOp54
 70
     1
102
RTVSPost2010Prop55
280
     0
102
RTVSPost2010PropOp55
 70
     1
102
RTVSPost2010Prop56
140
1.0
102
RTVSPost2010PropOp56
 70
     1
102
RTVSPost2010Prop57
140
1.0
102
RTVSPost2010PropOp57
 70
     1
102
RTVSPropertyOp0
 70
     1
102
RTVSPropertyOp1
 70
     1
102
RTVSPropertyOp2
 70
     1
102
RTVSPropertyOp3
 70
     1
102
RTVSPropertyOp4
 70
     1
102
RTVSPropertyOp5
 70
     1
102
RTVSPropertyOp6
 70
     1
102
RTVSPropertyOp7
 70
     1
102
RTVSPropertyOp8
 70
     1
102
RTVSPropertyOp9
 70
     1
102
RTVSPropertyOp10
 70
     1
102
RTVSPropertyOp11
 70
     1
102
RTVSPropertyOp12
 70
     1
102
RTVSPropertyOp13
 70
     1
102
RTVSPropertyOp14
 70
     1
102
RTVSPropertyOp15
 70
     1
102
RTVSPropertyOp16
 70
     1
102
RTVSPropertyOp17
 70
     1
102
RTVSPropertyOp18
 70
     1
102
RTVSPropertyOp19
 70
     1
102
RTVSPropertyOp20
 70
     1
102
RTVSPropertyOp21
 70
     1
102
RTVSPropertyOp22
 70
     1
102
RTVSPropertyOp23
 70
     1
102
RTVSPropertyOp24
 70
     1
102
RTVSPropertyOp25
 70
     1
102
RTVSPropertyOp26
 70
     1
102
RTVSPropertyOp27
 70
     1
102
RTVSPropertyOp28
 70
     1
102
RTVSPropertyOp29
 70
     1
102
RTVSPropertyOp30
 70
     1
102
RTVSPropertyOp31
 70
     1
102
RTVSPropertyOp32
 70
     1
102
RTVSPropertyOp33
 70
     1
102
RTVSPropertyOp34
 70
     1
102
RTVSPropertyOp35
 70
     1
102
RTVSPropertyOp36
 70
     1
102
RTVSPropertyOp37
 70
     1
102
RTVSPropertyOp38
 70
     1
102
RTVSPropertyOp39
 70
     1
102
RTVSPropertyOp40
 70
     1
102
RTVSPropertyOp41
 70
     1
102
RTVSPropertyOp42
 70
     1
102
RTVSPropertyOp43
 70
     1
102
RTVSPropertyOp44
 70
     1
102
RTVSPropertyOp45
 70
     1
102
RTVSPropertyOp46
 70
     1
102
RTVSPropertyOp47
 70
     1
102
RTVSPropertyOp48
 70
     1
102
RTVSPropertyOp49
 70
     1
102
RTVSPropertyOp50
 70
     1
102
RTVSPropertyOp51
 70
     0
102
RTVSPropertyOp52
 70
     0
102
RTVSPropertyOp53
 70
     1
102
RTVSPropertyOp54
 70
     1
102
RTVSPropertyOp55
 70
     1
102
RTVSPropertyOp56
 70
     1
102
RTVSPropertyOp57
 70
     1
102
RTVSPropertyOp58
 70
     1
102
RTVSPropertyOp59
 70
     1
102
RTVSPropertyOp60
 70
     1
102
RTVSPropertyOp61
 70
     1
102
RTVSPropertyOp62
 70
     1
  0
XRECORD
  5
A15
102
{ACAD_REACTORS
330
A14
102
}
330
A14
100
AcDbXrecord
280
     1
102
RTVSPost2010Prop28
280
     0
102
RTVSPost2010PropOp28
 70
     1
102
RTVSPost2010Prop29
280
     1
102
RTVSPost2010PropOp29
 70
     1
102
RTVSPost2010Prop30
280
     1
102
RTVSPost2010PropOp30
 70
     1
102
RTVSPost2010Prop31
280
     0
102
RTVSPost2010PropOp31
 70
     1
102
RTVSPost2010Prop32
280
     0
102
RTVSPost2010PropOp32
 70
     1
102
RTVSPost2010Prop33
280
     0
102
RTVSPost2010PropOp33
 70
     1
102
RTVSPost2010Prop34
280
     0
102
RTVSPost2010PropOp34
 70
     1
102
RTVSPost2010Prop35
280
     0
102
RTVSPost2010PropOp35
 70
     1
102
RTVSPost2010Prop36
280
     0
102
RTVSPost2010PropOp36
 70
     1
102
RTVSPost2010Prop37
 90
       50
102
RTVSPost2010PropOp37
 70
     0
102
RTVSPost2010Prop38
140
0.0
102
RTVSPost2010PropOp38
 70
     0
102
RTVSPost2010Prop39
140
1.0
102
RTVSPost2010PropOp39
 70
     0
102
RTVSPost2010Prop40
 90
        0
102
RTVSPost2010PropOp40
 70
     0
102
RTVSPost2010Prop41ColorIndex
 90
       18
102
RTVSPost2010Prop41ColorRGB
 90
        0
102
RTVSPost2010PropOp41
 70
     0
102
RTVSPost2010Prop42
 90
       50
102
RTVSPost2010PropOp42
 70
     0
102
RTVSPost2010Prop43
 90
        3
102
RTVSPost2010PropOp43
 70
     0
102
RTVSPost2010Prop44ColorIndex
 90
        5
102
RTVSPost2010Prop44ColorRGB
 90
      255
102
RTVSPost2010PropOp44
 70
     0
102
RTVSPost2010Prop45
280
     0
102
RTVSPost2010PropOp45
 70
     1
102
RTVSPost2010Prop46
 90
       50
102
RTVSPost2010PropOp46
 70
     0
102
RTVSPost2010Prop47
 90
       50
102
RTVSPost2010PropOp47
 70
     0
102
RTVSPost2010Prop48
 90
       50
102
RTVSPost2010PropOp48
 70
     0
102
RTVSPost2010Prop49
280
     0
102
RTVSPost2010PropOp49
 70
     1
102
RTVSPost2010Prop50
 90
       50
102
RTVSPost2010PropOp50
 70
     0
102
RTVSPost2010Prop51ColorIndex
 90
      256
102
RTVSPost2010Prop51ColorRGB
 90
-16777216
102
RTVSPost2010PropOp51
 70
     0
102
RTVSPost2010Prop52
140
1.0
102
RTVSPost2010PropOp52
 70
     0
102
RTVSPost2010Prop53
 90
        2
102
RTVSPost2010PropOp53
 70
     0
102
RTVSPost2010Prop54
  1
strokes_ogs.tif
102
RTVSPost2010PropOp54
 70
     0
102
RTVSPost2010Prop55
280
     0
102
RTVSPost2010PropOp55
 70
     1
102
RTVSPost2010Prop56
140
1.0
102
RTVSPost2010PropOp56
 70
     0
102
RTVSPost2010Prop57
140
1.0
102
RTVSPost2010PropOp57
 70
     0
102
RTVSPropertyOp0
 70
     0
102
RTVSPropertyOp1
 70
     0
102
RTVSPropertyOp2
 70
     0
102
RTVSPropertyOp3
 70
     0
102
RTVSPropertyOp4
 70
     0
102
RTVSPropertyOp5
 70
     0
102
RTVSPropertyOp6
 70
     0
102
RTVSPropertyOp7
 70
     0
102
RTVSPropertyOp8
 70
     0
102
RTVSPropertyOp9
 70
     0
102
RTVSPropertyOp10
 70
     0
102
RTVSPropertyOp11
 70
     0
102
RTVSPropertyOp12
 70
     0
102
RTVSPropertyOp13
 70
     0
102
RTVSPropertyOp14
 70
     2
102
RTVSPropertyOp15
 70
     0
102
RTVSPropertyOp16
 70
     0
102
RTVSPropertyOp17
 70
     0
102
RTVSPropertyOp18
 70
     0
102
RTVSPropertyOp19
 70
     0
102
RTVSPropertyOp20
 70
     0
102
RTVSPropertyOp21
 70
     0
102
RTVSPropertyOp22
 70
     0
102
RTVSPropertyOp23
 70
     0
102
RTVSPropertyOp24
 70
     0
102
RTVSPropertyOp25
 70
     0
102
RTVSPropertyOp26
 70
     0
102
RTVSPropertyOp27
 70
     0
102
RTVSPropertyOp28
 70
     1
102
RTVSPropertyOp29
 70
     1
102
RTVSPropertyOp30
 70
     1
102
RTVSPropertyOp31
 70
     1
102
RTVSPropertyOp32
 70
     1
102
RTVSPropertyOp33
 70
     1
102
RTVSPropertyOp34
 70
     1
102
RTVSPropertyOp35
 70
     1
102
RTVSPropertyOp36
 70
     1
102
RTVSPropertyOp37
 70
     0
102
RTVSPropertyOp38
 70
     0
102
RTVSPropertyOp39
 70
     0
102
RTVSPropertyOp40
 70
     0
102
RTVSPropertyOp41
 70
     0
102
RTVSPropertyOp42
 70
     0
102
RTVSPropertyOp43
 70
     0
102
RTVSPropertyOp44
 70
     0
102
RTVSPropertyOp45
 70
     1
102
RTVSPropertyOp46
 70
     0
102
RTVSPropertyOp47
 70
     0
102
RTVSPropertyOp48
 70
     0
102
RTVSPropertyOp49
 70
     1
102
RTVSPropertyOp50
 70
     0
102
RTVSPropertyOp51
 70
     0
102
RTVSPropertyOp52
 70
     0
102
RTVSPropertyOp53
 70
     0
102
RTVSPropertyOp54
 70
     0
102
RTVSPropertyOp55
 70
     1
102
RTVSPropertyOp56
 70
     0
102
RTVSPropertyOp57
 70
     0
102
RTVSPropertyOp58
 70
     0
102
RTVSPropertyOp59
 70
     0
102
RTVSPropertyOp60
 70
     0
102
RTVSPropertyOp61
 70
     0
102
RTVSPropertyOp62
 70
     0
  0
XRECORD
  5
A05
102
{ACAD_REACTORS
330
A04
102
}
330
A04
100
AcDbXrecord
280
     1
102
RTVSPost2010Prop28
280
     0
102
RTVSPost2010PropOp28
 70
     1
102
RTVSPost2010Prop29
280
     1
102
RTVSPost2010PropOp29
 70
     1
102
RTVSPost2010Prop30
280
     1
102
RTVSPost2010PropOp30
 70
     1
102
RTVSPost2010Prop31
280
     0
102
RTVSPost2010PropOp31
 70
     1
102
RTVSPost2010Prop32
280
     0
102
RTVSPost2010PropOp32
 70
     1
102
RTVSPost2010Prop33
280
     0
102
RTVSPost2010PropOp33
 70
     1
102
RTVSPost2010Prop34
280
     0
102
RTVSPost2010PropOp34
 70
     1
102
RTVSPost2010Prop35
280
     0
102
RTVSPost2010PropOp35
 70
     1
102
RTVSPost2010Prop36
280
     0
102
RTVSPost2010PropOp36
 70
     1
102
RTVSPost2010Prop37
 90
       50
102
RTVSPost2010PropOp37
 70
     1
102
RTVSPost2010Prop38
140
0.0
102
RTVSPost2010PropOp38
 70
     1
102
RTVSPost2010Prop39
140
1.0
102
RTVSPost2010PropOp39
 70
     1
102
RTVSPost2010Prop40
 90
        0
102
RTVSPost2010PropOp40
 70
     1
102
RTVSPost2010Prop41ColorIndex
 90
       18
102
RTVSPost2010Prop41ColorRGB
 90
        0
102
RTVSPost2010PropOp41
 70
     1
102
RTVSPost2010Prop42
 90
       50
102
RTVSPost2010PropOp42
 70
     1
102
RTVSPost2010Prop43
 90
        3
102
RTVSPost2010PropOp43
 70
     1
102
RTVSPost2010Prop44ColorIndex
 90
        5
102
RTVSPost2010Prop44ColorRGB
 90
      255
102
RTVSPost2010PropOp44
 70
     1
102
RTVSPost2010Prop45
280
     0
102
RTVSPost2010PropOp45
 70
     1
102
RTVSPost2010Prop46
 90
       50
102
RTVSPost2010PropOp46
 70
     1
102
RTVSPost2010Prop47
 90
       50
102
RTVSPost2010PropOp47
 70
     1
102
RTVSPost2010Prop48
 90
       50
102
RTVSPost2010PropOp48
 70
     1
102
RTVSPost2010Prop49
280
     0
102
RTVSPost2010PropOp49
 70
     1
102
RTVSPost2010Prop50
 90
       50
102
RTVSPost2010PropOp50
 70
     1
102
RTVSPost2010Prop51ColorIndex
 90
      256
102
RTVSPost2010Prop51ColorRGB
 90
-16777216
102
RTVSPost2010PropOp51
 70
     0
102
RTVSPost2010Prop52
140
1.0
102
RTVSPost2010PropOp52
 70
     0
102
RTVSPost2010Prop53
 90
        2
102
RTVSPost2010PropOp53
 70
     1
102
RTVSPost2010Prop54
  1
strokes_ogs.tif
102
RTVSPost2010PropOp54
 70
     1
102
RTVSPost2010Prop55
280
     0
102
RTVSPost2010PropOp55
 70
     1
102
RTVSPost2010Prop56
140
1.0
102
RTVSPost2010PropOp56
 70
     1
102
RTVSPost2010Prop57
140
1.0
102
RTVSPost2010PropOp57
 70
     1
102
RTVSPropertyOp0
 70
     1
102
RTVSPropertyOp1
 70
     1
102
RTVSPropertyOp2
 70
     1
102
RTVSPropertyOp3
 70
     1
102
RTVSPropertyOp4
 70
     1
102
RTVSPropertyOp5
 70
     1
102
RTVSPropertyOp6
 70
     1
102
RTVSPropertyOp7
 70
     1
102
RTVSPropertyOp8
 70
     1
102
RTVSPropertyOp9
 70
     1
102
RTVSPropertyOp10
 70
     1
102
RTVSPropertyOp11
 70
     1
102
RTVSPropertyOp12
 70
     1
102
RTVSPropertyOp13
 70
     1
102
RTVSPropertyOp14
 70
     1
102
RTVSPropertyOp15
 70
     1
102
RTVSPropertyOp16
 70
     1
102
RTVSPropertyOp17
 70
     1
102
RTVSPropertyOp18
 70
     1
102
RTVSPropertyOp19
 70
     1
102
RTVSPropertyOp20
 70
     1
102
RTVSPropertyOp21
 70
     1
102
RTVSPropertyOp22
 70
     1
102
RTVSPropertyOp23
 70
     1
102
RTVSPropertyOp24
 70
     1
102
RTVSPropertyOp25
 70
     1
102
RTVSPropertyOp26
 70
     1
102
RTVSPropertyOp27
 70
     1
102
RTVSPropertyOp28
 70
     1
102
RTVSPropertyOp29
 70
     1
102
RTVSPropertyOp30
 70
     1
102
RTVSPropertyOp31
 70
     1
102
RTVSPropertyOp32
 70
     1
102
RTVSPropertyOp33
 70
     1
102
RTVSPropertyOp34
 70
     1
102
RTVSPropertyOp35
 70
     1
102
RTVSPropertyOp36
 70
     1
102
RTVSPropertyOp37
 70
     1
102
RTVSPropertyOp38
 70
     1
102
RTVSPropertyOp39
 70
     1
102
RTVSPropertyOp40
 70
     1
102
RTVSPropertyOp41
 70
     1
102
RTVSPropertyOp42
 70
     1
102
RTVSPropertyOp43
 70
     1
102
RTVSPropertyOp44
 70
     1
102
RTVSPropertyOp45
 70
     1
102
RTVSPropertyOp46
 70
     1
102
RTVSPropertyOp47
 70
     1
102
RTVSPropertyOp48
 70
     1
102
RTVSPropertyOp49
 70
     1
102
RTVSPropertyOp50
 70
     1
102
RTVSPropertyOp51
 70
     0
102
RTVSPropertyOp52
 70
     0
102
RTVSPropertyOp53
 70
     1
102
RTVSPropertyOp54
 70
     1
102
RTVSPropertyOp55
 70
     1
102
RTVSPropertyOp56
 70
     1
102
RTVSPropertyOp57
 70
     1
102
RTVSPropertyOp58
 70
     1
102
RTVSPropertyOp59
 70
     1
102
RTVSPropertyOp60
 70
     1
102
RTVSPropertyOp61
 70
     1
102
RTVSPropertyOp62
 70
     1
  0
XRECORD
  5
A17
102
{ACAD_REACTORS
330
A16
102
}
330
A16
100
AcDbXrecord
280
     1
102
RTVSPost2010Prop28
280
     0
102
RTVSPost2010PropOp28
 70
     1
102
RTVSPost2010Prop29
280
     1
102
RTVSPost2010PropOp29
 70
     1
102
RTVSPost2010Prop30
280
     1
102
RTVSPost2010PropOp30
 70
     1
102
RTVSPost2010Prop31
280
     0
102
RTVSPost2010PropOp31
 70
     1
102
RTVSPost2010Prop32
280
     0
102
RTVSPost2010PropOp32
 70
     1
102
RTVSPost2010Prop33
280
     0
102
RTVSPost2010PropOp33
 70
     1
102
RTVSPost2010Prop34
280
     0
102
RTVSPost2010PropOp34
 70
     1
102
RTVSPost2010Prop35
280
     0
102
RTVSPost2010PropOp35
 70
     1
102
RTVSPost2010Prop36
280
     0
102
RTVSPost2010PropOp36
 70
     1
102
RTVSPost2010Prop37
 90
       50
102
RTVSPost2010PropOp37
 70
     0
102
RTVSPost2010Prop38
140
0.0
102
RTVSPost2010PropOp38
 70
     0
102
RTVSPost2010Prop39
140
1.0
102
RTVSPost2010PropOp39
 70
     0
102
RTVSPost2010Prop40
 90
        0
102
RTVSPost2010PropOp40
 70
     0
102
RTVSPost2010Prop41ColorIndex
 90
       18
102
RTVSPost2010Prop41ColorRGB
 90
        0
102
RTVSPost2010PropOp41
 70
     0
102
RTVSPost2010Prop42
 90
       50
102
RTVSPost2010PropOp42
 70
     0
102
RTVSPost2010Prop43
 90
        3
102
RTVSPost2010PropOp43
 70
     0
102
RTVSPost2010Prop44ColorIndex
 90
        5
102
RTVSPost2010Prop44ColorRGB
 90
      255
102
RTVSPost2010PropOp44
 70
     0
102
RTVSPost2010Prop45
280
     0
102
RTVSPost2010PropOp45
 70
     1
102
RTVSPost2010Prop46
 90
       50
102
RTVSPost2010PropOp46
 70
     0
102
RTVSPost2010Prop47
 90
       50
102
RTVSPost2010PropOp47
 70
     0
102
RTVSPost2010Prop48
 90
       50
102
RTVSPost2010PropOp48
 70
     0
102
RTVSPost2010Prop49
280
     0
102
RTVSPost2010PropOp49
 70
     1
102
RTVSPost2010Prop50
 90
       50
102
RTVSPost2010PropOp50
 70
     0
102
RTVSPost2010Prop51ColorIndex
 90
      256
102
RTVSPost2010Prop51ColorRGB
 90
-16777216
102
RTVSPost2010PropOp51
 70
     0
102
RTVSPost2010Prop52
140
1.0
102
RTVSPost2010PropOp52
 70
     0
102
RTVSPost2010Prop53
 90
        2
102
RTVSPost2010PropOp53
 70
     0
102
RTVSPost2010Prop54
  1
strokes_ogs.tif
102
RTVSPost2010PropOp54
 70
     0
102
RTVSPost2010Prop55
280
     0
102
RTVSPost2010PropOp55
 70
     1
102
RTVSPost2010Prop56
140
1.0
102
RTVSPost2010PropOp56
 70
     0
102
RTVSPost2010Prop57
140
1.0
102
RTVSPost2010PropOp57
 70
     0
102
RTVSPropertyOp0
 70
     0
102
RTVSPropertyOp1
 70
     0
102
RTVSPropertyOp2
 70
     0
102
RTVSPropertyOp3
 70
     0
102
RTVSPropertyOp4
 70
     0
102
RTVSPropertyOp5
 70
     0
102
RTVSPropertyOp6
 70
     0
102
RTVSPropertyOp7
 70
     0
102
RTVSPropertyOp8
 70
     0
102
RTVSPropertyOp9
 70
     0
102
RTVSPropertyOp10
 70
     0
102
RTVSPropertyOp11
 70
     0
102
RTVSPropertyOp12
 70
     0
102
RTVSPropertyOp13
 70
     0
102
RTVSPropertyOp14
 70
     2
102
RTVSPropertyOp15
 70
     0
102
RTVSPropertyOp16
 70
     0
102
RTVSPropertyOp17
 70
     0
102
RTVSPropertyOp18
 70
     0
102
RTVSPropertyOp19
 70
     0
102
RTVSPropertyOp20
 70
     0
102
RTVSPropertyOp21
 70
     0
102
RTVSPropertyOp22
 70
     0
102
RTVSPropertyOp23
 70
     0
102
RTVSPropertyOp24
 70
     0
102
RTVSPropertyOp25
 70
     0
102
RTVSPropertyOp26
 70
     0
102
RTVSPropertyOp27
 70
     0
102
RTVSPropertyOp28
 70
     1
102
RTVSPropertyOp29
 70
     1
102
RTVSPropertyOp30
 70
     1
102
RTVSPropertyOp31
 70
     1
102
RTVSPropertyOp32
 70
     1
102
RTVSPropertyOp33
 70
     1
102
RTVSPropertyOp34
 70
     1
102
RTVSPropertyOp35
 70
     1
102
RTVSPropertyOp36
 70
     1
102
RTVSPropertyOp37
 70
     0
102
RTVSPropertyOp38
 70
     0
102
RTVSPropertyOp39
 70
     0
102
RTVSPropertyOp40
 70
     0
102
RTVSPropertyOp41
 70
     0
102
RTVSPropertyOp42
 70
     0
102
RTVSPropertyOp43
 70
     0
102
RTVSPropertyOp44
 70
     0
102
RTVSPropertyOp45
 70
     1
102
RTVSPropertyOp46
 70
     0
102
RTVSPropertyOp47
 70
     0
102
RTVSPropertyOp48
 70
     0
102
RTVSPropertyOp49
 70
     1
102
RTVSPropertyOp50
 70
     0
102
RTVSPropertyOp51
 70
     0
102
RTVSPropertyOp52
 70
     0
102
RTVSPropertyOp53
 70
     0
102
RTVSPropertyOp54
 70
     0
102
RTVSPropertyOp55
 70
     1
102
RTVSPropertyOp56
 70
     0
102
RTVSPropertyOp57
 70
     0
102
RTVSPropertyOp58
 70
     0
102
RTVSPropertyOp59
 70
     0
102
RTVSPropertyOp60
 70
     0
102
RTVSPropertyOp61
 70
     0
102
RTVSPropertyOp62
 70
     0
  0
XRECORD
  5
9FD
102
{ACAD_REACTORS
330
9FC
102
}
330
9FC
100
AcDbXrecord
280
     1
102
RTVSPost2010Prop28
280
     0
102
RTVSPost2010PropOp28
 70
     1
102
RTVSPost2010Prop29
280
     1
102
RTVSPost2010PropOp29
 70
     1
102
RTVSPost2010Prop30
280
     1
102
RTVSPost2010PropOp30
 70
     1
102
RTVSPost2010Prop31
280
     0
102
RTVSPost2010PropOp31
 70
     1
102
RTVSPost2010Prop32
280
     0
102
RTVSPost2010PropOp32
 70
     1
102
RTVSPost2010Prop33
280
     0
102
RTVSPost2010PropOp33
 70
     1
102
RTVSPost2010Prop34
280
     0
102
RTVSPost2010PropOp34
 70
     1
102
RTVSPost2010Prop35
280
     0
102
RTVSPost2010PropOp35
 70
     1
102
RTVSPost2010Prop36
280
     0
102
RTVSPost2010PropOp36
 70
     1
102
RTVSPost2010Prop37
 90
       50
102
RTVSPost2010PropOp37
 70
     1
102
RTVSPost2010Prop38
140
0.0
102
RTVSPost2010PropOp38
 70
     1
102
RTVSPost2010Prop39
140
1.0
102
RTVSPost2010PropOp39
 70
     1
102
RTVSPost2010Prop40
 90
        0
102
RTVSPost2010PropOp40
 70
     1
102
RTVSPost2010Prop41ColorIndex
 90
       18
102
RTVSPost2010Prop41ColorRGB
 90
        0
102
RTVSPost2010PropOp41
 70
     1
102
RTVSPost2010Prop42
 90
       50
102
RTVSPost2010PropOp42
 70
     1
102
RTVSPost2010Prop43
 90
        3
102
RTVSPost2010PropOp43
 70
     1
102
RTVSPost2010Prop44ColorIndex
 90
        5
102
RTVSPost2010Prop44ColorRGB
 90
      255
102
RTVSPost2010PropOp44
 70
     1
102
RTVSPost2010Prop45
280
     0
102
RTVSPost2010PropOp45
 70
     1
102
RTVSPost2010Prop46
 90
       50
102
RTVSPost2010PropOp46
 70
     1
102
RTVSPost2010Prop47
 90
       50
102
RTVSPost2010PropOp47
 70
     1
102
RTVSPost2010Prop48
 90
       50
102
RTVSPost2010PropOp48
 70
     1
102
RTVSPost2010Prop49
280
     0
102
RTVSPost2010PropOp49
 70
     1
102
RTVSPost2010Prop50
 90
       50
102
RTVSPost2010PropOp50
 70
     1
102
RTVSPost2010Prop51ColorIndex
 90
      256
102
RTVSPost2010Prop51ColorRGB
 90
-16777216
102
RTVSPost2010PropOp51
 70
     0
102
RTVSPost2010Prop52
140
1.0
102
RTVSPost2010PropOp52
 70
     0
102
RTVSPost2010Prop53
 90
        2
102
RTVSPost2010PropOp53
 70
     1
102
RTVSPost2010Prop54
  1
strokes_ogs.tif
102
RTVSPost2010PropOp54
 70
     1
102
RTVSPost2010Prop55
280
     0
102
RTVSPost2010PropOp55
 70
     1
102
RTVSPost2010Prop56
140
1.0
102
RTVSPost2010PropOp56
 70
     1
102
RTVSPost2010Prop57
140
1.0
102
RTVSPost2010PropOp57
 70
     1
102
RTVSPropertyOp0
 70
     1
102
RTVSPropertyOp1
 70
     1
102
RTVSPropertyOp2
 70
     1
102
RTVSPropertyOp3
 70
     1
102
RTVSPropertyOp4
 70
     1
102
RTVSPropertyOp5
 70
     1
102
RTVSPropertyOp6
 70
     1
102
RTVSPropertyOp7
 70
     1
102
RTVSPropertyOp8
 70
     1
102
RTVSPropertyOp9
 70
     1
102
RTVSPropertyOp10
 70
     1
102
RTVSPropertyOp11
 70
     1
102
RTVSPropertyOp12
 70
     1
102
RTVSPropertyOp13
 70
     1
102
RTVSPropertyOp14
 70
     1
102
RTVSPropertyOp15
 70
     1
102
RTVSPropertyOp16
 70
     1
102
RTVSPropertyOp17
 70
     1
102
RTVSPropertyOp18
 70
     1
102
RTVSPropertyOp19
 70
     1
102
RTVSPropertyOp20
 70
     1
102
RTVSPropertyOp21
 70
     1
102
RTVSPropertyOp22
 70
     1
102
RTVSPropertyOp23
 70
     1
102
RTVSPropertyOp24
 70
     1
102
RTVSPropertyOp25
 70
     1
102
RTVSPropertyOp26
 70
     1
102
RTVSPropertyOp27
 70
     1
102
RTVSPropertyOp28
 70
     1
102
RTVSPropertyOp29
 70
     1
102
RTVSPropertyOp30
 70
     1
102
RTVSPropertyOp31
 70
     1
102
RTVSPropertyOp32
 70
     1
102
RTVSPropertyOp33
 70
     1
102
RTVSPropertyOp34
 70
     1
102
RTVSPropertyOp35
 70
     1
102
RTVSPropertyOp36
 70
     1
102
RTVSPropertyOp37
 70
     1
102
RTVSPropertyOp38
 70
     1
102
RTVSPropertyOp39
 70
     1
102
RTVSPropertyOp40
 70
     1
102
RTVSPropertyOp41
 70
     1
102
RTVSPropertyOp42
 70
     1
102
RTVSPropertyOp43
 70
     1
102
RTVSPropertyOp44
 70
     1
102
RTVSPropertyOp45
 70
     1
102
RTVSPropertyOp46
 70
     1
102
RTVSPropertyOp47
 70
     1
102
RTVSPropertyOp48
 70
     1
102
RTVSPropertyOp49
 70
     1
102
RTVSPropertyOp50
 70
     1
102
RTVSPropertyOp51
 70
     0
102
RTVSPropertyOp52
 70
     0
102
RTVSPropertyOp53
 70
     1
102
RTVSPropertyOp54
 70
     1
102
RTVSPropertyOp55
 70
     1
102
RTVSPropertyOp56
 70
     1
102
RTVSPropertyOp57
 70
     1
102
RTVSPropertyOp58
 70
     1
102
RTVSPropertyOp59
 70
     1
102
RTVSPropertyOp60
 70
     1
102
RTVSPropertyOp61
 70
     1
102
RTVSPropertyOp62
 70
     1
  0
XRECORD
  5
A13
102
{ACAD_REACTORS
330
A12
102
}
330
A12
100
AcDbXrecord
280
     1
102
RTVSPost2010Prop28
280
     0
102
RTVSPost2010PropOp28
 70
     1
102
RTVSPost2010Prop29
280
     1
102
RTVSPost2010PropOp29
 70
     1
102
RTVSPost2010Prop30
280
     1
102
RTVSPost2010PropOp30
 70
     1
102
RTVSPost2010Prop31
280
     0
102
RTVSPost2010PropOp31
 70
     1
102
RTVSPost2010Prop32
280
     0
102
RTVSPost2010PropOp32
 70
     1
102
RTVSPost2010Prop33
280
     0
102
RTVSPost2010PropOp33
 70
     1
102
RTVSPost2010Prop34
280
     0
102
RTVSPost2010PropOp34
 70
     1
102
RTVSPost2010Prop35
280
     0
102
RTVSPost2010PropOp35
 70
     1
102
RTVSPost2010Prop36
280
     0
102
RTVSPost2010PropOp36
 70
     1
102
RTVSPost2010Prop37
 90
       50
102
RTVSPost2010PropOp37
 70
     1
102
RTVSPost2010Prop38
140
0.0
102
RTVSPost2010PropOp38
 70
     1
102
RTVSPost2010Prop39
140
1.0
102
RTVSPost2010PropOp39
 70
     1
102
RTVSPost2010Prop40
 90
        0
102
RTVSPost2010PropOp40
 70
     1
102
RTVSPost2010Prop41ColorIndex
 90
       18
102
RTVSPost2010Prop41ColorRGB
 90
        0
102
RTVSPost2010PropOp41
 70
     1
102
RTVSPost2010Prop42
 90
       50
102
RTVSPost2010PropOp42
 70
     1
102
RTVSPost2010Prop43
 90
        3
102
RTVSPost2010PropOp43
 70
     1
102
RTVSPost2010Prop44ColorIndex
 90
        5
102
RTVSPost2010Prop44ColorRGB
 90
      255
102
RTVSPost2010PropOp44
 70
     1
102
RTVSPost2010Prop45
280
     0
102
RTVSPost2010PropOp45
 70
     1
102
RTVSPost2010Prop46
 90
       50
102
RTVSPost2010PropOp46
 70
     1
102
RTVSPost2010Prop47
 90
       50
102
RTVSPost2010PropOp47
 70
     1
102
RTVSPost2010Prop48
 90
       50
102
RTVSPost2010PropOp48
 70
     1
102
RTVSPost2010Prop49
280
     0
102
RTVSPost2010PropOp49
 70
     1
102
RTVSPost2010Prop50
 90
       50
102
RTVSPost2010PropOp50
 70
     1
102
RTVSPost2010Prop51ColorIndex
 90
      256
102
RTVSPost2010Prop51ColorRGB
 90
-16777216
102
RTVSPost2010PropOp51
 70
     0
102
RTVSPost2010Prop52
140
1.0
102
RTVSPost2010PropOp52
 70
     0
102
RTVSPost2010Prop53
 90
        2
102
RTVSPost2010PropOp53
 70
     1
102
RTVSPost2010Prop54
  1
strokes_ogs.tif
102
RTVSPost2010PropOp54
 70
     1
102
RTVSPost2010Prop55
280
     0
102
RTVSPost2010PropOp55
 70
     1
102
RTVSPost2010Prop56
140
1.0
102
RTVSPost2010PropOp56
 70
     1
102
RTVSPost2010Prop57
140
1.0
102
RTVSPost2010PropOp57
 70
     1
102
RTVSPropertyOp0
 70
     1
102
RTVSPropertyOp1
 70
     1
102
RTVSPropertyOp2
 70
     1
102
RTVSPropertyOp3
 70
     1
102
RTVSPropertyOp4
 70
     1
102
RTVSPropertyOp5
 70
     1
102
RTVSPropertyOp6
 70
     1
102
RTVSPropertyOp7
 70
     1
102
RTVSPropertyOp8
 70
     1
102
RTVSPropertyOp9
 70
     1
102
RTVSPropertyOp10
 70
     1
102
RTVSPropertyOp11
 70
     1
102
RTVSPropertyOp12
 70
     1
102
RTVSPropertyOp13
 70
     1
102
RTVSPropertyOp14
 70
     1
102
RTVSPropertyOp15
 70
     1
102
RTVSPropertyOp16
 70
     1
102
RTVSPropertyOp17
 70
     1
102
RTVSPropertyOp18
 70
     1
102
RTVSPropertyOp19
 70
     1
102
RTVSPropertyOp20
 70
     1
102
RTVSPropertyOp21
 70
     1
102
RTVSPropertyOp22
 70
     1
102
RTVSPropertyOp23
 70
     1
102
RTVSPropertyOp24
 70
     1
102
RTVSPropertyOp25
 70
     1
102
RTVSPropertyOp26
 70
     1
102
RTVSPropertyOp27
 70
     1
102
RTVSPropertyOp28
 70
     1
102
RTVSPropertyOp29
 70
     1
102
RTVSPropertyOp30
 70
     1
102
RTVSPropertyOp31
 70
     1
102
RTVSPropertyOp32
 70
     1
102
RTVSPropertyOp33
 70
     1
102
RTVSPropertyOp34
 70
     1
102
RTVSPropertyOp35
 70
     1
102
RTVSPropertyOp36
 70
     1
102
RTVSPropertyOp37
 70
     1
102
RTVSPropertyOp38
 70
     1
102
RTVSPropertyOp39
 70
     1
102
RTVSPropertyOp40
 70
     1
102
RTVSPropertyOp41
 70
     1
102
RTVSPropertyOp42
 70
     1
102
RTVSPropertyOp43
 70
     1
102
RTVSPropertyOp44
 70
     1
102
RTVSPropertyOp45
 70
     1
102
RTVSPropertyOp46
 70
     1
102
RTVSPropertyOp47
 70
     1
102
RTVSPropertyOp48
 70
     1
102
RTVSPropertyOp49
 70
     1
102
RTVSPropertyOp50
 70
     1
102
RTVSPropertyOp51
 70
     0
102
RTVSPropertyOp52
 70
     0
102
RTVSPropertyOp53
 70
     1
102
RTVSPropertyOp54
 70
     1
102
RTVSPropertyOp55
 70
     1
102
RTVSPropertyOp56
 70
     1
102
RTVSPropertyOp57
 70
     1
102
RTVSPropertyOp58
 70
     1
102
RTVSPropertyOp59
 70
     1
102
RTVSPropertyOp60
 70
     1
102
RTVSPropertyOp61
 70
     1
102
RTVSPropertyOp62
 70
     1
  0
XRECORD
  5
A11
102
{ACAD_REACTORS
330
A10
102
}
330
A10
100
AcDbXrecord
280
     1
102
RTVSPost2010Prop28
280
     0
102
RTVSPost2010PropOp28
 70
     1
102
RTVSPost2010Prop29
280
     1
102
RTVSPost2010PropOp29
 70
     1
102
RTVSPost2010Prop30
280
     1
102
RTVSPost2010PropOp30
 70
     1
102
RTVSPost2010Prop31
280
     0
102
RTVSPost2010PropOp31
 70
     1
102
RTVSPost2010Prop32
280
     0
102
RTVSPost2010PropOp32
 70
     1
102
RTVSPost2010Prop33
280
     0
102
RTVSPost2010PropOp33
 70
     1
102
RTVSPost2010Prop34
280
     0
102
RTVSPost2010PropOp34
 70
     1
102
RTVSPost2010Prop35
280
     0
102
RTVSPost2010PropOp35
 70
     1
102
RTVSPost2010Prop36
280
     0
102
RTVSPost2010PropOp36
 70
     1
102
RTVSPost2010Prop37
 90
       50
102
RTVSPost2010PropOp37
 70
     1
102
RTVSPost2010Prop38
140
0.0
102
RTVSPost2010PropOp38
 70
     1
102
RTVSPost2010Prop39
140
1.0
102
RTVSPost2010PropOp39
 70
     1
102
RTVSPost2010Prop40
 90
        0
102
RTVSPost2010PropOp40
 70
     1
102
RTVSPost2010Prop41ColorIndex
 90
       18
102
RTVSPost2010Prop41ColorRGB
 90
        0
102
RTVSPost2010PropOp41
 70
     1
102
RTVSPost2010Prop42
 90
       50
102
RTVSPost2010PropOp42
 70
     1
102
RTVSPost2010Prop43
 90
        3
102
RTVSPost2010PropOp43
 70
     1
102
RTVSPost2010Prop44ColorIndex
 90
        5
102
RTVSPost2010Prop44ColorRGB
 90
      255
102
RTVSPost2010PropOp44
 70
     1
102
RTVSPost2010Prop45
280
     0
102
RTVSPost2010PropOp45
 70
     1
102
RTVSPost2010Prop46
 90
       50
102
RTVSPost2010PropOp46
 70
     1
102
RTVSPost2010Prop47
 90
       50
102
RTVSPost2010PropOp47
 70
     1
102
RTVSPost2010Prop48
 90
       50
102
RTVSPost2010PropOp48
 70
     1
102
RTVSPost2010Prop49
280
     0
102
RTVSPost2010PropOp49
 70
     1
102
RTVSPost2010Prop50
 90
       50
102
RTVSPost2010PropOp50
 70
     1
102
RTVSPost2010Prop51ColorIndex
 90
      256
102
RTVSPost2010Prop51ColorRGB
 90
-16777216
102
RTVSPost2010PropOp51
 70
     0
102
RTVSPost2010Prop52
140
1.0
102
RTVSPost2010PropOp52
 70
     0
102
RTVSPost2010Prop53
 90
        2
102
RTVSPost2010PropOp53
 70
     1
102
RTVSPost2010Prop54
  1
strokes_ogs.tif
102
RTVSPost2010PropOp54
 70
     1
102
RTVSPost2010Prop55
280
     0
102
RTVSPost2010PropOp55
 70
     1
102
RTVSPost2010Prop56
140
1.0
102
RTVSPost2010PropOp56
 70
     1
102
RTVSPost2010Prop57
140
1.0
102
RTVSPost2010PropOp57
 70
     1
102
RTVSPropertyOp0
 70
     1
102
RTVSPropertyOp1
 70
     1
102
RTVSPropertyOp2
 70
     1
102
RTVSPropertyOp3
 70
     1
102
RTVSPropertyOp4
 70
     1
102
RTVSPropertyOp5
 70
     1
102
RTVSPropertyOp6
 70
     1
102
RTVSPropertyOp7
 70
     1
102
RTVSPropertyOp8
 70
     1
102
RTVSPropertyOp9
 70
     1
102
RTVSPropertyOp10
 70
     1
102
RTVSPropertyOp11
 70
     1
102
RTVSPropertyOp12
 70
     1
102
RTVSPropertyOp13
 70
     1
102
RTVSPropertyOp14
 70
     1
102
RTVSPropertyOp15
 70
     1
102
RTVSPropertyOp16
 70
     1
102
RTVSPropertyOp17
 70
     1
102
RTVSPropertyOp18
 70
     1
102
RTVSPropertyOp19
 70
     1
102
RTVSPropertyOp20
 70
     1
102
RTVSPropertyOp21
 70
     1
102
RTVSPropertyOp22
 70
     1
102
RTVSPropertyOp23
 70
     1
102
RTVSPropertyOp24
 70
     1
102
RTVSPropertyOp25
 70
     1
102
RTVSPropertyOp26
 70
     1
102
RTVSPropertyOp27
 70
     1
102
RTVSPropertyOp28
 70
     1
102
RTVSPropertyOp29
 70
     1
102
RTVSPropertyOp30
 70
     1
102
RTVSPropertyOp31
 70
     1
102
RTVSPropertyOp32
 70
     1
102
RTVSPropertyOp33
 70
     1
102
RTVSPropertyOp34
 70
     1
102
RTVSPropertyOp35
 70
     1
102
RTVSPropertyOp36
 70
     1
102
RTVSPropertyOp37
 70
     1
102
RTVSPropertyOp38
 70
     1
102
RTVSPropertyOp39
 70
     1
102
RTVSPropertyOp40
 70
     1
102
RTVSPropertyOp41
 70
     1
102
RTVSPropertyOp42
 70
     1
102
RTVSPropertyOp43
 70
     1
102
RTVSPropertyOp44
 70
     1
102
RTVSPropertyOp45
 70
     1
102
RTVSPropertyOp46
 70
     1
102
RTVSPropertyOp47
 70
     1
102
RTVSPropertyOp48
 70
     1
102
RTVSPropertyOp49
 70
     1
102
RTVSPropertyOp50
 70
     1
102
RTVSPropertyOp51
 70
     0
102
RTVSPropertyOp52
 70
     0
102
RTVSPropertyOp53
 70
     1
102
RTVSPropertyOp54
 70
     1
102
RTVSPropertyOp55
 70
     1
102
RTVSPropertyOp56
 70
     1
102
RTVSPropertyOp57
 70
     1
102
RTVSPropertyOp58
 70
     1
102
RTVSPropertyOp59
 70
     1
102
RTVSPropertyOp60
 70
     1
102
RTVSPropertyOp61
 70
     1
102
RTVSPropertyOp62
 70
     1
  0
XRECORD
  5
A0B
102
{ACAD_REACTORS
330
A0A
102
}
330
A0A
100
AcDbXrecord
280
     1
102
RTVSPost2010Prop28
280
     0
102
RTVSPost2010PropOp28
 70
     1
102
RTVSPost2010Prop29
280
     1
102
RTVSPost2010PropOp29
 70
     1
102
RTVSPost2010Prop30
280
     1
102
RTVSPost2010PropOp30
 70
     1
102
RTVSPost2010Prop31
280
     0
102
RTVSPost2010PropOp31
 70
     1
102
RTVSPost2010Prop32
280
     0
102
RTVSPost2010PropOp32
 70
     1
102
RTVSPost2010Prop33
280
     0
102
RTVSPost2010PropOp33
 70
     1
102
RTVSPost2010Prop34
280
     0
102
RTVSPost2010PropOp34
 70
     1
102
RTVSPost2010Prop35
280
     0
102
RTVSPost2010PropOp35
 70
     1
102
RTVSPost2010Prop36
280
     0
102
RTVSPost2010PropOp36
 70
     1
102
RTVSPost2010Prop37
 90
       50
102
RTVSPost2010PropOp37
 70
     1
102
RTVSPost2010Prop38
140
0.0
102
RTVSPost2010PropOp38
 70
     1
102
RTVSPost2010Prop39
140
1.0
102
RTVSPost2010PropOp39
 70
     1
102
RTVSPost2010Prop40
 90
        0
102
RTVSPost2010PropOp40
 70
     1
102
RTVSPost2010Prop41ColorIndex
 90
       18
102
RTVSPost2010Prop41ColorRGB
 90
        0
102
RTVSPost2010PropOp41
 70
     1
102
RTVSPost2010Prop42
 90
       50
102
RTVSPost2010PropOp42
 70
     1
102
RTVSPost2010Prop43
 90
        3
102
RTVSPost2010PropOp43
 70
     1
102
RTVSPost2010Prop44ColorIndex
 90
        5
102
RTVSPost2010Prop44ColorRGB
 90
      255
102
RTVSPost2010PropOp44
 70
     1
102
RTVSPost2010Prop45
280
     0
102
RTVSPost2010PropOp45
 70
     1
102
RTVSPost2010Prop46
 90
       50
102
RTVSPost2010PropOp46
 70
     1
102
RTVSPost2010Prop47
 90
       50
102
RTVSPost2010PropOp47
 70
     1
102
RTVSPost2010Prop48
 90
       50
102
RTVSPost2010PropOp48
 70
     1
102
RTVSPost2010Prop49
280
     0
102
RTVSPost2010PropOp49
 70
     1
102
RTVSPost2010Prop50
 90
       50
102
RTVSPost2010PropOp50
 70
     1
102
RTVSPost2010Prop51ColorIndex
 90
      256
102
RTVSPost2010Prop51ColorRGB
 90
-16777216
102
RTVSPost2010PropOp51
 70
     0
102
RTVSPost2010Prop52
140
1.0
102
RTVSPost2010PropOp52
 70
     0
102
RTVSPost2010Prop53
 90
        2
102
RTVSPost2010PropOp53
 70
     1
102
RTVSPost2010Prop54
  1
strokes_ogs.tif
102
RTVSPost2010PropOp54
 70
     1
102
RTVSPost2010Prop55
280
     0
102
RTVSPost2010PropOp55
 70
     1
102
RTVSPost2010Prop56
140
1.0
102
RTVSPost2010PropOp56
 70
     1
102
RTVSPost2010Prop57
140
1.0
102
RTVSPost2010PropOp57
 70
     1
102
RTVSPropertyOp0
 70
     1
102
RTVSPropertyOp1
 70
     1
102
RTVSPropertyOp2
 70
     1
102
RTVSPropertyOp3
 70
     1
102
RTVSPropertyOp4
 70
     1
102
RTVSPropertyOp5
 70
     1
102
RTVSPropertyOp6
 70
     1
102
RTVSPropertyOp7
 70
     1
102
RTVSPropertyOp8
 70
     1
102
RTVSPropertyOp9
 70
     1
102
RTVSPropertyOp10
 70
     1
102
RTVSPropertyOp11
 70
     1
102
RTVSPropertyOp12
 70
     1
102
RTVSPropertyOp13
 70
     1
102
RTVSPropertyOp14
 70
     1
102
RTVSPropertyOp15
 70
     1
102
RTVSPropertyOp16
 70
     1
102
RTVSPropertyOp17
 70
     1
102
RTVSPropertyOp18
 70
     1
102
RTVSPropertyOp19
 70
     1
102
RTVSPropertyOp20
 70
     1
102
RTVSPropertyOp21
 70
     1
102
RTVSPropertyOp22
 70
     1
102
RTVSPropertyOp23
 70
     1
102
RTVSPropertyOp24
 70
     1
102
RTVSPropertyOp25
 70
     1
102
RTVSPropertyOp26
 70
     1
102
RTVSPropertyOp27
 70
     1
102
RTVSPropertyOp28
 70
     1
102
RTVSPropertyOp29
 70
     1
102
RTVSPropertyOp30
 70
     1
102
RTVSPropertyOp31
 70
     1
102
RTVSPropertyOp32
 70
     1
102
RTVSPropertyOp33
 70
     1
102
RTVSPropertyOp34
 70
     1
102
RTVSPropertyOp35
 70
     1
102
RTVSPropertyOp36
 70
     1
102
RTVSPropertyOp37
 70
     1
102
RTVSPropertyOp38
 70
     1
102
RTVSPropertyOp39
 70
     1
102
RTVSPropertyOp40
 70
     1
102
RTVSPropertyOp41
 70
     1
102
RTVSPropertyOp42
 70
     1
102
RTVSPropertyOp43
 70
     1
102
RTVSPropertyOp44
 70
     1
102
RTVSPropertyOp45
 70
     1
102
RTVSPropertyOp46
 70
     1
102
RTVSPropertyOp47
 70
     1
102
RTVSPropertyOp48
 70
     1
102
RTVSPropertyOp49
 70
     1
102
RTVSPropertyOp50
 70
     1
102
RTVSPropertyOp51
 70
     0
102
RTVSPropertyOp52
 70
     0
102
RTVSPropertyOp53
 70
     1
102
RTVSPropertyOp54
 70
     1
102
RTVSPropertyOp55
 70
     1
102
RTVSPropertyOp56
 70
     1
102
RTVSPropertyOp57
 70
     1
102
RTVSPropertyOp58
 70
     1
102
RTVSPropertyOp59
 70
     1
102
RTVSPropertyOp60
 70
     1
102
RTVSPropertyOp61
 70
     1
102
RTVSPropertyOp62
 70
     1
  0
XRECORD
  5
A0D
102
{ACAD_REACTORS
330
A0C
102
}
330
A0C
100
AcDbXrecord
280
     1
102
RTVSPost2010Prop28
280
     0
102
RTVSPost2010PropOp28
 70
     1
102
RTVSPost2010Prop29
280
     1
102
RTVSPost2010PropOp29
 70
     1
102
RTVSPost2010Prop30
280
     1
102
RTVSPost2010PropOp30
 70
     1
102
RTVSPost2010Prop31
280
     0
102
RTVSPost2010PropOp31
 70
     1
102
RTVSPost2010Prop32
280
     0
102
RTVSPost2010PropOp32
 70
     1
102
RTVSPost2010Prop33
280
     0
102
RTVSPost2010PropOp33
 70
     1
102
RTVSPost2010Prop34
280
     0
102
RTVSPost2010PropOp34
 70
     1
102
RTVSPost2010Prop35
280
     0
102
RTVSPost2010PropOp35
 70
     1
102
RTVSPost2010Prop36
280
     0
102
RTVSPost2010PropOp36
 70
     1
102
RTVSPost2010Prop37
 90
       50
102
RTVSPost2010PropOp37
 70
     1
102
RTVSPost2010Prop38
140
0.0
102
RTVSPost2010PropOp38
 70
     1
102
RTVSPost2010Prop39
140
1.0
102
RTVSPost2010PropOp39
 70
     1
102
RTVSPost2010Prop40
 90
        0
102
RTVSPost2010PropOp40
 70
     1
102
RTVSPost2010Prop41ColorIndex
 90
       18
102
RTVSPost2010Prop41ColorRGB
 90
        0
102
RTVSPost2010PropOp41
 70
     1
102
RTVSPost2010Prop42
 90
       50
102
RTVSPost2010PropOp42
 70
     1
102
RTVSPost2010Prop43
 90
        3
102
RTVSPost2010PropOp43
 70
     1
102
RTVSPost2010Prop44ColorIndex
 90
        5
102
RTVSPost2010Prop44ColorRGB
 90
      255
102
RTVSPost2010PropOp44
 70
     1
102
RTVSPost2010Prop45
280
     0
102
RTVSPost2010PropOp45
 70
     1
102
RTVSPost2010Prop46
 90
       50
102
RTVSPost2010PropOp46
 70
     1
102
RTVSPost2010Prop47
 90
       50
102
RTVSPost2010PropOp47
 70
     1
102
RTVSPost2010Prop48
 90
       50
102
RTVSPost2010PropOp48
 70
     1
102
RTVSPost2010Prop49
280
     0
102
RTVSPost2010PropOp49
 70
     1
102
RTVSPost2010Prop50
 90
       50
102
RTVSPost2010PropOp50
 70
     1
102
RTVSPost2010Prop51ColorIndex
 90
      256
102
RTVSPost2010Prop51ColorRGB
 90
-16777216
102
RTVSPost2010PropOp51
 70
     0
102
RTVSPost2010Prop52
140
1.0
102
RTVSPost2010PropOp52
 70
     0
102
RTVSPost2010Prop53
 90
        2
102
RTVSPost2010PropOp53
 70
     1
102
RTVSPost2010Prop54
  1
strokes_ogs.tif
102
RTVSPost2010PropOp54
 70
     1
102
RTVSPost2010Prop55
280
     0
102
RTVSPost2010PropOp55
 70
     1
102
RTVSPost2010Prop56
140
1.0
102
RTVSPost2010PropOp56
 70
     1
102
RTVSPost2010Prop57
140
1.0
102
RTVSPost2010PropOp57
 70
     1
102
RTVSPropertyOp0
 70
     1
102
RTVSPropertyOp1
 70
     1
102
RTVSPropertyOp2
 70
     1
102
RTVSPropertyOp3
 70
     1
102
RTVSPropertyOp4
 70
     1
102
RTVSPropertyOp5
 70
     1
102
RTVSPropertyOp6
 70
     1
102
RTVSPropertyOp7
 70
     1
102
RTVSPropertyOp8
 70
     1
102
RTVSPropertyOp9
 70
     1
102
RTVSPropertyOp10
 70
     1
102
RTVSPropertyOp11
 70
     1
102
RTVSPropertyOp12
 70
     1
102
RTVSPropertyOp13
 70
     1
102
RTVSPropertyOp14
 70
     1
102
RTVSPropertyOp15
 70
     1
102
RTVSPropertyOp16
 70
     1
102
RTVSPropertyOp17
 70
     1
102
RTVSPropertyOp18
 70
     1
102
RTVSPropertyOp19
 70
     1
102
RTVSPropertyOp20
 70
     1
102
RTVSPropertyOp21
 70
     1
102
RTVSPropertyOp22
 70
     1
102
RTVSPropertyOp23
 70
     1
102
RTVSPropertyOp24
 70
     1
102
RTVSPropertyOp25
 70
     1
102
RTVSPropertyOp26
 70
     1
102
RTVSPropertyOp27
 70
     1
102
RTVSPropertyOp28
 70
     1
102
RTVSPropertyOp29
 70
     1
102
RTVSPropertyOp30
 70
     1
102
RTVSPropertyOp31
 70
     1
102
RTVSPropertyOp32
 70
     1
102
RTVSPropertyOp33
 70
     1
102
RTVSPropertyOp34
 70
     1
102
RTVSPropertyOp35
 70
     1
102
RTVSPropertyOp36
 70
     1
102
RTVSPropertyOp37
 70
     1
102
RTVSPropertyOp38
 70
     1
102
RTVSPropertyOp39
 70
     1
102
RTVSPropertyOp40
 70
     1
102
RTVSPropertyOp41
 70
     1
102
RTVSPropertyOp42
 70
     1
102
RTVSPropertyOp43
 70
     1
102
RTVSPropertyOp44
 70
     1
102
RTVSPropertyOp45
 70
     1
102
RTVSPropertyOp46
 70
     1
102
RTVSPropertyOp47
 70
     1
102
RTVSPropertyOp48
 70
     1
102
RTVSPropertyOp49
 70
     1
102
RTVSPropertyOp50
 70
     1
102
RTVSPropertyOp51
 70
     0
102
RTVSPropertyOp52
 70
     0
102
RTVSPropertyOp53
 70
     1
102
RTVSPropertyOp54
 70
     1
102
RTVSPropertyOp55
 70
     1
102
RTVSPropertyOp56
 70
     1
102
RTVSPropertyOp57
 70
     1
102
RTVSPropertyOp58
 70
     1
102
RTVSPropertyOp59
 70
     1
102
RTVSPropertyOp60
 70
     1
102
RTVSPropertyOp61
 70
     1
102
RTVSPropertyOp62
 70
     1
  0
XRECORD
  5
A03
102
{ACAD_REACTORS
330
A02
102
}
330
A02
100
AcDbXrecord
280
     1
102
RTVSPost2010Prop28
280
     0
102
RTVSPost2010PropOp28
 70
     1
102
RTVSPost2010Prop29
280
     1
102
RTVSPost2010PropOp29
 70
     1
102
RTVSPost2010Prop30
280
     1
102
RTVSPost2010PropOp30
 70
     1
102
RTVSPost2010Prop31
280
     0
102
RTVSPost2010PropOp31
 70
     1
102
RTVSPost2010Prop32
280
     0
102
RTVSPost2010PropOp32
 70
     1
102
RTVSPost2010Prop33
280
     0
102
RTVSPost2010PropOp33
 70
     1
102
RTVSPost2010Prop34
280
     0
102
RTVSPost2010PropOp34
 70
     1
102
RTVSPost2010Prop35
280
     0
102
RTVSPost2010PropOp35
 70
     1
102
RTVSPost2010Prop36
280
     0
102
RTVSPost2010PropOp36
 70
     1
102
RTVSPost2010Prop37
 90
       50
102
RTVSPost2010PropOp37
 70
     1
102
RTVSPost2010Prop38
140
0.0
102
RTVSPost2010PropOp38
 70
     1
102
RTVSPost2010Prop39
140
1.0
102
RTVSPost2010PropOp39
 70
     1
102
RTVSPost2010Prop40
 90
        0
102
RTVSPost2010PropOp40
 70
     1
102
RTVSPost2010Prop41ColorIndex
 90
       18
102
RTVSPost2010Prop41ColorRGB
 90
        0
102
RTVSPost2010PropOp41
 70
     1
102
RTVSPost2010Prop42
 90
       50
102
RTVSPost2010PropOp42
 70
     1
102
RTVSPost2010Prop43
 90
        3
102
RTVSPost2010PropOp43
 70
     1
102
RTVSPost2010Prop44ColorIndex
 90
        5
102
RTVSPost2010Prop44ColorRGB
 90
      255
102
RTVSPost2010PropOp44
 70
     1
102
RTVSPost2010Prop45
280
     0
102
RTVSPost2010PropOp45
 70
     1
102
RTVSPost2010Prop46
 90
       50
102
RTVSPost2010PropOp46
 70
     1
102
RTVSPost2010Prop47
 90
       50
102
RTVSPost2010PropOp47
 70
     1
102
RTVSPost2010Prop48
 90
       50
102
RTVSPost2010PropOp48
 70
     1
102
RTVSPost2010Prop49
280
     0
102
RTVSPost2010PropOp49
 70
     1
102
RTVSPost2010Prop50
 90
       50
102
RTVSPost2010PropOp50
 70
     1
102
RTVSPost2010Prop51ColorIndex
 90
      256
102
RTVSPost2010Prop51ColorRGB
 90
-16777216
102
RTVSPost2010PropOp51
 70
     0
102
RTVSPost2010Prop52
140
1.0
102
RTVSPost2010PropOp52
 70
     0
102
RTVSPost2010Prop53
 90
        2
102
RTVSPost2010PropOp53
 70
     1
102
RTVSPost2010Prop54
  1
strokes_ogs.tif
102
RTVSPost2010PropOp54
 70
     1
102
RTVSPost2010Prop55
280
     0
102
RTVSPost2010PropOp55
 70
     1
102
RTVSPost2010Prop56
140
1.0
102
RTVSPost2010PropOp56
 70
     1
102
RTVSPost2010Prop57
140
1.0
102
RTVSPost2010PropOp57
 70
     1
102
RTVSPropertyOp0
 70
     1
102
RTVSPropertyOp1
 70
     1
102
RTVSPropertyOp2
 70
     1
102
RTVSPropertyOp3
 70
     1
102
RTVSPropertyOp4
 70
     1
102
RTVSPropertyOp5
 70
     1
102
RTVSPropertyOp6
 70
     1
102
RTVSPropertyOp7
 70
     1
102
RTVSPropertyOp8
 70
     1
102
RTVSPropertyOp9
 70
     1
102
RTVSPropertyOp10
 70
     1
102
RTVSPropertyOp11
 70
     1
102
RTVSPropertyOp12
 70
     1
102
RTVSPropertyOp13
 70
     1
102
RTVSPropertyOp14
 70
     1
102
RTVSPropertyOp15
 70
     1
102
RTVSPropertyOp16
 70
     1
102
RTVSPropertyOp17
 70
     1
102
RTVSPropertyOp18
 70
     1
102
RTVSPropertyOp19
 70
     1
102
RTVSPropertyOp20
 70
     1
102
RTVSPropertyOp21
 70
     1
102
RTVSPropertyOp22
 70
     1
102
RTVSPropertyOp23
 70
     1
102
RTVSPropertyOp24
 70
     1
102
RTVSPropertyOp25
 70
     1
102
RTVSPropertyOp26
 70
     1
102
RTVSPropertyOp27
 70
     1
102
RTVSPropertyOp28
 70
     1
102
RTVSPropertyOp29
 70
     1
102
RTVSPropertyOp30
 70
     1
102
RTVSPropertyOp31
 70
     1
102
RTVSPropertyOp32
 70
     1
102
RTVSPropertyOp33
 70
     1
102
RTVSPropertyOp34
 70
     1
102
RTVSPropertyOp35
 70
     1
102
RTVSPropertyOp36
 70
     1
102
RTVSPropertyOp37
 70
     1
102
RTVSPropertyOp38
 70
     1
102
RTVSPropertyOp39
 70
     1
102
RTVSPropertyOp40
 70
     1
102
RTVSPropertyOp41
 70
     1
102
RTVSPropertyOp42
 70
     1
102
RTVSPropertyOp43
 70
     1
102
RTVSPropertyOp44
 70
     1
102
RTVSPropertyOp45
 70
     1
102
RTVSPropertyOp46
 70
     1
102
RTVSPropertyOp47
 70
     1
102
RTVSPropertyOp48
 70
     1
102
RTVSPropertyOp49
 70
     1
102
RTVSPropertyOp50
 70
     1
102
RTVSPropertyOp51
 70
     0
102
RTVSPropertyOp52
 70
     0
102
RTVSPropertyOp53
 70
     1
102
RTVSPropertyOp54
 70
     1
102
RTVSPropertyOp55
 70
     1
102
RTVSPropertyOp56
 70
     1
102
RTVSPropertyOp57
 70
     1
102
RTVSPropertyOp58
 70
     1
102
RTVSPropertyOp59
 70
     1
102
RTVSPropertyOp60
 70
     1
102
RTVSPropertyOp61
 70
     1
102
RTVSPropertyOp62
 70
     1
  0
XRECORD
  5
9F7
102
{ACAD_REACTORS
330
9F6
102
}
330
9F6
100
AcDbXrecord
280
     1
102
RTVSPost2010Prop28
280
     0
102
RTVSPost2010PropOp28
 70
     1
102
RTVSPost2010Prop29
280
     1
102
RTVSPost2010PropOp29
 70
     1
102
RTVSPost2010Prop30
280
     1
102
RTVSPost2010PropOp30
 70
     1
102
RTVSPost2010Prop31
280
     0
102
RTVSPost2010PropOp31
 70
     1
102
RTVSPost2010Prop32
280
     0
102
RTVSPost2010PropOp32
 70
     1
102
RTVSPost2010Prop33
280
     0
102
RTVSPost2010PropOp33
 70
     1
102
RTVSPost2010Prop34
280
     0
102
RTVSPost2010PropOp34
 70
     1
102
RTVSPost2010Prop35
280
     0
102
RTVSPost2010PropOp35
 70
     1
102
RTVSPost2010Prop36
280
     0
102
RTVSPost2010PropOp36
 70
     1
102
RTVSPost2010Prop37
 90
       50
102
RTVSPost2010PropOp37
 70
     1
102
RTVSPost2010Prop38
140
0.0
102
RTVSPost2010PropOp38
 70
     1
102
RTVSPost2010Prop39
140
1.0
102
RTVSPost2010PropOp39
 70
     1
102
RTVSPost2010Prop40
 90
        0
102
RTVSPost2010PropOp40
 70
     1
102
RTVSPost2010Prop41ColorIndex
 90
       18
102
RTVSPost2010Prop41ColorRGB
 90
        0
102
RTVSPost2010PropOp41
 70
     1
102
RTVSPost2010Prop42
 90
       50
102
RTVSPost2010PropOp42
 70
     1
102
RTVSPost2010Prop43
 90
        3
102
RTVSPost2010PropOp43
 70
     1
102
RTVSPost2010Prop44ColorIndex
 90
        5
102
RTVSPost2010Prop44ColorRGB
 90
      255
102
RTVSPost2010PropOp44
 70
     1
102
RTVSPost2010Prop45
280
     0
102
RTVSPost2010PropOp45
 70
     1
102
RTVSPost2010Prop46
 90
       50
102
RTVSPost2010PropOp46
 70
     1
102
RTVSPost2010Prop47
 90
       50
102
RTVSPost2010PropOp47
 70
     1
102
RTVSPost2010Prop48
 90
       50
102
RTVSPost2010PropOp48
 70
     1
102
RTVSPost2010Prop49
280
     0
102
RTVSPost2010PropOp49
 70
     1
102
RTVSPost2010Prop50
 90
       50
102
RTVSPost2010PropOp50
 70
     1
102
RTVSPost2010Prop51ColorIndex
 90
      256
102
RTVSPost2010Prop51ColorRGB
 90
-16777216
102
RTVSPost2010PropOp51
 70
     0
102
RTVSPost2010Prop52
140
1.0
102
RTVSPost2010PropOp52
 70
     0
102
RTVSPost2010Prop53
 90
        2
102
RTVSPost2010PropOp53
 70
     1
102
RTVSPost2010Prop54
  1
strokes_ogs.tif
102
RTVSPost2010PropOp54
 70
     1
102
RTVSPost2010Prop55
280
     0
102
RTVSPost2010PropOp55
 70
     1
102
RTVSPost2010Prop56
140
1.0
102
RTVSPost2010PropOp56
 70
     1
102
RTVSPost2010Prop57
140
1.0
102
RTVSPost2010PropOp57
 70
     1
102
RTVSPropertyOp0
 70
     1
102
RTVSPropertyOp1
 70
     1
102
RTVSPropertyOp2
 70
     1
102
RTVSPropertyOp3
 70
     1
102
RTVSPropertyOp4
 70
     1
102
RTVSPropertyOp5
 70
     1
102
RTVSPropertyOp6
 70
     1
102
RTVSPropertyOp7
 70
     1
102
RTVSPropertyOp8
 70
     1
102
RTVSPropertyOp9
 70
     1
102
RTVSPropertyOp10
 70
     1
102
RTVSPropertyOp11
 70
     1
102
RTVSPropertyOp12
 70
     1
102
RTVSPropertyOp13
 70
     1
102
RTVSPropertyOp14
 70
     1
102
RTVSPropertyOp15
 70
     1
102
RTVSPropertyOp16
 70
     1
102
RTVSPropertyOp17
 70
     1
102
RTVSPropertyOp18
 70
     1
102
RTVSPropertyOp19
 70
     1
102
RTVSPropertyOp20
 70
     1
102
RTVSPropertyOp21
 70
     1
102
RTVSPropertyOp22
 70
     1
102
RTVSPropertyOp23
 70
     1
102
RTVSPropertyOp24
 70
     1
102
RTVSPropertyOp25
 70
     1
102
RTVSPropertyOp26
 70
     1
102
RTVSPropertyOp27
 70
     1
102
RTVSPropertyOp28
 70
     1
102
RTVSPropertyOp29
 70
     1
102
RTVSPropertyOp30
 70
     1
102
RTVSPropertyOp31
 70
     1
102
RTVSPropertyOp32
 70
     1
102
RTVSPropertyOp33
 70
     1
102
RTVSPropertyOp34
 70
     1
102
RTVSPropertyOp35
 70
     1
102
RTVSPropertyOp36
 70
     1
102
RTVSPropertyOp37
 70
     1
102
RTVSPropertyOp38
 70
     1
102
RTVSPropertyOp39
 70
     1
102
RTVSPropertyOp40
 70
     1
102
RTVSPropertyOp41
 70
     1
102
RTVSPropertyOp42
 70
     1
102
RTVSPropertyOp43
 70
     1
102
RTVSPropertyOp44
 70
     1
102
RTVSPropertyOp45
 70
     1
102
RTVSPropertyOp46
 70
     1
102
RTVSPropertyOp47
 70
     1
102
RTVSPropertyOp48
 70
     1
102
RTVSPropertyOp49
 70
     1
102
RTVSPropertyOp50
 70
     1
102
RTVSPropertyOp51
 70
     0
102
RTVSPropertyOp52
 70
     0
102
RTVSPropertyOp53
 70
     1
102
RTVSPropertyOp54
 70
     1
102
RTVSPropertyOp55
 70
     1
102
RTVSPropertyOp56
 70
     1
102
RTVSPropertyOp57
 70
     1
102
RTVSPropertyOp58
 70
     1
102
RTVSPropertyOp59
 70
     1
102
RTVSPropertyOp60
 70
     1
102
RTVSPropertyOp61
 70
     1
102
RTVSPropertyOp62
 70
     1
  0
XRECORD
  5
A0F
102
{ACAD_REACTORS
330
A0E
102
}
330
A0E
100
AcDbXrecord
280
     1
102
RTVSPost2010Prop28
280
     0
102
RTVSPost2010PropOp28
 70
     1
102
RTVSPost2010Prop29
280
     1
102
RTVSPost2010PropOp29
 70
     1
102
RTVSPost2010Prop30
280
     1
102
RTVSPost2010PropOp30
 70
     1
102
RTVSPost2010Prop31
280
     0
102
RTVSPost2010PropOp31
 70
     1
102
RTVSPost2010Prop32
280
     0
102
RTVSPost2010PropOp32
 70
     1
102
RTVSPost2010Prop33
280
     0
102
RTVSPost2010PropOp33
 70
     1
102
RTVSPost2010Prop34
280
     0
102
RTVSPost2010PropOp34
 70
     1
102
RTVSPost2010Prop35
280
     0
102
RTVSPost2010PropOp35
 70
     1
102
RTVSPost2010Prop36
280
     0
102
RTVSPost2010PropOp36
 70
     1
102
RTVSPost2010Prop37
 90
       50
102
RTVSPost2010PropOp37
 70
     1
102
RTVSPost2010Prop38
140
0.0
102
RTVSPost2010PropOp38
 70
     1
102
RTVSPost2010Prop39
140
1.0
102
RTVSPost2010PropOp39
 70
     1
102
RTVSPost2010Prop40
 90
        0
102
RTVSPost2010PropOp40
 70
     1
102
RTVSPost2010Prop41ColorIndex
 90
       18
102
RTVSPost2010Prop41ColorRGB
 90
        0
102
RTVSPost2010PropOp41
 70
     1
102
RTVSPost2010Prop42
 90
       50
102
RTVSPost2010PropOp42
 70
     1
102
RTVSPost2010Prop43
 90
        3
102
RTVSPost2010PropOp43
 70
     1
102
RTVSPost2010Prop44ColorIndex
 90
        5
102
RTVSPost2010Prop44ColorRGB
 90
      255
102
RTVSPost2010PropOp44
 70
     1
102
RTVSPost2010Prop45
280
     0
102
RTVSPost2010PropOp45
 70
     1
102
RTVSPost2010Prop46
 90
       50
102
RTVSPost2010PropOp46
 70
     1
102
RTVSPost2010Prop47
 90
       50
102
RTVSPost2010PropOp47
 70
     1
102
RTVSPost2010Prop48
 90
       50
102
RTVSPost2010PropOp48
 70
     1
102
RTVSPost2010Prop49
280
     0
102
RTVSPost2010PropOp49
 70
     1
102
RTVSPost2010Prop50
 90
       50
102
RTVSPost2010PropOp50
 70
     1
102
RTVSPost2010Prop51ColorIndex
 90
      256
102
RTVSPost2010Prop51ColorRGB
 90
-16777216
102
RTVSPost2010PropOp51
 70
     0
102
RTVSPost2010Prop52
140
1.0
102
RTVSPost2010PropOp52
 70
     0
102
RTVSPost2010Prop53
 90
        2
102
RTVSPost2010PropOp53
 70
     1
102
RTVSPost2010Prop54
  1
strokes_ogs.tif
102
RTVSPost2010PropOp54
 70
     1
102
RTVSPost2010Prop55
280
     0
102
RTVSPost2010PropOp55
 70
     1
102
RTVSPost2010Prop56
140
1.0
102
RTVSPost2010PropOp56
 70
     1
102
RTVSPost2010Prop57
140
1.0
102
RTVSPost2010PropOp57
 70
     1
102
RTVSPropertyOp0
 70
     1
102
RTVSPropertyOp1
 70
     1
102
RTVSPropertyOp2
 70
     1
102
RTVSPropertyOp3
 70
     1
102
RTVSPropertyOp4
 70
     1
102
RTVSPropertyOp5
 70
     1
102
RTVSPropertyOp6
 70
     1
102
RTVSPropertyOp7
 70
     1
102
RTVSPropertyOp8
 70
     1
102
RTVSPropertyOp9
 70
     1
102
RTVSPropertyOp10
 70
     1
102
RTVSPropertyOp11
 70
     1
102
RTVSPropertyOp12
 70
     1
102
RTVSPropertyOp13
 70
     1
102
RTVSPropertyOp14
 70
     1
102
RTVSPropertyOp15
 70
     1
102
RTVSPropertyOp16
 70
     1
102
RTVSPropertyOp17
 70
     1
102
RTVSPropertyOp18
 70
     1
102
RTVSPropertyOp19
 70
     1
102
RTVSPropertyOp20
 70
     1
102
RTVSPropertyOp21
 70
     1
102
RTVSPropertyOp22
 70
     1
102
RTVSPropertyOp23
 70
     1
102
RTVSPropertyOp24
 70
     1
102
RTVSPropertyOp25
 70
     1
102
RTVSPropertyOp26
 70
     1
102
RTVSPropertyOp27
 70
     1
102
RTVSPropertyOp28
 70
     1
102
RTVSPropertyOp29
 70
     1
102
RTVSPropertyOp30
 70
     1
102
RTVSPropertyOp31
 70
     1
102
RTVSPropertyOp32
 70
     1
102
RTVSPropertyOp33
 70
     1
102
RTVSPropertyOp34
 70
     1
102
RTVSPropertyOp35
 70
     1
102
RTVSPropertyOp36
 70
     1
102
RTVSPropertyOp37
 70
     1
102
RTVSPropertyOp38
 70
     1
102
RTVSPropertyOp39
 70
     1
102
RTVSPropertyOp40
 70
     1
102
RTVSPropertyOp41
 70
     1
102
RTVSPropertyOp42
 70
     1
102
RTVSPropertyOp43
 70
     1
102
RTVSPropertyOp44
 70
     1
102
RTVSPropertyOp45
 70
     1
102
RTVSPropertyOp46
 70
     1
102
RTVSPropertyOp47
 70
     1
102
RTVSPropertyOp48
 70
     1
102
RTVSPropertyOp49
 70
     1
102
RTVSPropertyOp50
 70
     1
102
RTVSPropertyOp51
 70
     0
102
RTVSPropertyOp52
 70
     0
102
RTVSPropertyOp53
 70
     1
102
RTVSPropertyOp54
 70
     1
102
RTVSPropertyOp55
 70
     1
102
RTVSPropertyOp56
 70
     1
102
RTVSPropertyOp57
 70
     1
102
RTVSPropertyOp58
 70
     1
102
RTVSPropertyOp59
 70
     1
102
RTVSPropertyOp60
 70
     1
102
RTVSPropertyOp61
 70
     1
102
RTVSPropertyOp62
 70
     1
  0
ENDSEC
  0
EOF
